  0
SECTION
  2
HEADER
  9
$ACADVER
  1
AC1018
  9
$ACADMAINTVER
 70
     0
  9
$DWGCODEPAGE
  3
ANSI_1252
  9
$INSBASE
 10
0.0
 20
0.0
 30
0.0
  9
$EXTMIN
 10
-1.156496492394367
 20
1.172388148967135
 30
-1.156496492394367
  9
$EXTMAX
 10
-0.1065069923943684
 20
2.657373298967135
 30
-0.1065069923943684
  9
$LIMMIN
 10
-1.156496492394367
 20
1.172388148967135
  9
$LIMMAX
 10
-0.1065069923943684
 20
2.657373298967135
  9
$ORTHOMODE
 70
     0
  9
$REGENMODE
 70
     1
  9
$FILLMODE
 70
     1
  9
$QTEXTMODE
 70
     0
  9
$MIRRTEXT
 70
     1
  9
$LTSCALE
 40
1.0
  9
$ATTMODE
 70
     1
  9
$TEXTSIZE
 40
0.2
  9
$TRACEWID
 40
0.05
  9
$TEXTSTYLE
  7
Standard
  9
$CLAYER
  8
0
  9
$CELTYPE
  6
ByLayer
  9
$CECOLOR
 62
   256
  9
$CELTSCALE
 40
1.0
  9
$DISPSILH
 70
     0
  9
$DIMSCALE
 40
1.0
  9
$DIMASZ
 40
0.18
  9
$DIMEXO
 40
0.0625
  9
$DIMDLI
 40
0.38
  9
$DIMRND
 40
0.0
  9
$DIMDLE
 40
0.0
  9
$DIMEXE
 40
0.18
  9
$DIMTP
 40
0.0
  9
$DIMTM
 40
0.0
  9
$DIMTXT
 40
0.18
  9
$DIMCEN
 40
0.09
  9
$DIMTSZ
 40
0.0
  9
$DIMTOL
 70
     0
  9
$DIMLIM
 70
     0
  9
$DIMTIH
 70
     1
  9
$DIMTOH
 70
     1
  9
$DIMSE1
 70
     0
  9
$DIMSE2
 70
     0
  9
$DIMTAD
 70
     0
  9
$DIMZIN
 70
     0
  9
$DIMBLK
  1

  9
$DIMASO
 70
     1
  9
$DIMSHO
 70
     1
  9
$DIMPOST
  1

  9
$DIMAPOST
  1

  9
$DIMALT
 70
     0
  9
$DIMALTD
 70
     2
  9
$DIMALTF
 40
25.4
  9
$DIMLFAC
 40
1.0
  9
$DIMTOFL
 70
     0
  9
$DIMTVP
 40
0.0
  9
$DIMTIX
 70
     0
  9
$DIMSOXD
 70
     0
  9
$DIMSAH
 70
     0
  9
$DIMBLK1
  1

  9
$DIMBLK2
  1

  9
$DIMSTYLE
  2
Standard
  9
$DIMCLRD
 70
     0
  9
$DIMCLRE
 70
     0
  9
$DIMCLRT
 70
     0
  9
$DIMTFAC
 40
1.0
  9
$DIMGAP
 40
0.09
  9
$DIMJUST
 70
     0
  9
$DIMSD1
 70
     0
  9
$DIMSD2
 70
     0
  9
$DIMTOLJ
 70
     1
  9
$DIMTZIN
 70
     0
  9
$DIMALTZ
 70
     0
  9
$DIMALTTZ
 70
     0
  9
$DIMUPT
 70
     0
  9
$DIMDEC
 70
     4
  9
$DIMTDEC
 70
     4
  9
$DIMALTU
 70
     2
  9
$DIMALTTD
 70
     2
  9
$DIMTXSTY
  7
Standard
  9
$DIMAUNIT
 70
     0
  9
$DIMADEC
 70
     0
  9
$DIMALTRND
 40
0.0
  9
$DIMAZIN
 70
     0
  9
$DIMDSEP
 70
    46
  9
$DIMATFIT
 70
     3
  9
$DIMFRAC
 70
     0
  9
$DIMLDRBLK
  1

  9
$DIMLUNIT
 70
     2
  9
$DIMLWD
 70
    -2
  9
$DIMLWE
 70
    -2
  9
$DIMTMOVE
 70
     0
  9
$LUNITS
 70
     2
  9
$LUPREC
 70
     4
  9
$SKETCHINC
 40
0.1
  9
$FILLETRAD
 40
0.5
  9
$AUNITS
 70
     0
  9
$AUPREC
 70
     0
  9
$MENU
  1
.
  9
$ELEVATION
 40
0.0
  9
$PELEVATION
 40
0.0
  9
$THICKNESS
 40
0.0
  9
$LIMCHECK
 70
     0
  9
$CHAMFERA
 40
0.5
  9
$CHAMFERB
 40
0.5
  9
$CHAMFERC
 40
1.0
  9
$CHAMFERD
 40
0.0
  9
$SKPOLY
 70
     0
  9
$TDCREATE
 40
2456756.395913218
  9
$TDUCREATE
 40
2456756.312579884
  9
$TDUPDATE
 40
2456756.395913229
  9
$TDUUPDATE
 40
2456756.312579896
  9
$TDINDWG
 40
0.0000000116
  9
$TDUSRTIMER
 40
0.0000000116
  9
$USRTIMER
 70
     1
  9
$ANGBASE
 50
0.0
  9
$ANGDIR
 70
     0
  9
$PDMODE
 70
    65
  9
$PDSIZE
 40
0.0
  9
$PLINEWID
 40
0.0
  9
$SPLFRAME
 70
     0
  9
$SPLINETYPE
 70
     6
  9
$SPLINESEGS
 70
     8
  9
$HANDSEED
  5
E4
  9
$SURFTAB1
 70
     6
  9
$SURFTAB2
 70
     6
  9
$SURFTYPE
 70
     6
  9
$SURFU
 70
     6
  9
$SURFV
 70
     6
  9
$UCSBASE
  2

  9
$UCSNAME
  2

  9
$UCSORG
 10
0.0
 20
0.0
 30
0.0
  9
$UCSXDIR
 10
1.0
 20
0.0
 30
0.0
  9
$UCSYDIR
 10
0.0
 20
1.0
 30
0.0
  9
$UCSORTHOREF
  2

  9
$UCSORTHOVIEW
 70
     0
  9
$UCSORGTOP
 10
0.0
 20
0.0
 30
0.0
  9
$UCSORGBOTTOM
 10
0.0
 20
0.0
 30
0.0
  9
$UCSORGLEFT
 10
0.0
 20
0.0
 30
0.0
  9
$UCSORGRIGHT
 10
0.0
 20
0.0
 30
0.0
  9
$UCSORGFRONT
 10
0.0
 20
0.0
 30
0.0
  9
$UCSORGBACK
 10
0.0
 20
0.0
 30
0.0
  9
$PUCSBASE
  2

  9
$PUCSNAME
  2

  9
$PUCSORG
 10
0.0
 20
0.0
 30
0.0
  9
$PUCSXDIR
 10
1.0
 20
0.0
 30
0.0
  9
$PUCSYDIR
 10
0.0
 20
1.0
 30
0.0
  9
$PUCSORTHOREF
  2

  9
$PUCSORTHOVIEW
 70
     0
  9
$PUCSORGTOP
 10
0.0
 20
0.0
 30
0.0
  9
$PUCSORGBOTTOM
 10
0.0
 20
0.0
 30
0.0
  9
$PUCSORGLEFT
 10
0.0
 20
0.0
 30
0.0
  9
$PUCSORGRIGHT
 10
0.0
 20
0.0
 30
0.0
  9
$PUCSORGFRONT
 10
0.0
 20
0.0
 30
0.0
  9
$PUCSORGBACK
 10
0.0
 20
0.0
 30
0.0
  9
$USERI1
 70
     0
  9
$USERI2
 70
     0
  9
$USERI3
 70
     0
  9
$USERI4
 70
     0
  9
$USERI5
 70
     0
  9
$USERR1
 40
0.0
  9
$USERR2
 40
0.0
  9
$USERR3
 40
0.0
  9
$USERR4
 40
0.0
  9
$USERR5
 40
0.0
  9
$WORLDVIEW
 70
     1
  9
$SHADEDGE
 70
     3
  9
$SHADEDIF
 70
    70
  9
$TILEMODE
 70
     1
  9
$MAXACTVP
 70
    64
  9
$PINSBASE
 10
0.0
 20
0.0
 30
0.0
  9
$PLIMCHECK
 70
     0
  9
$PEXTMIN
 10
1.000000000000000E+20
 20
1.000000000000000E+20
 30
1.000000000000000E+20
  9
$PEXTMAX
 10
-1.000000000000000E+20
 20
-1.000000000000000E+20
 30
-1.000000000000000E+20
  9
$PLIMMIN
 10
0.0
 20
0.0
  9
$PLIMMAX
 10
12.0
 20
9.0
  9
$UNITMODE
 70
     0
  9
$VISRETAIN
 70
     1
  9
$PLINEGEN
 70
     0
  9
$PSLTSCALE
 70
     1
  9
$TREEDEPTH
 70
  3020
  9
$CMLSTYLE
  2
Standard
  9
$CMLJUST
 70
     0
  9
$CMLSCALE
 40
1.0
  9
$PROXYGRAPHICS
 70
     1
  9
$MEASUREMENT
 70
     1
  9
$CELWEIGHT
370
    -1
  9
$ENDCAPS
280
     0
  9
$JOINSTYLE
280
     0
  9
$LWDISPLAY
290
     0
  9
$INSUNITS
 70
     6
  9
$HYPERLINKBASE
  1

  9
$STYLESHEET
  1

  9
$XEDIT
290
     1
  9
$CEPSNTYPE
380
     0
  9
$PSTYLEMODE
290
     1
  9
$FINGERPRINTGUID
  2
{3034AA86-D95F-4C07-A7B4-87E0D3921B6B}
  9
$VERSIONGUID
  2
{FAEB1C32-E019-11D5-929B-00C0DF256EC4}
  9
$EXTNAMES
290
     1
  9
$PSVPSCALE
 40
0.0
  9
$OLESTARTUP
290
     0
  9
$SORTENTS
280
   127
  9
$INDEXCTL
280
     0
  9
$HIDETEXT
280
     1
  9
$XCLIPFRAME
290
     0
  9
$HALOGAP
280
     0
  9
$OBSCOLOR
 70
   257
  9
$OBSLTYPE
280
     0
  9
$INTERSECTIONDISPLAY
280
     0
  9
$INTERSECTIONCOLOR
 70
   257
  9
$DIMASSOC
280
     2
  9
$PROJECTNAME
  1

  0
ENDSEC
  0
SECTION
  2
CLASSES
  0
CLASS
  1
ACDBDICTIONARYWDFLT
  2
AcDbDictionaryWithDefault
  3
ObjectDBX Classes
 90
        0
 91
       10
280
     0
281
     0
  0
CLASS
  1
SORTENTSTABLE
  2
AcDbSortentsTable
  3
ObjectDBX Classes
 90
        0
 91
        9
280
     0
281
     0
  0
ENDSEC
  0
SECTION
  2
TABLES
  0
TABLE
  2
VPORT
  5
8
330
0
100
AcDbSymbolTable
 70
     1
  0
VPORT
  5
29
330
8
100
AcDbSymbolTableRecord
100
AcDbViewportTableRecord
  2
*Active
 70
     0
 10
0.0
 20
0.0
 11
1.0
 21
1.0
 12
-0.6315017423943678
 22
1.914880723967135
 13
0.0
 23
0.0
 14
0.5
 24
0.5
 15
0.5
 25
0.5
 16
0.0
 26
0.0
 36
1.0
 17
0.0
 27
0.0
 37
0.0
 40
1.78198218
 41
0.8484848484848475
 42
50.0
 43
0.0
 44
0.0
 50
0.0
 51
0.0
 71
     0
 72
   100
 73
     1
 74
     3
 75
     0
 76
     0
 77
     0
 78
     0
281
     0
 65
     1
110
0.0
120
0.0
130
0.0
111
1.0
121
0.0
131
0.0
112
0.0
122
1.0
132
0.0
 79
     0
146
0.0
  0
ENDTAB
  0
TABLE
  2
LTYPE
  5
5
330
0
100
AcDbSymbolTable
 70
     4
  0
LTYPE
  5
14
330
5
100
AcDbSymbolTableRecord
100
AcDbLinetypeTableRecord
  2
ByBlock
 70
     0
  3

 72
    65
 73
     0
 40
0.0
  0
LTYPE
  5
15
330
5
100
AcDbSymbolTableRecord
100
AcDbLinetypeTableRecord
  2
ByLayer
 70
     0
  3

 72
    65
 73
     0
 40
0.0
  0
LTYPE
  5
16
330
5
100
AcDbSymbolTableRecord
100
AcDbLinetypeTableRecord
  2
Continuous
 70
     0
  3
Solid line
 72
    65
 73
     0
 40
0.0
  0
LTYPE
  5
2A
330
5
100
AcDbSymbolTableRecord
100
AcDbLinetypeTableRecord
  2
AUSGEZOGEN
 70
     0
  3
durchgezogene Linie
 72
    65
 73
     0
 40
0.0
  0
LTYPE
  5
2B
330
5
100
AcDbSymbolTableRecord
100
AcDbLinetypeTableRecord
  2
STRICHPUNKT
 70
     0
  3
Strichpunktiert ___ . ___ . ___ . ___ . ___ . _
 72
    65
 73
     4
 40
25.4
 49
12.7
 74
     0
 49
-6.35
 74
     0
 49
0.0
 74
     0
 49
-6.35
 74
     0
  0
LTYPE
  5
2C
330
5
100
AcDbSymbolTableRecord
100
AcDbLinetypeTableRecord
  2
VERDECKT
 70
     0
  3
Kurzgestrichelt __ __ __ __ __ __ __ __ __ __ _
 72
    65
 73
     2
 40
9.524999999999999
 49
6.35
 74
     0
 49
-3.175
 74
     0
  0
ENDTAB
  0
TABLE
  2
LAYER
  5
2
330
0
100
AcDbSymbolTable
 70
     2
  0
LAYER
  5
10
330
2
100
AcDbSymbolTableRecord
100
AcDbLayerTableRecord
  2
0
 70
     0
 62
     7
  6
Continuous
370
    -3
390
F
  0
LAYER
  5
2E
330
2
100
AcDbSymbolTableRecord
100
AcDbLayerTableRecord
  2
STANDARD
 70
     0
 62
     7
  6
AUSGEZOGEN
370
    18
390
F
1001
AcAecLayerStandard
1000

1000
STANDARD
  0
ENDTAB
  0
TABLE
  2
STYLE
  5
3
330
0
100
AcDbSymbolTable
 70
     2
  0
STYLE
  5
11
330
3
100
AcDbSymbolTableRecord
100
AcDbTextStyleTableRecord
  2
Standard
 70
     0
 40
0.0
 41
1.0
 50
0.0
 71
     0
 42
0.2
  3
txt
  4

  0
STYLE
  5
2D
330
3
100
AcDbSymbolTableRecord
100
AcDbTextStyleTableRecord
  2
ARIAL
 70
     0
 40
0.0
 41
1.0
 50
0.0
 71
     0
 42
0.0
  3
ARIAL.TTF
  4

1001
ACAD
1000
Arial
1071
       34
  0
ENDTAB
  0
TABLE
  2
VIEW
  5
6
330
0
100
AcDbSymbolTable
 70
     0
  0
ENDTAB
  0
TABLE
  2
UCS
  5
7
330
0
100
AcDbSymbolTable
 70
     0
  0
ENDTAB
  0
TABLE
  2
APPID
  5
9
330
0
100
AcDbSymbolTable
 70
     3
  0
APPID
  5
12
330
9
100
AcDbSymbolTableRecord
100
AcDbRegAppTableRecord
  2
ACAD
 70
     0
  0
APPID
  5
2F
330
9
100
AcDbSymbolTableRecord
100
AcDbRegAppTableRecord
  2
AcAecLayerStandard
 70
     0
  0
APPID
  5
4F
330
9
100
AcDbSymbolTableRecord
100
AcDbRegAppTableRecord
  2
NEM_ODX
 70
     0
  0
ENDTAB
  0
TABLE
  2
DIMSTYLE
  5
A
330
0
100
AcDbSymbolTable
 70
     1
100
AcDbDimStyleTable
  0
DIMSTYLE
105
27
330
A
100
AcDbSymbolTableRecord
100
AcDbDimStyleTableRecord
  2
Standard
 70
     0
340
11
  0
ENDTAB
  0
TABLE
  2
BLOCK_RECORD
  5
1
330
0
100
AcDbSymbolTable
 70
     1
  0
BLOCK_RECORD
  5
1F
102
{ACAD_XDICTIONARY
360
E2
102
}
330
1
100
AcDbSymbolTableRecord
100
AcDbBlockTableRecord
  2
*Model_Space
340
22
  0
BLOCK_RECORD
  5
1B
330
1
100
AcDbSymbolTableRecord
100
AcDbBlockTableRecord
  2
*Paper_Space
340
1E
  0
BLOCK_RECORD
  5
23
330
1
100
AcDbSymbolTableRecord
100
AcDbBlockTableRecord
  2
*Paper_Space0
340
26
  0
ENDTAB
  0
ENDSEC
  0
SECTION
  2
BLOCKS
  0
BLOCK
  5
20
330
1F
100
AcDbEntity
  8
0
100
AcDbBlockBegin
  2
*Model_Space
 70
     0
 71
     0
 10
0.0
 20
0.0
 30
0.0
  3
*Model_Space
  1

  0
ENDBLK
  5
21
330
1F
100
AcDbEntity
  8
0
100
AcDbBlockEnd
  0
BLOCK
  5
1C
330
1B
100
AcDbEntity
 67
     1
  8
0
100
AcDbBlockBegin
  2
*Paper_Space
 70
     0
 71
     0
 10
0.0
 20
0.0
 30
0.0
  3
*Paper_Space
  1

  0
ENDBLK
  5
1D
330
1B
100
AcDbEntity
 67
     1
  8
0
100
AcDbBlockEnd
  0
BLOCK
  5
24
330
23
100
AcDbEntity
  8
0
100
AcDbBlockBegin
  2
*Paper_Space0
 70
     0
 71
     0
 10
0.0
 20
0.0
 30
0.0
  3
*Paper_Space0
  1

  0
ENDBLK
  5
25
330
23
100
AcDbEntity
  8
0
100
AcDbBlockEnd
  0
ENDSEC
  0
SECTION
  2
ENTITIES
  0
MTEXT
  5
30
330
1F
100
AcDbEntity
  8
STANDARD
  6
AUSGEZOGEN
 62
     7
370
    18
100
AcDbMText
 10
-1.038330454658519
 20
2.578735563362665
 30
0.0
 40
0.025
 41
0.3692165141918837
 71
     7
 72
     5
  1
\W1.00;SOCKELANSCHLUSS
  7
ARIAL
 73
     1
 44
1.0
  0
MTEXT
  5
31
330
1F
100
AcDbEntity
  8
STANDARD
  6
AUSGEZOGEN
 62
     7
370
    18
100
AcDbMText
 10
-1.038330454658519
 20
2.543724452251555
 30
0.0
 40
0.0175
 41
0.3080112718116876
 71
     7
 72
     5
  1
\W1.00;CONNECTION\~TO\~PLINTH
  7
ARIAL
 73
     1
 44
1.0
  0
MTEXT
  5
32
330
1F
100
AcDbEntity
  8
STANDARD
  6
AUSGEZOGEN
 62
     7
370
    18
100
AcDbMText
 10
-1.038330454658519
 20
2.517474452251555
 30
0.0
 40
0.0175
 41
0.263695393392566
 71
     7
 72
     5
  1
\W1.00;RACCORD\~DE\~SOCLE
  7
ARIAL
 73
     1
 44
1.0
  0
LINE
  5
33
330
1F
100
AcDbEntity
  8
STANDARD
  6
STRICHPUNKT
 62
     7
370
    18
100
AcDbLine
 10
-0.8042608699521384
 20
1.636247375405425
 30
0.0
 11
-0.4112608699521384
 21
1.636247375405425
 31
0.0
  0
LINE
  5
34
330
1F
100
AcDbEntity
  8
STANDARD
  6
AUSGEZOGEN
 62
    52
370
    18
100
AcDbLine
 10
-0.7712608699521384
 20
1.842022471673985
 30
0.0
 11
-0.7312608699521383
 21
1.827022471673985
 31
0.0
  0
LINE
  5
35
330
1F
100
AcDbEntity
  8
STANDARD
  6
AUSGEZOGEN
 62
    52
370
    18
100
AcDbLine
 10
-0.7312608699521383
 20
1.827022471673985
 30
0.0
 11
-0.7712608699521384
 21
1.812022471673985
 31
0.0
  0
LINE
  5
36
330
1F
100
AcDbEntity
  8
STANDARD
  6
AUSGEZOGEN
 62
    52
370
    18
100
AcDbLine
 10
-0.7712608699521384
 20
1.812022471673985
 30
0.0
 11
-0.7312608699521383
 21
1.797022471673985
 31
0.0
  0
LINE
  5
37
330
1F
100
AcDbEntity
  8
STANDARD
  6
AUSGEZOGEN
 62
    52
370
    18
100
AcDbLine
 10
-0.7312608699521383
 20
1.797022471673985
 30
0.0
 11
-0.7712608699521384
 21
1.782022471673985
 31
0.0
  0
LINE
  5
38
330
1F
100
AcDbEntity
  8
STANDARD
  6
AUSGEZOGEN
 62
    52
370
    18
100
AcDbLine
 10
-0.7712608699521384
 20
1.782022471673985
 30
0.0
 11
-0.7312608699521383
 21
1.767022471673985
 31
0.0
  0
LINE
  5
39
330
1F
100
AcDbEntity
  8
STANDARD
  6
AUSGEZOGEN
 62
    52
370
    18
100
AcDbLine
 10
-0.7312608699521383
 20
1.767022471673985
 30
0.0
 11
-0.7712608699521384
 21
1.752022471673985
 31
0.0
  0
LINE
  5
3A
330
1F
100
AcDbEntity
  8
STANDARD
  6
AUSGEZOGEN
 62
    52
370
    18
100
AcDbLine
 10
-0.7712608699521384
 20
1.752022471673985
 30
0.0
 11
-0.7312608699521383
 21
1.737022471673985
 31
0.0
  0
LINE
  5
3B
330
1F
100
AcDbEntity
  8
STANDARD
  6
AUSGEZOGEN
 62
    52
370
    18
100
AcDbLine
 10
-0.7312608699521383
 20
1.737022471673985
 30
0.0
 11
-0.7712608699521384
 21
1.722022471673985
 31
0.0
  0
LINE
  5
3C
330
1F
100
AcDbEntity
  8
STANDARD
  6
AUSGEZOGEN
 62
    52
370
    18
100
AcDbLine
 10
-0.7712608699521384
 20
1.722022471673985
 30
0.0
 11
-0.7312608699521383
 21
1.707022471673985
 31
0.0
  0
LINE
  5
3D
330
1F
100
AcDbEntity
  8
STANDARD
  6
AUSGEZOGEN
 62
    52
370
    18
100
AcDbLine
 10
-0.7312608699521383
 20
1.707022471673985
 30
0.0
 11
-0.7712608699521384
 21
1.692022471673985
 31
0.0
  0
LINE
  5
3E
330
1F
100
AcDbEntity
  8
STANDARD
  6
AUSGEZOGEN
 62
    52
370
    18
100
AcDbLine
 10
-0.7712608699521384
 20
1.692022471673985
 30
0.0
 11
-0.7312608699521383
 21
1.677022471673985
 31
0.0
  0
LINE
  5
3F
330
1F
100
AcDbEntity
  8
STANDARD
  6
AUSGEZOGEN
 62
    52
370
    18
100
AcDbLine
 10
-0.7312608699521383
 20
1.677022471673985
 30
0.0
 11
-0.7712608699521384
 21
1.662022471673985
 31
0.0
  0
LINE
  5
40
330
1F
100
AcDbEntity
  8
STANDARD
  6
AUSGEZOGEN
 62
    52
370
    18
100
AcDbLine
 10
-0.7712608699521384
 20
1.662022471673985
 30
0.0
 11
-0.7312608699521383
 21
1.647022471673985
 31
0.0
  0
LINE
  5
41
330
1F
100
AcDbEntity
  8
STANDARD
  6
AUSGEZOGEN
 62
    52
370
    18
100
AcDbLine
 10
-0.7312608699521383
 20
1.647022471673985
 30
0.0
 11
-0.7599944600016484
 21
1.636247375405425
 31
0.0
  0
LINE
  5
42
330
1F
100
AcDbEntity
  8
STANDARD
  6
AUSGEZOGEN
 62
    52
370
    13
100
AcDbLine
 10
-0.8112608699521384
 20
2.108057016891665
 30
0.0
 11
-0.7312608699521383
 21
2.133057016891665
 31
0.0
  0
LINE
  5
43
330
1F
100
AcDbEntity
  8
STANDARD
  6
AUSGEZOGEN
 62
    52
370
    13
100
AcDbLine
 10
-0.7312608699521383
 20
2.133057016891665
 30
0.0
 11
-0.8112608699521384
 21
2.158057016891665
 31
0.0
  0
LINE
  5
44
330
1F
100
AcDbEntity
  8
STANDARD
  6
AUSGEZOGEN
 62
    52
370
    13
100
AcDbLine
 10
-0.8112608699521384
 20
2.158057016891665
 30
0.0
 11
-0.7312608699521383
 21
2.183057016891665
 31
0.0
  0
LINE
  5
45
330
1F
100
AcDbEntity
  8
STANDARD
  6
AUSGEZOGEN
 62
    52
370
    13
100
AcDbLine
 10
-0.7312608699521383
 20
2.183057016891665
 30
0.0
 11
-0.8112608699521384
 21
2.208057016891665
 31
0.0
  0
LINE
  5
46
330
1F
100
AcDbEntity
  8
STANDARD
  6
AUSGEZOGEN
 62
    52
370
    13
100
AcDbLine
 10
-0.8112608699521384
 20
2.208057016891665
 30
0.0
 11
-0.7312608699521383
 21
2.233057016891665
 31
0.0
  0
LINE
  5
47
330
1F
100
AcDbEntity
  8
STANDARD
  6
AUSGEZOGEN
 62
    52
370
    13
100
AcDbLine
 10
-0.7312608699521383
 20
2.233057016891665
 30
0.0
 11
-0.8112608699521384
 21
2.258057016891665
 31
0.0
  0
LINE
  5
48
330
1F
100
AcDbEntity
  8
STANDARD
  6
AUSGEZOGEN
 62
   240
370
    70
100
AcDbLine
 10
-1.156496492394367
 20
1.172388148967135
 30
0.0
 11
-0.1065069923943684
 21
1.172388148967135
 31
0.0
  0
LINE
  5
49
330
1F
100
AcDbEntity
  8
STANDARD
  6
AUSGEZOGEN
 62
   240
370
    70
100
AcDbLine
 10
-1.156496492394367
 20
2.657373298967135
 30
0.0
 11
-1.156496492394367
 21
1.172388148967135
 31
0.0
  0
MTEXT
  5
4A
330
1F
100
AcDbEntity
  8
STANDARD
  6
AUSGEZOGEN
 62
     7
370
    18
100
AcDbMText
 10
-1.038689476709078
 20
1.239965296897635
 30
0.0
 40
0.009
 41
0.8964604604692508
 71
     7
 72
     5
  1
\W0.85;THESE\~ARE\~NOT\~BINDING\~CONSTRUCTION\~PROPOSALS\~WHICH\~HAVE\~TO\~BE\~VERIFIED\~FOR\~EACH\~INDIVIDUAL\~PROJECT\~AS\~REGARDS\~APPLICABILITY\~AND\~CORRECTNESS.
  7
ARIAL
 73
     1
 44
1.0
  0
MTEXT
  5
4B
330
1F
100
AcDbEntity
  8
STANDARD
  6
AUSGEZOGEN
 62
     7
370
    18
100
AcDbMText
 10
-1.038689476709078
 20
1.257965116897635
 30
0.0
 40
0.009
 41
0.8975001858667647
 71
     7
 72
     5
  1
\W0.91;DIES\~SIND\~UNVERBINDLICHE\~KONSTRUKTIONSVORSCHLÄGE,\~DIE\~FÜR\~JEDES\~PROJEKT\~AUF\~ANWENDBARKEIT\~UND\~RICHTIGKEIT\~GEPRÜFT\~WERDEN\~MÜSSEN.
  7
ARIAL
 73
     1
 44
1.0
  0
MTEXT
  5
4C
330
1F
100
AcDbEntity
  8
STANDARD
  6
AUSGEZOGEN
 62
     7
370
    18
100
AcDbMText
 10
-1.038689476709078
 20
1.221965476897635
 30
0.0
 40
0.009
 41
0.8958042950981262
 71
     7
 72
     5
  1
\W0.80;IL\~S'\~AGIT\~DE\~PROPOSITIONS\~DE\~CONSTRUCTION\~SANS\~ENGAGEMENT\~DE\~NOTRE\~PART\~QUI\~DOIVENT\~ETRE\~VERIFIEES\~POUR\~CHAQUE\~PROJET\~A\~LEUR\~EXACTITUDE\~ET\~FAISABILITE.
  7
ARIAL
 73
     1
 44
1.0
  0
LINE
  5
4D
330
1F
100
AcDbEntity
  8
STANDARD
  6
AUSGEZOGEN
 62
    52
370
    13
100
AcDbLine
 10
-0.8112608699521384
 20
2.258057016891665
 30
0.0
 11
-0.7565795927171084
 21
2.275144916027615
 31
0.0
  0
LINE
  5
4E
330
1F
100
AcDbEntity
  8
STANDARD
  6
AUSGEZOGEN
 62
    22
370
    18
100
AcDbLine
 10
-0.4312608699521384
 20
1.636247375405425
 30
0.0
 11
-0.4312608699521384
 21
2.275144682766335
 31
0.0
  0
HATCH
  5
50
330
1F
100
AcDbEntity
  8
STANDARD
  6
STRICHPUNKT
 62
     7
370
    18
100
AcDbHatch
 10
0.0
 20
0.0
 30
0.0
210
0.0
220
0.0
230
1.0
  2
SCHRAFFUR_3
 70
     0
 71
     0
 91
        1
 92
        0
 93
        4
 72
     1
 10
-0.4312608699521384
 20
1.636247375405425
 11
-0.4312608699521384
 21
2.275144682766335
 72
     1
 10
-0.4312608699521384
 20
2.275144682766335
 11
-0.7312608699521383
 21
2.275144682766335
 72
     1
 10
-0.7312608699521383
 20
2.275144682766335
 11
-0.7312608699521383
 21
1.636247375405425
 72
     1
 10
-0.7312608699521383
 20
1.636247375405425
 11
-0.4312608699521384
 21
1.636247375405425
 97
        0
 75
     0
 76
     2
 52
-45.00000000000001
 41
0.005
 77
     0
 78
     2
 53
44.99999999999999
 43
0.0
 44
0.0
 45
-0.0353553390593274
 46
0.0353553390593274
 79
     0
 53
44.99999999999999
 43
-0.0176776695296637
 44
0.0176776695296637
 45
-0.0353553390593274
 46
0.0353553390593274
 79
     0
 98
        0
1001
ACAD
1010
0.0
1020
0.0
1030
0.0
1001
NEM_ODX
1002
{
1000
BZM_DEPEND
1070
     1
1000
BZM_SCALE
1040
5.0
1000
SCHRAFFUR_3
1002
}
  0
HATCH
  5
51
330
1F
100
AcDbEntity
  8
STANDARD
  6
STRICHPUNKT
 62
     9
420
 13092807
370
    18
100
AcDbHatch
 10
0.0
 20
0.0
 30
0.0
210
0.0
220
0.0
230
1.0
  2
SOLID
 70
     1
 71
     0
 91
        1
 92
        3
 72
     0
 73
     1
 93
        4
 10
-0.7762608699521384
 20
1.636247375405425
 10
-0.7762608699521384
 20
1.840119419667325
 10
-0.7842608699521384
 20
1.840119419667325
 10
-0.7842608699521384
 20
1.636247375405425
 97
        0
 75
     0
 76
     1
 98
        0
  0
LINE
  5
52
330
1F
100
AcDbEntity
  8
STANDARD
  6
AUSGEZOGEN
 62
    52
370
    18
100
AcDbLine
 10
-0.7762608699521384
 20
1.840119419667325
 30
0.0
 11
-0.7842608699521384
 21
1.840119419667325
 31
0.0
  0
LINE
  5
53
330
1F
100
AcDbEntity
  8
STANDARD
  6
AUSGEZOGEN
 62
   240
370
    70
100
AcDbLine
 10
-0.1065069923943684
 20
2.657373298967135
 30
0.0
 11
-0.1065069923943684
 21
1.172388148967135
 31
0.0
  0
LINE
  5
54
330
1F
100
AcDbEntity
  8
STANDARD
  6
AUSGEZOGEN
 62
   240
370
    70
100
AcDbLine
 10
-1.156496492394367
 20
2.657373298967135
 30
0.0
 11
-0.1065069923943684
 21
2.657373298967135
 31
0.0
  0
MTEXT
  5
55
330
1F
100
AcDbEntity
  8
STANDARD
  6
AUSGEZOGEN
 62
     7
370
    18
100
AcDbMText
 10
-1.036092918480559
 20
2.471285161229615
 30
0.0
 40
0.0225
 41
0.2355245098039217
 71
     7
 72
     5
  1
\W1.00;KeraTwin\~\~\~K20\~
  7
ARIAL
 73
     1
 44
1.0
  0
MTEXT
  5
56
330
1F
100
AcDbEntity
  8
STANDARD
  6
AUSGEZOGEN
 62
     7
370
    18
100
AcDbMText
 10
-0.9030341992945087
 20
2.480402487474345
 30
0.0
 40
0.01
 41
0.0242544061302682
 71
     7
 72
     5
  1
{\fArial|i0|b0;\H0.017500;\W0.911111;\C7;®}\P
  7
ARIAL
 73
     1
 44
1.0
  0
HATCH
  5
57
330
1F
100
AcDbEntity
  8
STANDARD
  6
STRICHPUNKT
 62
     0
370
    18
100
AcDbHatch
 10
0.0
 20
0.0
 30
0.0
210
0.0
220
0.0
230
1.0
  2
SOLID
 70
     1
 71
     0
 91
        1
 92
        3
 72
     0
 73
     1
 93
        4
 10
-0.8222608699521384
 20
1.857119419667325
 10
-0.8222608699521384
 20
1.860119419667325
 10
-0.8272608699521384
 20
1.860119419667325
 10
-0.8272608699521384
 20
1.857119419667325
 97
        0
 75
     0
 76
     1
 98
        0
  0
LINE
  5
58
330
1F
100
AcDbEntity
  8
STANDARD
  6
AUSGEZOGEN
 62
    52
370
    18
100
AcDbLine
 10
-0.7842608699521384
 20
1.857119419667325
 30
0.0
 11
-0.7842608699521384
 21
1.636247375405425
 31
0.0
  0
LINE
  5
59
330
1F
100
AcDbEntity
  8
STANDARD
  6
AUSGEZOGEN
 62
    52
370
    18
100
AcDbLine
 10
-0.7712608699521384
 20
1.857119419667325
 30
0.0
 11
-0.7712608699521384
 21
1.636247375405425
 31
0.0
  0
LINE
  5
5A
330
1F
100
AcDbEntity
  8
STANDARD
  6
AUSGEZOGEN
 62
    52
370
    18
100
AcDbLine
 10
-0.7762608699521384
 20
1.857119419667325
 30
0.0
 11
-0.7762608699521384
 21
1.636247375405425
 31
0.0
  0
HATCH
  5
5B
330
1F
100
AcDbEntity
  8
STANDARD
  6
STRICHPUNKT
 62
     0
370
    18
100
AcDbHatch
 10
0.0
 20
0.0
 30
0.0
210
0.0
220
0.0
230
1.0
  2
SOLID
 70
     1
 71
     0
 91
        1
 92
        3
 72
     0
 73
     1
 93
        4
 10
-0.8122608699521384
 20
1.857119419667325
 10
-0.8122608699521384
 20
1.860119419667325
 10
-0.8172608699521384
 20
1.860119419667325
 10
-0.8172608699521384
 20
1.857119419667325
 97
        0
 75
     0
 76
     1
 98
        0
  0
HATCH
  5
5C
330
1F
100
AcDbEntity
  8
STANDARD
  6
STRICHPUNKT
 62
     0
370
    18
100
AcDbHatch
 10
0.0
 20
0.0
 30
0.0
210
0.0
220
0.0
230
1.0
  2
SOLID
 70
     1
 71
     0
 91
        1
 92
        3
 72
     0
 73
     1
 93
        4
 10
-0.8022608699521384
 20
1.857119419667325
 10
-0.8022608699521384
 20
1.860119419667325
 10
-0.8072608699521384
 20
1.860119419667325
 10
-0.8072608699521384
 20
1.857119419667325
 97
        0
 75
     0
 76
     1
 98
        0
  0
HATCH
  5
5D
330
1F
100
AcDbEntity
  8
STANDARD
  6
STRICHPUNKT
 62
     0
370
    18
100
AcDbHatch
 10
0.0
 20
0.0
 30
0.0
210
0.0
220
0.0
230
1.0
  2
SOLID
 70
     1
 71
     0
 91
        1
 92
        3
 72
     0
 73
     1
 93
        4
 10
-0.7922608699521384
 20
1.857119419667325
 10
-0.7922608699521384
 20
1.860119419667325
 10
-0.7972608699521384
 20
1.860119419667325
 10
-0.7972608699521384
 20
1.857119419667325
 97
        0
 75
     0
 76
     1
 98
        0
  0
LINE
  5
5E
330
1F
100
AcDbEntity
  8
STANDARD
  6
AUSGEZOGEN
 62
     7
370
    18
100
AcDbLine
 10
-0.7342608699521384
 20
1.860119419667325
 30
0.0
 11
-0.7342608699521384
 21
1.860119419667325
 31
0.0
  0
HATCH
  5
5F
330
1F
100
AcDbEntity
  8
STANDARD
  6
STRICHPUNKT
 62
     0
370
    18
100
AcDbHatch
 10
0.0
 20
0.0
 30
0.0
210
0.0
220
0.0
230
1.0
  2
SOLID
 70
     1
 71
     0
 91
        1
 92
        3
 72
     0
 73
     1
 93
        4
 10
-0.8322608699521383
 20
1.857119419667325
 10
-0.8322608699521383
 20
1.860119419667325
 10
-0.8372608699521383
 20
1.860119419667325
 10
-0.8372608699521383
 20
1.857119419667325
 97
        0
 75
     0
 76
     1
 98
        0
  0
LINE
  5
60
330
1F
100
AcDbEntity
  8
STANDARD
  6
AUSGEZOGEN
 62
   220
370
    18
100
AcDbLine
 10
-0.7342608699521384
 20
1.890381166311355
 30
0.0
 11
-0.7312608699521383
 21
1.890381166311355
 31
0.0
  0
HATCH
  5
61
330
1F
100
AcDbEntity
  8
STANDARD
  6
AUSGEZOGEN
 62
     0
370
    18
100
AcDbHatch
 10
0.0
 20
0.0
 30
0.0
210
0.0
220
0.0
230
1.0
  2
SOLID
 70
     1
 71
     0
 91
        1
 92
        3
 72
     0
 73
     1
 93
        6
 10
-0.7342608699521384
 20
1.860119419667325
 10
-0.7872608699521384
 20
1.860119419667325
 10
-0.7872608699521384
 20
1.857119419667325
 10
-0.7312608699521383
 20
1.857119419667325
 10
-0.7312608699521383
 20
1.890381166311355
 10
-0.7342608699521384
 20
1.890381166311355
 97
        0
 75
     0
 76
     1
 98
        0
  0
LINE
  5
62
330
1F
100
AcDbEntity
  8
STANDARD
  6
STRICHPUNKT
 62
   220
370
    35
100
AcDbLine
 10
-0.7436280317078385
 20
1.875372808137445
 30
0.0
 11
-0.7156280317078385
 21
1.875372808137445
 31
0.0
  0
LINE
  5
63
330
1F
100
AcDbEntity
  8
STANDARD
  6
STRICHPUNKT
 62
   220
370
    35
100
AcDbLine
 10
-0.7553430072710485
 20
1.875372808137445
 30
0.0
 11
-0.7113430072710485
 21
1.875372808137445
 31
0.0
  0
LINE
  5
64
330
1F
100
AcDbEntity
  8
STANDARD
  6
AUSGEZOGEN
 62
    52
370
    18
100
AcDbLine
 10
-0.7312608699521383
 20
1.857022471673985
 30
0.0
 11
-0.7712608699521384
 21
1.842022471673985
 31
0.0
  0
LINE
  5
65
330
1F
100
AcDbEntity
  8
STANDARD
  6
AUSGEZOGEN
 62
    52
370
    13
100
AcDbLine
 10
-0.7312608699521383
 20
1.983057016891665
 30
0.0
 11
-0.8112608699521384
 21
2.008057016891665
 31
0.0
  0
LINE
  5
66
330
1F
100
AcDbEntity
  8
STANDARD
  6
AUSGEZOGEN
 62
    52
370
    13
100
AcDbLine
 10
-0.8112608699521384
 20
1.958057016891665
 30
0.0
 11
-0.7312608699521383
 21
1.983057016891665
 31
0.0
  0
LINE
  5
67
330
1F
100
AcDbEntity
  8
STANDARD
  6
AUSGEZOGEN
 62
     7
370
    18
100
AcDbLine
 10
-0.7362608699521384
 20
2.095119419667325
 30
0.0
 11
-0.7362608699521384
 21
2.015119419667325
 31
0.0
  0
LINE
  5
68
330
1F
100
AcDbEntity
  8
STANDARD
  6
VERDECKT
 62
     7
370
    18
100
AcDbLine
 10
-0.7392608699521384
 20
2.095119419667325
 30
0.0
 11
-0.7392608699521384
 21
2.015119419667325
 31
0.0
  0
CIRCLE
  5
69
330
1F
100
AcDbEntity
  8
STANDARD
  6
AUSGEZOGEN
 62
    52
370
    18
100
AcDbCircle
 10
-0.8032608699521384
 20
2.075119465443695
 30
0.0
 40
0.005
  0
ARC
  5
6A
330
1F
100
AcDbEntity
  8
STANDARD
  6
AUSGEZOGEN
 62
    52
370
    18
100
AcDbCircle
 10
-0.8032608699521384
 20
2.067619419667325
 30
0.0
 40
0.0025
100
AcDbArc
 50
180.0
 51
0.0
  0
LINE
  5
6B
330
1F
100
AcDbEntity
  8
STANDARD
  6
AUSGEZOGEN
 62
    52
370
    18
100
AcDbLine
 10
-0.8007608699521384
 20
2.067619419667325
 30
0.0
 11
-0.8007608699521384
 21
2.070789341542325
 31
0.0
  0
LINE
  5
6C
330
1F
100
AcDbEntity
  8
STANDARD
  6
AUSGEZOGEN
 62
    52
370
    18
100
AcDbLine
 10
-0.8057608699521384
 20
2.067619419667325
 30
0.0
 11
-0.8057608699521384
 21
2.070789341542325
 31
0.0
  0
ARC
  5
6D
330
1F
100
AcDbEntity
  8
STANDARD
  6
AUSGEZOGEN
 62
    52
370
    18
100
AcDbCircle
 10
-0.8032608699521384
 20
2.082619419667325
 30
0.0
 40
0.0025
100
AcDbArc
 50
0.0
 51
180.0
  0
LINE
  5
6E
330
1F
100
AcDbEntity
  8
STANDARD
  6
AUSGEZOGEN
 62
    52
370
    18
100
AcDbLine
 10
-0.8057608699521384
 20
2.079449589345065
 30
0.0
 11
-0.8057608699521384
 21
2.082619419667325
 31
0.0
  0
LINE
  5
6F
330
1F
100
AcDbEntity
  8
STANDARD
  6
AUSGEZOGEN
 62
    52
370
    18
100
AcDbLine
 10
-0.8007608699521384
 20
2.079449589345065
 30
0.0
 11
-0.8007608699521384
 21
2.082619419667325
 31
0.0
  0
CIRCLE
  5
70
330
1F
100
AcDbEntity
  8
STANDARD
  6
AUSGEZOGEN
 62
    52
370
    18
100
AcDbCircle
 10
-0.8032608699521384
 20
2.035119465443695
 30
0.0
 40
0.0015
  0
CIRCLE
  5
71
330
1F
100
AcDbEntity
  8
STANDARD
  6
AUSGEZOGEN
 62
    52
370
    18
100
AcDbCircle
 10
-0.8032608699521384
 20
2.035119465443695
 30
0.0
 40
0.005
  0
ARC
  5
72
330
1F
100
AcDbEntity
  8
STANDARD
  6
AUSGEZOGEN
 62
    52
370
    18
100
AcDbCircle
 10
-0.8032608699521384
 20
2.027619419667325
 30
0.0
 40
0.0025
100
AcDbArc
 50
180.0
 51
0.0
  0
LINE
  5
73
330
1F
100
AcDbEntity
  8
STANDARD
  6
AUSGEZOGEN
 62
    52
370
    18
100
AcDbLine
 10
-0.8007608699521384
 20
2.027619419667325
 30
0.0
 11
-0.8007608699521384
 21
2.030789341542325
 31
0.0
  0
LINE
  5
74
330
1F
100
AcDbEntity
  8
STANDARD
  6
AUSGEZOGEN
 62
    52
370
    18
100
AcDbLine
 10
-0.8057608699521384
 20
2.027619419667325
 30
0.0
 11
-0.8057608699521384
 21
2.030789341542325
 31
0.0
  0
ARC
  5
75
330
1F
100
AcDbEntity
  8
STANDARD
  6
AUSGEZOGEN
 62
    52
370
    18
100
AcDbCircle
 10
-0.8032608699521384
 20
2.042619419667325
 30
0.0
 40
0.0025
100
AcDbArc
 50
0.0
 51
180.0
  0
LINE
  5
76
330
1F
100
AcDbEntity
  8
STANDARD
  6
AUSGEZOGEN
 62
    52
370
    18
100
AcDbLine
 10
-0.8057608699521384
 20
2.039449589345065
 30
0.0
 11
-0.8057608699521384
 21
2.042619419667325
 31
0.0
  0
LINE
  5
77
330
1F
100
AcDbEntity
  8
STANDARD
  6
AUSGEZOGEN
 62
    52
370
    18
100
AcDbLine
 10
-0.8007608699521384
 20
2.039449589345065
 30
0.0
 11
-0.8007608699521384
 21
2.042619419667325
 31
0.0
  0
LINE
  5
78
330
1F
100
AcDbEntity
  8
STANDARD
  6
AUSGEZOGEN
 62
    52
370
    13
100
AcDbLine
 10
-0.7698605588342593
 20
2.095119419667325
 30
0.0
 11
-0.8112608699521384
 21
2.108057016891665
 31
0.0
  0
LINE
  5
79
330
1F
100
AcDbEntity
  8
STANDARD
  6
AUSGEZOGEN
 62
    52
370
    13
100
AcDbLine
 10
-0.8112608699521384
 20
2.095119419667325
 30
0.0
 11
-0.8112608699521384
 21
2.275145419805965
 31
0.0
  0
LINE
  5
7A
330
1F
100
AcDbEntity
  8
STANDARD
  6
AUSGEZOGEN
 62
    22
370
    18
100
AcDbLine
 10
-0.7312608699521383
 20
1.636247375405425
 30
0.0
 11
-0.7312608699521383
 21
2.275144682766335
 31
0.0
  0
LINE
  5
7B
330
1F
100
AcDbEntity
  8
STANDARD
  6
AUSGEZOGEN
 62
    52
370
    13
100
AcDbLine
 10
-0.7312608699521383
 20
1.933057016891665
 30
0.0
 11
-0.8112608699521384
 21
1.958057016891665
 31
0.0
  0
LINE
  5
7C
330
1F
100
AcDbEntity
  8
STANDARD
  6
AUSGEZOGEN
 62
   220
370
    18
100
AcDbLine
 10
-0.7342608699521384
 20
1.890381166311355
 30
0.0
 11
-0.7342608699521384
 21
1.860119419667325
 31
0.0
  0
LINE
  5
7D
330
1F
100
AcDbEntity
  8
STANDARD
  6
AUSGEZOGEN
 62
    52
370
    13
100
AcDbLine
 10
-0.8046611810700183
 20
1.860119419667325
 30
0.0
 11
-0.7342608699521384
 21
1.882119516891665
 31
0.0
  0
LINE
  5
7E
330
1F
100
AcDbEntity
  8
STANDARD
  6
AUSGEZOGEN
 62
    52
370
    13
100
AcDbLine
 10
-0.8112608699521384
 20
1.908057016891665
 30
0.0
 11
-0.7312608699521383
 21
1.933057016891665
 31
0.0
  0
LINE
  5
7F
330
1F
100
AcDbEntity
  8
STANDARD
  6
AUSGEZOGEN
 62
    52
370
    13
100
AcDbLine
 10
-0.7342608699521384
 20
1.883994516891665
 30
0.0
 11
-0.8112608699521384
 21
1.908057016891665
 31
0.0
  0
HATCH
  5
80
330
1F
100
AcDbEntity
  8
STANDARD
  6
STRICHPUNKT
 62
     0
370
    18
100
AcDbHatch
 10
0.0
 20
0.0
 30
0.0
210
0.0
220
0.0
230
1.0
  2
SOLID
 70
     1
 71
     0
 91
        1
 92
        3
 72
     0
 73
     1
 93
        4
 10
-0.8422608699521383
 20
1.857119419667325
 10
-0.8422608699521383
 20
1.860119419667325
 10
-0.8472608699521383
 20
1.860119419667325
 10
-0.8472608699521383
 20
1.857119419667325
 97
        0
 75
     0
 76
     1
 98
        0
  0
LINE
  5
81
330
1F
100
AcDbEntity
  8
STANDARD
  6
VERDECKT
 62
    52
370
    18
100
AcDbLine
 10
-0.8112608699521384
 20
1.865227474836505
 30
0.0
 11
-0.7862608699521384
 21
1.865227474836505
 31
0.0
  0
LINE
  5
82
330
1F
100
AcDbEntity
  8
STANDARD
  6
AUSGEZOGEN
 62
    52
370
    13
100
AcDbLine
 10
-0.8112608699521384
 20
1.860119419667325
 30
0.0
 11
-0.8112608699521384
 21
2.015119419667325
 31
0.0
  0
LINE
  5
83
330
1F
100
AcDbEntity
  8
STANDARD
  6
AUSGEZOGEN
 62
     7
370
    18
100
AcDbLine
 10
-0.8312608699520838
 20
1.865227474836505
 30
0.0
 11
-0.8112608699521384
 21
1.865227474836505
 31
0.0
  0
LINE
  5
84
330
1F
100
AcDbEntity
  8
STANDARD
  6
AUSGEZOGEN
 62
     7
370
    18
100
AcDbLine
 10
-0.8112608699521384
 20
1.885119419667325
 30
0.0
 11
-0.8187608699521384
 21
1.885119419667325
 31
0.0
  0
ARC
  5
85
330
1F
100
AcDbEntity
  8
STANDARD
  6
AUSGEZOGEN
 62
     7
370
    18
100
AcDbCircle
 10
-0.8112608699521384
 20
1.875119419667325
 30
0.0
 40
0.004
100
AcDbArc
 50
90.0
 51
270.0
  0
ARC
  5
86
330
1F
100
AcDbEntity
  8
STANDARD
  6
AUSGEZOGEN
 62
     7
370
    18
100
AcDbCircle
 10
-0.8112608699521384
 20
1.875119419667325
 30
0.0
 40
0.0015
100
AcDbArc
 50
90.0
 51
270.0
  0
LINE
  5
87
330
1F
100
AcDbEntity
  8
STANDARD
  6
AUSGEZOGEN
 62
     7
370
    18
100
AcDbLine
 10
-0.8112608699521384
 20
1.863119419667325
 30
0.0
 11
-0.8187608699521384
 21
1.863119419667325
 31
0.0
  0
LINE
  5
88
330
1F
100
AcDbEntity
  8
STANDARD
  6
VERDECKT
 62
    52
370
    18
100
AcDbLine
 10
-0.8112608699521384
 20
1.863119419667325
 30
0.0
 11
-0.8037608699521384
 21
1.863119419667325
 31
0.0
  0
LINE
  5
89
330
1F
100
AcDbEntity
  8
STANDARD
  6
VERDECKT
 62
    52
370
    18
100
AcDbLine
 10
-0.8112608699521384
 20
1.885119419667325
 30
0.0
 11
-0.8037608699521384
 21
1.885119419667325
 31
0.0
  0
ARC
  5
8A
330
1F
100
AcDbEntity
  8
STANDARD
  6
VERDECKT
 62
    52
370
    18
100
AcDbCircle
 10
-0.8112608699521384
 20
1.875119419667325
 30
0.0
 40
0.004
100
AcDbArc
 50
270.0
 51
90.0
  0
ARC
  5
8B
330
1F
100
AcDbEntity
  8
STANDARD
  6
VERDECKT
 62
    52
370
    18
100
AcDbCircle
 10
-0.8112608699521384
 20
1.875119419667325
 30
0.0
 40
0.0015
100
AcDbArc
 50
270.0
 51
90.0
  0
LINE
  5
8C
330
1F
100
AcDbEntity
  8
STANDARD
  6
AUSGEZOGEN
 62
     7
370
    18
100
AcDbLine
 10
-0.8187608699521384
 20
1.860119419667325
 30
0.0
 11
-0.8187608699521384
 21
1.885119419667325
 31
0.0
  0
LINE
  5
8D
330
1F
100
AcDbEntity
  8
STANDARD
  6
VERDECKT
 62
    52
370
    18
100
AcDbLine
 10
-0.8037608699521384
 20
1.860119419667325
 30
0.0
 11
-0.8037608699521384
 21
1.885119419667325
 31
0.0
  0
LINE
  5
8E
330
1F
100
AcDbEntity
  8
STANDARD
  6
STRICHPUNKT
 62
   220
370
    35
100
AcDbLine
 10
-0.7492608699521384
 20
2.055119419903525
 30
0.0
 11
-0.6312608699521384
 21
2.055119421604145
 31
0.0
  0
LINE
  5
8F
330
1F
100
AcDbEntity
  8
STANDARD
  6
AUSGEZOGEN
 62
    52
370
    13
100
AcDbLine
 10
-0.8112608699521384
 20
2.008057016891665
 30
0.0
 11
-0.7886611810700151
 21
2.015119419667325
 31
0.0
  0
LINE
  5
90
330
1F
100
AcDbEntity
  8
STANDARD
  6
AUSGEZOGEN
 62
     7
370
    18
100
AcDbLine
 10
-0.7312608699521383
 20
2.095119419667325
 30
0.0
 11
-0.7862608699521384
 21
2.095119419667325
 31
0.0
  0
LINE
  5
91
330
1F
100
AcDbEntity
  8
STANDARD
  6
AUSGEZOGEN
 62
     7
370
    18
100
AcDbLine
 10
-0.7862608699521384
 20
2.015119419667325
 30
0.0
 11
-0.7312608699521383
 21
2.015119419667325
 31
0.0
  0
LINE
  5
92
330
1F
100
AcDbEntity
  8
STANDARD
  6
VERDECKT
 62
     7
370
    18
100
AcDbLine
 10
-0.8162608699521384
 20
2.095119419667325
 30
0.0
 11
-0.8162608699521384
 21
2.015119419667325
 31
0.0
  0
LINE
  5
93
330
1F
100
AcDbEntity
  8
STANDARD
  6
VERDECKT
 62
     7
370
    18
100
AcDbLine
 10
-0.7862608699521384
 20
2.095119419667325
 30
0.0
 11
-0.8162608699521384
 21
2.095119419667325
 31
0.0
  0
LINE
  5
94
330
1F
100
AcDbEntity
  8
STANDARD
  6
VERDECKT
 62
     7
370
    18
100
AcDbLine
 10
-0.8162608699521384
 20
2.015119419667325
 30
0.0
 11
-0.7862608699521384
 21
2.015119419667325
 31
0.0
  0
LINE
  5
95
330
1F
100
AcDbEntity
  8
STANDARD
  6
VERDECKT
 62
    52
370
    18
100
AcDbLine
 10
-0.7862608699521384
 20
2.275145182302275
 30
0.0
 11
-0.7862608699521384
 21
2.095119419667325
 31
0.0
  0
LINE
  5
96
330
1F
100
AcDbEntity
  8
STANDARD
  6
VERDECKT
 62
    52
370
    18
100
AcDbLine
 10
-0.7862608699521384
 20
2.015119419667325
 30
0.0
 11
-0.7862608699521384
 21
1.865227474836505
 31
0.0
  0
LINE
  5
97
330
1F
100
AcDbEntity
  8
STANDARD
  6
AUSGEZOGEN
 62
     7
370
    18
100
AcDbLine
 10
-0.7862608699521384
 20
2.095119419667325
 30
0.0
 11
-0.7862608699521384
 21
2.015119419667325
 31
0.0
  0
CIRCLE
  5
98
330
1F
100
AcDbEntity
  8
STANDARD
  6
VERDECKT
 62
    52
370
    18
100
AcDbCircle
 10
-0.8032608699521384
 20
2.075119465443695
 30
0.0
 40
0.0015
  0
LINE
  5
99
330
1F
100
AcDbEntity
  8
STANDARD
  6
AUSGEZOGEN
 62
     7
370
    18
100
AcDbLine
 10
-0.8730053875910544
 20
1.857119419667325
 30
0.0
 11
-0.8730053875910544
 21
1.860119419667325
 31
0.0
  0
LINE
  5
9A
330
1F
100
AcDbEntity
  8
STANDARD
  6
AUSGEZOGEN
 62
     7
370
    18
100
AcDbLine
 10
-0.7312608699521383
 20
1.857119419667325
 30
0.0
 11
-0.8730053875910544
 21
1.857119419667325
 31
0.0
  0
LINE
  5
9B
330
1F
100
AcDbEntity
  8
STANDARD
  6
AUSGEZOGEN
 62
     7
370
    18
100
AcDbLine
 10
-0.849260869952086
 20
1.863381166311355
 30
0.0
 11
-0.8492608699520852
 21
1.865381166311355
 31
0.0
  0
LINE
  5
9C
330
1F
100
AcDbEntity
  8
STANDARD
  6
AUSGEZOGEN
 62
     7
370
    18
100
AcDbLine
 10
-0.8492608699520702
 20
1.914881166311355
 30
0.0
 11
-0.8492608699520702
 21
1.916881166311355
 31
0.0
  0
LINE
  5
9D
330
1F
100
AcDbEntity
  8
STANDARD
  6
AUSGEZOGEN
 62
     7
370
    18
100
AcDbLine
 10
-0.8492608699520702
 20
1.914881166311355
 30
0.0
 11
-0.8492608699520852
 21
1.865381166311355
 31
0.0
  0
ARC
  5
9E
330
1F
100
AcDbEntity
  8
STANDARD
  6
AUSGEZOGEN
 62
     7
370
    18
100
AcDbCircle
 10
-0.8487608699520883
 20
1.873437790638385
 30
0.0
 40
0.0015
100
AcDbArc
 50
119.9999999999877
 51
180.0
  0
LINE
  5
9F
330
1F
100
AcDbEntity
  8
STANDARD
  6
AUSGEZOGEN
 62
     7
370
    18
100
AcDbLine
 10
-0.8502608699520879
 20
1.866881166311355
 30
0.0
 11
-0.8502608699520879
 21
1.873437790638385
 31
0.0
  0
LINE
  5
A0
330
1F
100
AcDbEntity
  8
STANDARD
  6
AUSGEZOGEN
 62
     7
370
    18
100
AcDbLine
 10
-0.8502608699520879
 20
1.866824541984325
 30
0.0
 11
-0.8502608699520879
 21
1.866881166311355
 31
0.0
  0
ARC
  5
A1
330
1F
100
AcDbEntity
  8
STANDARD
  6
AUSGEZOGEN
 62
     7
370
    18
100
AcDbCircle
 10
-0.8487608699520883
 20
1.866824541984325
 30
0.0
 40
0.0015
100
AcDbArc
 50
180.0
 51
239.9999999999818
  0
LINE
  5
A2
330
1F
100
AcDbEntity
  8
STANDARD
  6
AUSGEZOGEN
 62
     7
370
    18
100
AcDbLine
 10
-0.8492608699520879
 20
1.874881166311355
 30
0.0
 11
-0.8495108699520879
 21
1.874736828744055
 31
0.0
  0
LINE
  5
A3
330
1F
100
AcDbEntity
  8
STANDARD
  6
AUSGEZOGEN
 62
     7
370
    18
100
AcDbLine
 10
-0.8495108699520892
 20
1.865525503878655
 30
0.0
 11
-0.8492608699520893
 21
1.865381166311355
 31
0.0
  0
LINE
  5
A4
330
1F
100
AcDbEntity
  8
STANDARD
  6
AUSGEZOGEN
 62
     7
370
    18
100
AcDbLine
 10
-0.852260869952101
 20
1.863381166311355
 30
0.0
 11
-0.8492608699521002
 21
1.863381166311355
 31
0.0
  0
LINE
  5
A5
330
1F
100
AcDbEntity
  8
STANDARD
  6
AUSGEZOGEN
 62
     7
370
    18
100
AcDbLine
 10
-0.8620108699520993
 20
1.868381166311355
 30
0.0
 11
-0.8570108699520993
 21
1.868381166311355
 31
0.0
  0
ARC
  5
A6
330
1F
100
AcDbEntity
  8
STANDARD
  6
AUSGEZOGEN
 62
     7
370
    18
100
AcDbCircle
 10
-0.8570108699521002
 20
1.866881166311355
 30
0.0
 40
0.0015
100
AcDbArc
 50
270.0
 51
90.0
  0
LINE
  5
A7
330
1F
100
AcDbEntity
  8
STANDARD
  6
AUSGEZOGEN
 62
     7
370
    18
100
AcDbLine
 10
-0.8501358113784059
 20
1.886514924036125
 30
0.0
 11
-0.8520437599461962
 21
1.889466699651065
 31
0.0
  0
ARC
  5
A8
330
1F
100
AcDbEntity
  8
STANDARD
  6
AUSGEZOGEN
 62
     7
370
    18
100
AcDbCircle
 10
-0.8470047637773955
 20
1.892723771589295
 30
0.0
 40
0.003
100
AcDbArc
 50
167.8775431789972
 51
183.8803862215086
  0
ARC
  5
A9
330
1F
100
AcDbEntity
  8
STANDARD
  6
AUSGEZOGEN
 62
     7
370
    18
100
AcDbCircle
 10
-0.8470047637773955
 20
1.892723771589295
 30
0.0
 40
0.003
100
AcDbArc
 50
183.8803862215086
 51
212.8775431789971
  0
ARC
  5
AA
330
1F
100
AcDbEntity
  8
STANDARD
  6
AUSGEZOGEN
 62
     7
370
    18
100
AcDbCircle
 10
-0.8470047637773955
 20
1.892723771589295
 30
0.0
 40
0.006
100
AcDbArc
 50
183.8803862215086
 51
212.8775431789983
  0
ARC
  5
AB
330
1F
100
AcDbEntity
  8
STANDARD
  6
AUSGEZOGEN
 62
     7
370
    18
100
AcDbCircle
 10
-0.8470047637773955
 20
1.892723771589295
 30
0.0
 40
0.0059999999999999
100
AcDbArc
 50
167.8775431789953
 51
183.8803862215086
  0
LINE
  5
AC
330
1F
100
AcDbEntity
  8
STANDARD
  6
AUSGEZOGEN
 62
     7
370
    18
100
AcDbLine
 10
-0.8528709697930631
 20
1.893983782296295
 30
0.0
 11
-0.8493299290360724
 21
1.910469733149745
 31
0.0
  0
ARC
  5
AD
330
1F
100
AcDbEntity
  8
STANDARD
  6
AUSGEZOGEN
 62
     7
370
    18
100
AcDbCircle
 10
-0.8522630320439057
 20
1.911099738503245
 30
0.0
 40
0.0030000000000001
100
AcDbArc
 50
347.8775431789976
 51
3.880386221508463
  0
LINE
  5
AE
330
1F
100
AcDbEntity
  8
STANDARD
  6
AUSGEZOGEN
 62
     7
370
    18
100
AcDbLine
 10
-0.8492608699520756
 20
1.896505657219025
 30
0.0
 11
-0.8499378667852289
 21
1.893353776942795
 31
0.0
  0
LINE
  5
AF
330
1F
100
AcDbEntity
  8
STANDARD
  6
AUSGEZOGEN
 62
     7
370
    18
100
AcDbLine
 10
-0.8495242618617954
 20
1.891095235620175
 30
0.0
 11
-0.8492608699520774
 21
1.890687743600005
 31
0.0
  0
LINE
  5
B0
330
1F
100
AcDbEntity
  8
STANDARD
  6
AUSGEZOGEN
 62
     7
370
    18
100
AcDbLine
 10
-0.8492608699520793
 20
1.885161307481505
 30
0.0
 11
-0.8501358113784059
 21
1.886514924036125
 31
0.0
  0
LINE
  5
B1
330
1F
100
AcDbEntity
  8
STANDARD
  6
VERDECKT
 62
     7
370
    13
100
AcDbLine
 10
-0.8645108699520961
 20
1.879631166311355
 30
0.0
 11
-0.8600108699520961
 21
1.879631166311355
 31
0.0
  0
ARC
  5
B2
330
1F
100
AcDbEntity
  8
STANDARD
  6
VERDECKT
 62
     7
370
    13
100
AcDbCircle
 10
-0.8595108699520961
 20
1.878225717826725
 30
0.0
 40
0.0004999999999999
100
AcDbArc
 50
338.5832859669671
 51
0.0
  0
LINE
  5
B3
330
1F
100
AcDbEntity
  8
STANDARD
  6
VERDECKT
 62
     7
370
    13
100
AcDbLine
 10
-0.8590108699520961
 20
1.878631166311355
 30
0.0
 11
-0.8590108699520961
 21
1.878225717826725
 31
0.0
  0
ARC
  5
B4
330
1F
100
AcDbEntity
  8
STANDARD
  6
VERDECKT
 62
     7
370
    13
100
AcDbCircle
 10
-0.8600108699520961
 20
1.878631166311355
 30
0.0
 40
0.001
100
AcDbArc
 50
0.0
 51
90.0
  0
LINE
  5
B5
330
1F
100
AcDbEntity
  8
STANDARD
  6
VERDECKT
 62
     7
370
    13
100
AcDbLine
 10
-0.8599763446202232
 20
1.875669679225035
 30
0.0
 11
-0.8590453952839712
 21
1.878043143640885
 31
0.0
  0
ARC
  5
B6
330
1F
100
AcDbEntity
  8
STANDARD
  6
VERDECKT
 62
     7
370
    13
100
AcDbCircle
 10
-0.859510869952097
 20
1.875487105039195
 30
0.0
 40
0.0004999999999999
100
AcDbArc
 50
158.5832859669388
 51
180.0
  0
LINE
  5
B7
330
1F
100
AcDbEntity
  8
STANDARD
  6
VERDECKT
 62
     7
370
    13
100
AcDbLine
 10
-0.8600108699520993
 20
1.870381166311355
 30
0.0
 11
-0.8600108699520974
 21
1.875487105039195
 31
0.0
  0
ARC
  5
B8
330
1F
100
AcDbEntity
  8
STANDARD
  6
VERDECKT
 62
     7
370
    13
100
AcDbCircle
 10
-0.8645108699520961
 20
1.877631166311355
 30
0.0
 40
0.002
100
AcDbArc
 50
90.0
 51
180.0
  0
LINE
  5
B9
330
1F
100
AcDbEntity
  8
STANDARD
  6
AUSGEZOGEN
 62
     7
370
    18
100
AcDbLine
 10
-0.8530053875911244
 20
1.870381166311355
 30
0.0
 11
-0.8502608699520879
 21
1.870381166311355
 31
0.0
  0
LINE
  5
BA
330
1F
100
AcDbEntity
  8
STANDARD
  6
VERDECKT
 62
     7
370
    13
100
AcDbLine
 10
-0.8665108699520984
 20
1.870381166311355
 30
0.0
 11
-0.8665108699520961
 21
1.877631166311365
 31
0.0
  0
LINE
  5
BB
330
1F
100
AcDbEntity
  8
STANDARD
  6
AUSGEZOGEN
 62
     7
370
    25
100
AcDbLine
 10
-0.8730053875910544
 20
1.870381166311355
 30
0.0
 11
-0.8530053875911244
 21
1.870381166311355
 31
0.0
  0
LINE
  5
BC
330
1F
100
AcDbEntity
  8
STANDARD
  6
AUSGEZOGEN
 62
     7
370
    18
100
AcDbLine
 10
-0.8665108699521001
 20
1.865381166311365
 30
0.0
 11
-0.8665108699520984
 21
1.870381166311355
 31
0.0
  0
ARC
  5
BD
330
1F
100
AcDbEntity
  8
STANDARD
  6
AUSGEZOGEN
 62
     7
370
    18
100
AcDbCircle
 10
-0.8645108699521001
 20
1.865381166311355
 30
0.0
 40
0.002
100
AcDbArc
 50
180.0
 51
270.0
  0
LINE
  5
BE
330
1F
100
AcDbEntity
  8
STANDARD
  6
AUSGEZOGEN
 62
     7
370
    18
100
AcDbLine
 10
-0.8645108699521007
 20
1.863381166311355
 30
0.0
 11
-0.852260869952101
 21
1.863381166311355
 31
0.0
  0
LINE
  5
BF
330
1F
100
AcDbEntity
  8
STANDARD
  6
VERDECKT
 62
     7
370
    13
100
AcDbLine
 10
-0.8670053875911145
 20
1.870381166311355
 30
0.0
 11
-0.8670053875911145
 21
2.275145832039645
 31
0.0
  0
LINE
  5
C0
330
1F
100
AcDbEntity
  8
STANDARD
  6
AUSGEZOGEN
 62
     7
370
    25
100
AcDbLine
 10
-0.8730053875910544
 20
1.870381166311355
 30
0.0
 11
-0.8730053875910544
 21
2.275145887317625
 31
0.0
  0
LINE
  5
C1
330
1F
100
AcDbEntity
  8
STANDARD
  6
AUSGEZOGEN
 62
     7
370
    25
100
AcDbLine
 10
-0.8530053875911244
 20
1.870381166311355
 30
0.0
 11
-0.8530053875911244
 21
2.275145703057715
 31
0.0
  0
LINE
  5
C2
330
1F
100
AcDbEntity
  8
STANDARD
  6
VERDECKT
 62
     7
370
    13
100
AcDbLine
 10
-0.8590108694520946
 20
1.870381166311355
 30
0.0
 11
-0.8590108694520946
 21
2.275145758386185
 31
0.0
  0
HATCH
  5
C3
330
1F
100
AcDbEntity
  8
STANDARD
  6
STRICHPUNKT
 62
     0
370
    18
100
AcDbHatch
 10
0.0
 20
0.0
 30
0.0
210
0.0
220
0.0
230
1.0
  2
SOLID
 70
     1
 71
     0
 91
        1
 92
        3
 72
     0
 73
     1
 93
        4
 10
-0.8522608699521383
 20
1.857119419667325
 10
-0.8522608699521383
 20
1.860119419667325
 10
-0.8730053875910544
 20
1.860119419667325
 10
-0.8730053875910544
 20
1.857119419667325
 97
        0
 75
     0
 76
     1
 98
        0
  0
LINE
  5
C4
330
1F
100
AcDbEntity
  8
STANDARD
  6
AUSGEZOGEN
 62
     7
370
    18
100
AcDbLine
 10
-0.7342608699521384
 20
1.860119419667325
 30
0.0
 11
-0.8730053875910544
 21
1.860119419667325
 31
0.0
  0
HATCH
  5
C5
330
1F
100
AcDbEntity
  8
STANDARD
  6
AUSGEZOGEN
 62
     9
420
 13092807
370
    18
100
AcDbHatch
 10
0.0
 20
0.0
 30
0.0
210
0.0
220
0.0
230
1.0
  2
SOLID
 70
     1
 71
     0
 91
        1
 92
        3
 72
     0
 73
     1
 93
        4
 10
-0.8730053875910544
 20
2.275145887317625
 10
-0.8730053875910544
 20
1.870381166311355
 10
-0.8530053875911244
 20
1.870381166311355
 10
-0.8530053875911244
 20
2.275145887317625
 97
        0
 75
     0
 76
     1
 98
        0
  0
LINE
  5
C6
330
1F
100
AcDbEntity
  8
STANDARD
  6
AUSGEZOGEN
 62
     7
370
    18
100
AcDbLine
 10
-0.849260869952086
 20
1.863381166311355
 30
0.0
 11
-0.846260869952086
 21
1.863381166311355
 31
0.0
  0
MTEXT
  5
C7
330
1F
100
AcDbEntity
  8
STANDARD
  6
AUSGEZOGEN
 62
     7
370
    18
100
AcDbMText
 10
-0.2549570533297731
 20
1.276979779665264
 30
0.0
 40
0.009
 41
0.1106855434615974
 71
     7
 72
     5
  1
\W0.91;STAND:\~MÄRZ\~2013
  7
ARIAL
 73
     1
 44
1.0
  0
ARC
  5
C8
330
1F
100
AcDbEntity
  8
STANDARD
  6
AUSGEZOGEN
 62
     7
370
    18
100
AcDbCircle
 10
-0.8620108699521002
 20
1.866881166311355
 30
0.0
 40
0.0015
100
AcDbArc
 50
90.0
 51
270.0
  0
LINE
  5
C9
330
1F
100
AcDbEntity
  8
STANDARD
  6
AUSGEZOGEN
 62
     7
370
    18
100
AcDbLine
 10
-0.8570108699521002
 20
1.865381166311355
 30
0.0
 11
-0.8620108699521002
 21
1.865381166311355
 31
0.0
  0
LINE
  5
CA
330
1F
100
AcDbEntity
  8
STANDARD
  6
AUSGEZOGEN
 62
     7
370
    18
100
AcDbLine
 10
-0.8462608699520844
 20
1.862381166311358
 30
0.0
 11
-0.8462608699520853
 21
1.860381166311358
 31
0.0
  0
LINE
  5
CB
330
1F
100
AcDbEntity
  8
STANDARD
  6
AUSGEZOGEN
 62
     7
370
    18
100
AcDbLine
 10
-0.8462608699520844
 20
1.862381166311355
 30
0.0
 11
-0.8462608699520857
 21
1.860381166311355
 31
0.0
  0
LINE
  5
CC
330
1F
100
AcDbEntity
  8
STANDARD
  6
AUSGEZOGEN
 62
     7
370
    18
100
AcDbLine
 10
-0.8462608699520844
 20
1.969381166311355
 30
0.0
 11
-0.8462608699520857
 21
1.971381166311355
 31
0.0
  0
LINE
  5
CD
330
1F
100
AcDbEntity
  8
STANDARD
  6
AUSGEZOGEN
 62
     7
370
    18
100
AcDbLine
 10
-0.8332608699520857
 20
1.946381166311355
 30
0.0
 11
-0.8332608699520857
 21
1.890381166311355
 31
0.0
  0
LINE
  5
CE
330
1F
100
AcDbEntity
  8
STANDARD
  6
AUSGEZOGEN
 62
     7
370
    18
100
AcDbLine
 10
-0.8312608699520857
 20
1.888381166311355
 30
0.0
 11
-0.8442608699520857
 21
1.888381166311355
 31
0.0
  0
LINE
  5
CF
330
1F
100
AcDbEntity
  8
STANDARD
  6
AUSGEZOGEN
 62
     7
370
    18
100
AcDbLine
 10
-0.8332608699520857
 20
1.890381166311355
 30
0.0
 11
-0.8462608699520857
 21
1.890381166311355
 31
0.0
  0
LINE
  5
D0
330
1F
100
AcDbEntity
  8
STANDARD
  6
AUSGEZOGEN
 62
     7
370
    18
100
AcDbLine
 10
-0.8312608699520857
 20
1.948381166311355
 30
0.0
 11
-0.8442608699520857
 21
1.948381166311355
 31
0.0
  0
LINE
  5
D1
330
1F
100
AcDbEntity
  8
STANDARD
  6
AUSGEZOGEN
 62
     7
370
    18
100
AcDbLine
 10
-0.8462608699520857
 20
1.946381166311355
 30
0.0
 11
-0.8332608699520857
 21
1.946381166311355
 31
0.0
  0
LINE
  5
D2
330
1F
100
AcDbEntity
  8
STANDARD
  6
AUSGEZOGEN
 62
     7
370
    18
100
AcDbLine
 10
-0.8442608699520857
 20
1.888381166311355
 30
0.0
 11
-0.8442608699520857
 21
1.860381166311355
 31
0.0
  0
LINE
  5
D3
330
1F
100
AcDbEntity
  8
STANDARD
  6
AUSGEZOGEN
 62
     7
370
    18
100
AcDbLine
 10
-0.8442608699520857
 20
1.860381166311355
 30
0.0
 11
-0.8462608699520857
 21
1.860381166311355
 31
0.0
  0
LINE
  5
D4
330
1F
100
AcDbEntity
  8
STANDARD
  6
AUSGEZOGEN
 62
     7
370
    18
100
AcDbLine
 10
-0.8462608699520857
 20
1.860381166311355
 30
0.0
 11
-0.8462608699520857
 21
1.890381166311355
 31
0.0
  0
LINE
  5
D5
330
1F
100
AcDbEntity
  8
STANDARD
  6
AUSGEZOGEN
 62
     7
370
    18
100
AcDbLine
 10
-0.8442608699520857
 20
1.948381166311355
 30
0.0
 11
-0.8442608699520857
 21
1.976381166311355
 31
0.0
  0
LINE
  5
D6
330
1F
100
AcDbEntity
  8
STANDARD
  6
AUSGEZOGEN
 62
     7
370
    18
100
AcDbLine
 10
-0.8442608699520857
 20
1.976381166311355
 30
0.0
 11
-0.8462608699520857
 21
1.976381166311355
 31
0.0
  0
LINE
  5
D7
330
1F
100
AcDbEntity
  8
STANDARD
  6
AUSGEZOGEN
 62
     7
370
    18
100
AcDbLine
 10
-0.8462608699520857
 20
1.976381166311355
 30
0.0
 11
-0.8462608699520857
 21
1.946381166311355
 31
0.0
  0
LWPOLYLINE
  5
D8
330
1F
100
AcDbEntity
  8
STANDARD
  6
AUSGEZOGEN
 62
     7
370
    18
100
AcDbPolyline
 90
        2
 70
     1
 43
0.0
 10
-0.8462608699520857
 20
1.860381166311355
 10
-0.8462608699520857
 20
1.860381166311355
  0
LINE
  5
D9
330
1F
100
AcDbEntity
  8
STANDARD
  6
AUSGEZOGEN
 62
     7
370
    18
100
AcDbLine
 10
-0.8257608699520858
 20
1.918381166311355
 30
0.0
 11
-0.8407608699520858
 21
1.918381166311355
 31
0.0
  0
LWPOLYLINE
  5
DA
330
1F
100
AcDbEntity
  8
STANDARD
  6
AUSGEZOGEN
 62
     7
370
    18
100
AcDbPolyline
 90
        2
 70
     1
 43
0.0
 10
-0.8312608699520857
 20
1.888381166311355
 10
-0.8312608699520857
 20
1.888381166311355
  0
HATCH
  5
DB
330
1F
100
AcDbEntity
  8
STANDARD
  6
AUSGEZOGEN
 62
     0
370
    18
100
AcDbHatch
 10
0.0
 20
0.0
 30
0.0
210
0.0
220
0.0
230
1.0
  2
SOLID
 70
     1
 71
     0
 91
        1
 92
        3
 72
     0
 73
     1
 93
       12
 10
-0.8442608699520857
 20
1.860381166311355
 10
-0.8442608699520857
 20
1.888381166311355
 10
-0.8312608699520857
 20
1.888381166311355
 10
-0.8312608699520857
 20
1.948381166311355
 10
-0.8442608699520857
 20
1.948381166311355
 10
-0.8442608699520857
 20
1.976381166311355
 10
-0.8462608699520857
 20
1.976381166311355
 10
-0.8462608699520857
 20
1.946381166311355
 10
-0.8332608699520857
 20
1.946381166311355
 10
-0.8332608699520857
 20
1.890381166311355
 10
-0.8462608699520857
 20
1.890381166311355
 10
-0.8462608699520857
 20
1.860381166311355
 97
        0
 75
     0
 76
     1
 98
        0
  0
LINE
  5
DC
330
1F
100
AcDbEntity
  8
STANDARD
  6
AUSGEZOGEN
 62
    52
370
    18
100
AcDbLine
 10
-0.8312608699521191
 20
2.275145653021882
 30
0.0
 11
-0.8312608699520837
 21
1.865227474836505
 31
0.0
  0
LINE
  5
DD
330
1F
100
AcDbEntity
  8
STANDARD
  6
STRICHPUNKT
 62
     7
370
    18
100
AcDbLine
 10
-0.8855205820959146
 20
2.275146159240975
 30
0.0
 11
-0.4112608699521384
 21
2.275141734607825
 31
0.0
  0
LINE
  5
DE
330
1F
100
AcDbEntity
  8
STANDARD
  6
VERDECKT
 62
    52
370
    18
100
AcDbLine
 10
-0.8292608699521191
 20
2.275145634362768
 30
0.0
 11
-0.8292608699520837
 21
1.865227474836505
 31
0.0
  0
LINE
  5
DF
330
1F
100
AcDbEntity
  8
STANDARD
  6
AUSGEZOGEN
 62
     7
370
    18
100
AcDbLine
 10
-0.8415108699521002
 20
1.866881166311355
 30
0.0
 11
-0.8550108699521002
 21
1.866881166311355
 31
0.0
  0
LINE
  5
E0
330
1F
100
AcDbEntity
  8
STANDARD
  6
AUSGEZOGEN
 62
     7
370
    18
100
AcDbLine
 10
-0.8462608699520702
 20
1.916881166311355
 30
0.0
 11
-0.8492608699520702
 21
1.916881166311355
 31
0.0
  0
LINE
  5
E1
330
1F
100
AcDbEntity
  8
STANDARD
  6
AUSGEZOGEN
 62
     7
370
    18
100
AcDbLine
 10
-0.8462608699520834
 20
1.860381166311355
 30
0.0
 11
-0.8462608699520664
 21
1.916881166311355
 31
0.0
  0
ENDSEC
  0
SECTION
  2
OBJECTS
  0
DICTIONARY
  5
C
330
0
100
AcDbDictionary
281
     1
  3
ACAD_GROUP
350
D
  3
ACAD_LAYOUT
350
1A
  3
ACAD_MLINESTYLE
350
17
  3
ACAD_PLOTSETTINGS
350
19
  3
ACAD_PLOTSTYLENAME
350
E
  0
DICTIONARY
  5
E2
330
1F
100
AcDbDictionary
280
     1
281
     1
  3
ACAD_SORTENTS
360
E3
  0
DICTIONARY
  5
D
102
{ACAD_REACTORS
330
C
102
}
330
C
100
AcDbDictionary
281
     1
  0
DICTIONARY
  5
1A
102
{ACAD_REACTORS
330
C
102
}
330
C
100
AcDbDictionary
281
     1
  3
Layout1
350
1E
  3
Layout2
350
26
  3
Model
350
22
  0
DICTIONARY
  5
17
102
{ACAD_REACTORS
330
C
102
}
330
C
100
AcDbDictionary
281
     1
  3
Standard
350
18
  0
DICTIONARY
  5
19
102
{ACAD_REACTORS
330
C
102
}
330
C
100
AcDbDictionary
281
     1
  0
ACDBDICTIONARYWDFLT
  5
E
102
{ACAD_REACTORS
330
C
102
}
330
C
100
AcDbDictionary
281
     1
  3
Normal
350
F
100
AcDbDictionaryWithDefault
340
F
  0
SORTENTSTABLE
  5
E3
102
{ACAD_REACTORS
330
E2
102
}
330
E2
100
AcDbSortentsTable
330
1F
331
30
  5
3B
331
31
  5
3C
331
32
  5
3D
331
33
  5
3E
331
34
  5
3F
331
35
  5
40
331
36
  5
41
331
37
  5
42
331
38
  5
43
331
39
  5
44
331
3A
  5
45
331
3B
  5
46
331
3C
  5
47
331
3D
  5
48
331
3E
  5
49
331
3F
  5
4A
331
40
  5
4B
331
41
  5
4C
331
42
  5
4D
331
43
  5
4E
331
44
  5
50
331
45
  5
51
331
46
  5
52
331
47
  5
53
331
48
  5
54
331
49
  5
55
331
4A
  5
56
331
4B
  5
57
331
4C
  5
58
331
4D
  5
59
331
4E
  5
5A
331
50
  5
5B
331
51
  5
30
331
52
  5
5C
331
53
  5
5D
331
54
  5
5E
331
55
  5
5F
331
56
  5
60
331
57
  5
31
331
58
  5
61
331
59
  5
62
331
5A
  5
63
331
5B
  5
32
331
5C
  5
33
331
5D
  5
34
331
5E
  5
64
331
5F
  5
35
331
60
  5
65
331
61
  5
36
331
62
  5
66
331
63
  5
67
331
64
  5
68
331
65
  5
69
331
66
  5
6A
331
67
  5
6B
331
68
  5
6C
331
69
  5
6D
331
6A
  5
6E
331
6B
  5
6F
331
6C
  5
70
331
6D
  5
71
331
6E
  5
72
331
6F
  5
73
331
70
  5
74
331
71
  5
75
331
72
  5
76
331
73
  5
77
331
74
  5
78
331
75
  5
79
331
76
  5
7A
331
77
  5
7B
331
78
  5
7C
331
79
  5
7D
331
7A
  5
7E
331
7B
  5
7F
331
7C
  5
80
331
7D
  5
81
331
7E
  5
82
331
7F
  5
83
331
80
  5
37
331
81
  5
84
331
82
  5
85
331
83
  5
86
331
84
  5
87
331
85
  5
88
331
86
  5
89
331
87
  5
8A
331
88
  5
8B
331
89
  5
8C
331
8A
  5
8D
331
8B
  5
8E
331
8C
  5
8F
331
8D
  5
90
331
8E
  5
91
331
8F
  5
92
331
90
  5
93
331
91
  5
94
331
92
  5
95
331
93
  5
96
331
94
  5
97
331
95
  5
98
331
96
  5
99
331
97
  5
9A
331
98
  5
9B
331
99
  5
9C
331
9A
  5
9D
331
9B
  5
9E
331
9C
  5
9F
331
9D
  5
A0
331
9E
  5
A1
331
9F
  5
A2
331
A0
  5
A3
331
A1
  5
A4
331
A2
  5
A5
331
A3
  5
A6
331
A4
  5
A7
331
A5
  5
A8
331
A6
  5
A9
331
A7
  5
AA
331
A8
  5
AB
331
A9
  5
AC
331
AA
  5
AD
331
AB
  5
AE
331
AC
  5
AF
331
AD
  5
B0
331
AE
  5
B1
331
AF
  5
B2
331
B0
  5
B3
331
B1
  5
B4
331
B2
  5
B5
331
B3
  5
B6
331
B4
  5
B7
331
B5
  5
B8
331
B6
  5
B9
331
B7
  5
BA
331
B8
  5
BB
331
B9
  5
BC
331
BA
  5
BD
331
BB
  5
BE
331
BC
  5
BF
331
BD
  5
C0
331
BE
  5
C1
331
BF
  5
C2
331
C0
  5
C3
331
C1
  5
C4
331
C2
  5
C5
331
C3
  5
38
331
C4
  5
C6
331
C5
  5
39
331
C6
  5
C7
331
C7
  5
C8
331
C8
  5
C9
331
C9
  5
CA
331
CA
  5
CB
331
CB
  5
CC
331
CC
  5
CD
331
CD
  5
CE
331
CE
  5
CF
331
CF
  5
D0
331
D0
  5
D1
331
D1
  5
D2
331
D2
  5
D3
331
D3
  5
D4
331
D4
  5
D5
331
D5
  5
D6
331
D6
  5
D7
331
D7
  5
D8
331
D8
  5
D9
331
D9
  5
DA
331
DA
  5
DB
331
DB
  5
3A
  0
LAYOUT
  5
1E
102
{ACAD_REACTORS
330
1A
102
}
330
1A
100
AcDbPlotSettings
  1

  2
none_device
  4

  6

 40
7.5
 41
7.5
 42
7.5
 43
7.5
 44
1485.00015
 45
1050.004499999999
 46
-1156.488992394367
 47
1172.395648967135
 48
0.0
 49
0.0
140
0.0
141
0.0
142
1.0
143
1.0
 70
   688
 72
     1
 73
     0
 74
     5
  7

 75
    16
 76
     0
 77
     2
 78
   300
147
1000.0
148
0.0
149
0.0
100
AcDbLayout
  1
Layout1
 70
     1
 71
     1
 10
0.0
 20
0.0
 11
12.0
 21
9.0
 12
0.0
 22
0.0
 32
0.0
 14
1.000000000000000E+20
 24
1.000000000000000E+20
 34
1.000000000000000E+20
 15
-1.000000000000000E+20
 25
-1.000000000000000E+20
 35
-1.000000000000000E+20
146
0.0
 13
0.0
 23
0.0
 33
0.0
 16
1.0
 26
0.0
 36
0.0
 17
0.0
 27
1.0
 37
0.0
 76
     0
330
1B
  0
LAYOUT
  5
26
102
{ACAD_REACTORS
330
1A
102
}
330
1A
100
AcDbPlotSettings
  1

  2

  4

  6

 40
0.0
 41
0.0
 42
0.0
 43
0.0
 44
0.0
 45
0.0
 46
0.0
 47
0.0
 48
0.0
 49
0.0
140
0.0
141
0.0
142
1.0
143
1.0
 70
   688
 72
     0
 73
     0
 74
     5
  7

 75
    16
 76
     0
 77
     2
 78
   300
147
1.0
148
0.0
149
0.0
100
AcDbLayout
  1
Layout2
 70
     1
 71
     2
 10
0.0
 20
0.0
 11
0.0
 21
0.0
 12
0.0
 22
0.0
 32
0.0
 14
0.0
 24
0.0
 34
0.0
 15
0.0
 25
0.0
 35
0.0
146
0.0
 13
0.0
 23
0.0
 33
0.0
 16
1.0
 26
0.0
 36
0.0
 17
0.0
 27
1.0
 37
0.0
 76
     0
330
23
  0
LAYOUT
  5
22
102
{ACAD_REACTORS
330
1A
102
}
330
1A
100
AcDbPlotSettings
  1

  2

  4

  6

 40
0.0
 41
0.0
 42
0.0
 43
0.0
 44
0.0
 45
0.0
 46
0.0
 47
0.0
 48
0.0
 49
0.0
140
0.0
141
0.0
142
1.0
143
1.0
 70
  1712
 72
     0
 73
     0
 74
     0
  7

 75
     0
 76
     0
 77
     2
 78
   300
147
1.0
148
0.0
149
0.0
100
AcDbLayout
  1
Model
 70
     1
 71
     0
 10
-1.156496492394367
 20
1.172388148967135
 11
-0.1065069923943684
 21
2.657373298967135
 12
0.0
 22
0.0
 32
0.0
 14
-1.156496492394367
 24
1.172388148967135
 34
-1.156496492394367
 15
-0.1065069923943684
 25
2.657373298967135
 35
-0.1065069923943684
146
0.0
 13
0.0
 23
0.0
 33
0.0
 16
1.0
 26
0.0
 36
0.0
 17
0.0
 27
1.0
 37
0.0
 76
     0
330
1F
  0
MLINESTYLE
  5
18
102
{ACAD_REACTORS
330
17
102
}
330
17
100
AcDbMlineStyle
  2
Standard
 70
     0
  3

 62
   256
 51
90.0
 52
90.0
 71
     2
 49
0.5
 62
   256
  6
BYLAYER
 49
-0.5
 62
   256
  6
BYLAYER
  0
ACDBPLACEHOLDER
  5
F
102
{ACAD_REACTORS
330
E
102
}
330
E
  0
ENDSEC
  0
EOF
