  0
SECTION
  2
HEADER
  9
$ACADVER
  1
AC1018
  9
$ACADMAINTVER
 70
     0
  9
$DWGCODEPAGE
  3
ANSI_932
  9
$INSBASE
 10
0.0
 20
0.0
 30
0.0
  9
$EXTMIN
 10
1.000000000000000E+20
 20
1.000000000000000E+20
 30
1.000000000000000E+20
  9
$EXTMAX
 10
-1.000000000000000E+20
 20
-1.000000000000000E+20
 30
-1.000000000000000E+20
  9
$LIMMIN
 10
0.0
 20
0.0
  9
$LIMMAX
 10
12.0
 20
9.0
  9
$ORTHOMODE
 70
     0
  9
$REGENMODE
 70
     1
  9
$FILLMODE
 70
     1
  9
$QTEXTMODE
 70
     0
  9
$MIRRTEXT
 70
     1
  9
$LTSCALE
 40
1.0
  9
$ATTMODE
 70
     1
  9
$TEXTSIZE
 40
0.2
  9
$TRACEWID
 40
0.05
  9
$TEXTSTYLE
  7
Standard
  9
$CLAYER
  8
0
  9
$CELTYPE
  6
ByLayer
  9
$CECOLOR
 62
   256
  9
$CELTSCALE
 40
1.0
  9
$DISPSILH
 70
     0
  9
$DIMSCALE
 40
1.0
  9
$DIMASZ
 40
0.18
  9
$DIMEXO
 40
0.0625
  9
$DIMDLI
 40
0.38
  9
$DIMRND
 40
0.0
  9
$DIMDLE
 40
0.0
  9
$DIMEXE
 40
0.18
  9
$DIMTP
 40
0.0
  9
$DIMTM
 40
0.0
  9
$DIMTXT
 40
0.18
  9
$DIMCEN
 40
0.09
  9
$DIMTSZ
 40
0.0
  9
$DIMTOL
 70
     0
  9
$DIMLIM
 70
     0
  9
$DIMTIH
 70
     1
  9
$DIMTOH
 70
     1
  9
$DIMSE1
 70
     0
  9
$DIMSE2
 70
     0
  9
$DIMTAD
 70
     0
  9
$DIMZIN
 70
     0
  9
$DIMBLK
  1

  9
$DIMASO
 70
     1
  9
$DIMSHO
 70
     1
  9
$DIMPOST
  1

  9
$DIMAPOST
  1

  9
$DIMALT
 70
     0
  9
$DIMALTD
 70
     2
  9
$DIMALTF
 40
25.4
  9
$DIMLFAC
 40
1.0
  9
$DIMTOFL
 70
     0
  9
$DIMTVP
 40
0.0
  9
$DIMTIX
 70
     0
  9
$DIMSOXD
 70
     0
  9
$DIMSAH
 70
     0
  9
$DIMBLK1
  1

  9
$DIMBLK2
  1

  9
$DIMSTYLE
  2
Standard
  9
$DIMCLRD
 70
     0
  9
$DIMCLRE
 70
     0
  9
$DIMCLRT
 70
     0
  9
$DIMTFAC
 40
1.0
  9
$DIMGAP
 40
0.09
  9
$DIMJUST
 70
     0
  9
$DIMSD1
 70
     0
  9
$DIMSD2
 70
     0
  9
$DIMTOLJ
 70
     1
  9
$DIMTZIN
 70
     0
  9
$DIMALTZ
 70
     0
  9
$DIMALTTZ
 70
     0
  9
$DIMUPT
 70
     0
  9
$DIMDEC
 70
     4
  9
$DIMTDEC
 70
     4
  9
$DIMALTU
 70
     2
  9
$DIMALTTD
 70
     2
  9
$DIMTXSTY
  7
Standard
  9
$DIMAUNIT
 70
     0
  9
$DIMADEC
 70
     0
  9
$DIMALTRND
 40
0.0
  9
$DIMAZIN
 70
     0
  9
$DIMDSEP
 70
    46
  9
$DIMATFIT
 70
     3
  9
$DIMFRAC
 70
     0
  9
$DIMLDRBLK
  1

  9
$DIMLUNIT
 70
     2
  9
$DIMLWD
 70
    -2
  9
$DIMLWE
 70
    -2
  9
$DIMTMOVE
 70
     0
  9
$LUNITS
 70
     2
  9
$LUPREC
 70
     4
  9
$SKETCHINC
 40
0.1
  9
$FILLETRAD
 40
0.5
  9
$AUNITS
 70
     0
  9
$AUPREC
 70
     0
  9
$MENU
  1
.
  9
$ELEVATION
 40
0.0
  9
$PELEVATION
 40
0.0
  9
$THICKNESS
 40
0.0
  9
$LIMCHECK
 70
     0
  9
$CHAMFERA
 40
0.5
  9
$CHAMFERB
 40
0.5
  9
$CHAMFERC
 40
1.0
  9
$CHAMFERD
 40
0.0
  9
$SKPOLY
 70
     0
  9
$TDCREATE
 40
2456077.623032407
  9
$TDUCREATE
 40
2456077.581365741
  9
$TDUPDATE
 40
2456077.623032419
  9
$TDUUPDATE
 40
2456077.581365752
  9
$TDINDWG
 40
0.0000000116
  9
$TDUSRTIMER
 40
0.0000000116
  9
$USRTIMER
 70
     1
  9
$ANGBASE
 50
0.0
  9
$ANGDIR
 70
     0
  9
$PDMODE
 70
     0
  9
$PDSIZE
 40
0.0
  9
$PLINEWID
 40
0.0
  9
$SPLFRAME
 70
     0
  9
$SPLINETYPE
 70
     6
  9
$SPLINESEGS
 70
     8
  9
$HANDSEED
  5
636
  9
$SURFTAB1
 70
     6
  9
$SURFTAB2
 70
     6
  9
$SURFTYPE
 70
     6
  9
$SURFU
 70
     6
  9
$SURFV
 70
     6
  9
$UCSBASE
  2

  9
$UCSNAME
  2

  9
$UCSORG
 10
0.0
 20
0.0
 30
0.0
  9
$UCSXDIR
 10
1.0
 20
0.0
 30
0.0
  9
$UCSYDIR
 10
0.0
 20
1.0
 30
0.0
  9
$UCSORTHOREF
  2

  9
$UCSORTHOVIEW
 70
     0
  9
$UCSORGTOP
 10
0.0
 20
0.0
 30
0.0
  9
$UCSORGBOTTOM
 10
0.0
 20
0.0
 30
0.0
  9
$UCSORGLEFT
 10
0.0
 20
0.0
 30
0.0
  9
$UCSORGRIGHT
 10
0.0
 20
0.0
 30
0.0
  9
$UCSORGFRONT
 10
0.0
 20
0.0
 30
0.0
  9
$UCSORGBACK
 10
0.0
 20
0.0
 30
0.0
  9
$PUCSBASE
  2

  9
$PUCSNAME
  2

  9
$PUCSORG
 10
0.0
 20
0.0
 30
0.0
  9
$PUCSXDIR
 10
1.0
 20
0.0
 30
0.0
  9
$PUCSYDIR
 10
0.0
 20
1.0
 30
0.0
  9
$PUCSORTHOREF
  2

  9
$PUCSORTHOVIEW
 70
     0
  9
$PUCSORGTOP
 10
0.0
 20
0.0
 30
0.0
  9
$PUCSORGBOTTOM
 10
0.0
 20
0.0
 30
0.0
  9
$PUCSORGLEFT
 10
0.0
 20
0.0
 30
0.0
  9
$PUCSORGRIGHT
 10
0.0
 20
0.0
 30
0.0
  9
$PUCSORGFRONT
 10
0.0
 20
0.0
 30
0.0
  9
$PUCSORGBACK
 10
0.0
 20
0.0
 30
0.0
  9
$USERI1
 70
     0
  9
$USERI2
 70
     0
  9
$USERI3
 70
     0
  9
$USERI4
 70
     0
  9
$USERI5
 70
     0
  9
$USERR1
 40
0.0
  9
$USERR2
 40
0.0
  9
$USERR3
 40
0.0
  9
$USERR4
 40
0.0
  9
$USERR5
 40
0.0
  9
$WORLDVIEW
 70
     1
  9
$SHADEDGE
 70
     3
  9
$SHADEDIF
 70
    70
  9
$TILEMODE
 70
     1
  9
$MAXACTVP
 70
    64
  9
$PINSBASE
 10
0.0
 20
0.0
 30
0.0
  9
$PLIMCHECK
 70
     0
  9
$PEXTMIN
 10
1.000000000000000E+20
 20
1.000000000000000E+20
 30
1.000000000000000E+20
  9
$PEXTMAX
 10
-1.000000000000000E+20
 20
-1.000000000000000E+20
 30
-1.000000000000000E+20
  9
$PLIMMIN
 10
0.0
 20
0.0
  9
$PLIMMAX
 10
12.0
 20
9.0
  9
$UNITMODE
 70
     0
  9
$VISRETAIN
 70
     1
  9
$PLINEGEN
 70
     0
  9
$PSLTSCALE
 70
     1
  9
$TREEDEPTH
 70
  3020
  9
$CMLSTYLE
  2
Standard
  9
$CMLJUST
 70
     0
  9
$CMLSCALE
 40
1.0
  9
$PROXYGRAPHICS
 70
     1
  9
$MEASUREMENT
 70
     0
  9
$CELWEIGHT
370
    -1
  9
$ENDCAPS
280
     0
  9
$JOINSTYLE
280
     0
  9
$LWDISPLAY
290
     1
  9
$INSUNITS
 70
     1
  9
$HYPERLINKBASE
  1

  9
$STYLESHEET
  1

  9
$XEDIT
290
     1
  9
$CEPSNTYPE
380
     0
  9
$PSTYLEMODE
290
     1
  9
$FINGERPRINTGUID
  2
{6908E67D-820F-8C04-FBAD-255C8306EA73}
  9
$VERSIONGUID
  2
{FAEB1C32-E019-11D5-929B-00C0DF256EC4}
  9
$EXTNAMES
290
     1
  9
$PSVPSCALE
 40
0.0
  9
$OLESTARTUP
290
     0
  9
$SORTENTS
280
   127
  9
$INDEXCTL
280
     0
  9
$HIDETEXT
280
     1
  9
$XCLIPFRAME
290
     0
  9
$HALOGAP
280
     0
  9
$OBSCOLOR
 70
   257
  9
$OBSLTYPE
280
     0
  9
$INTERSECTIONDISPLAY
280
     0
  9
$INTERSECTIONCOLOR
 70
   257
  9
$DIMASSOC
280
     2
  9
$PROJECTNAME
  1

  0
ENDSEC
  0
SECTION
  2
CLASSES
  0
CLASS
  1
ACDBDICTIONARYWDFLT
  2
AcDbDictionaryWithDefault
  3
ObjectDBX Classes
 90
        0
 91
        3
280
     0
281
     0
  0
CLASS
  1
VISUALSTYLE
  2
AcDbVisualStyle
  3
ObjectDBX Classes
 90
     4095
 91
        3
280
     0
281
     0
  0
ENDSEC
  0
SECTION
  2
TABLES
  0
TABLE
  2
VPORT
  5
8
330
0
100
AcDbSymbolTable
 70
     1
  0
VPORT
  5
29
330
8
100
AcDbSymbolTableRecord
100
AcDbViewportTableRecord
  2
*Active
 70
     0
 10
0.0
 20
0.0
 11
1.0
 21
1.0
 12
0.0
 22
0.0
 13
0.0
 23
0.0
 14
0.5
 24
0.5
 15
0.5
 25
0.5
 16
0.0
 26
0.0
 36
1.0
 17
105.0008259828644
 27
-148.4999796178229
 37
0.0
 40
296.9999592356459
 41
0.7070763662937379
 42
50.0
 43
0.0
 44
0.0
 50
0.0
 51
0.0
 71
     0
 72
   100
 73
     1
 74
     3
 75
     0
 76
     0
 77
     0
 78
     0
281
     0
 65
     1
110
0.0
120
0.0
130
0.0
111
1.0
121
0.0
131
0.0
112
0.0
122
1.0
132
0.0
 79
     0
146
0.0
  0
ENDTAB
  0
TABLE
  2
LTYPE
  5
5
330
0
100
AcDbSymbolTable
 70
     1
  0
LTYPE
  5
14
330
5
100
AcDbSymbolTableRecord
100
AcDbLinetypeTableRecord
  2
ByBlock
 70
     0
  3

 72
    65
 73
     0
 40
0.0
  0
LTYPE
  5
15
330
5
100
AcDbSymbolTableRecord
100
AcDbLinetypeTableRecord
  2
ByLayer
 70
     0
  3

 72
    65
 73
     0
 40
0.0
  0
LTYPE
  5
16
330
5
100
AcDbSymbolTableRecord
100
AcDbLinetypeTableRecord
  2
Continuous
 70
     0
  3
Solid line
 72
    65
 73
     0
 40
0.0
  0
ENDTAB
  0
TABLE
  2
LAYER
  5
2
330
0
100
AcDbSymbolTable
 70
     2
  0
LAYER
  5
10
330
2
100
AcDbSymbolTableRecord
100
AcDbLayerTableRecord
  2
0
 70
     0
 62
     7
  6
Continuous
370
    -3
390
F
  0
LAYER
  5
3B
330
2
100
AcDbSymbolTableRecord
100
AcDbLayerTableRecord
  2
Ebene 1
 70
     0
 62
     7
  6
Continuous
370
    -3
390
F
  0
ENDTAB
  0
TABLE
  2
STYLE
  5
3
330
0
100
AcDbSymbolTable
 70
     1
  0
STYLE
  5
11
330
3
100
AcDbSymbolTableRecord
100
AcDbTextStyleTableRecord
  2
Standard
 70
     0
 40
0.0
 41
1.0
 50
0.0
 71
     0
 42
0.2
  3
txt
  4

  0
ENDTAB
  0
TABLE
  2
VIEW
  5
6
330
0
100
AcDbSymbolTable
 70
     0
  0
ENDTAB
  0
TABLE
  2
UCS
  5
7
330
0
100
AcDbSymbolTable
 70
     0
  0
ENDTAB
  0
TABLE
  2
APPID
  5
9
330
0
100
AcDbSymbolTable
 70
     1
  0
APPID
  5
12
330
9
100
AcDbSymbolTableRecord
100
AcDbRegAppTableRecord
  2
ACAD
 70
     0
  0
ENDTAB
  0
TABLE
  2
DIMSTYLE
  5
A
330
0
100
AcDbSymbolTable
 70
     1
100
AcDbDimStyleTable
  0
DIMSTYLE
105
27
330
A
100
AcDbSymbolTableRecord
100
AcDbDimStyleTableRecord
  2
Standard
 70
     0
340
11
  0
ENDTAB
  0
TABLE
  2
BLOCK_RECORD
  5
1
330
0
100
AcDbSymbolTable
 70
     5
  0
BLOCK_RECORD
  5
1F
330
1
100
AcDbSymbolTableRecord
100
AcDbBlockTableRecord
  2
*Model_Space
340
22
  0
BLOCK_RECORD
  5
1B
330
1
100
AcDbSymbolTableRecord
100
AcDbBlockTableRecord
  2
*Paper_Space
340
1E
  0
BLOCK_RECORD
  5
23
330
1
100
AcDbSymbolTableRecord
100
AcDbBlockTableRecord
  2
*Paper_Space0
340
26
  0
BLOCK_RECORD
  5
3C
330
1
100
AcDbSymbolTableRecord
100
AcDbBlockTableRecord
  2
block 2
340
0
102
{BLKREFS
331
3D
102
}
  0
BLOCK_RECORD
  5
138
330
1
100
AcDbSymbolTableRecord
100
AcDbBlockTableRecord
  2
block 3
340
0
102
{BLKREFS
331
139
102
}
  0
BLOCK_RECORD
  5
587
330
1
100
AcDbSymbolTableRecord
100
AcDbBlockTableRecord
  2
block 4
340
0
102
{BLKREFS
331
588
102
}
  0
BLOCK_RECORD
  5
59E
330
1
100
AcDbSymbolTableRecord
100
AcDbBlockTableRecord
  2
block 5
340
0
102
{BLKREFS
331
59F
102
}
  0
ENDTAB
  0
ENDSEC
  0
SECTION
  2
BLOCKS
  0
BLOCK
  5
20
330
1F
100
AcDbEntity
  8
0
100
AcDbBlockBegin
  2
*Model_Space
 70
     0
 71
     0
 10
0.0
 20
0.0
 30
0.0
  3
*Model_Space
  1

  0
ENDBLK
  5
21
330
1F
100
AcDbEntity
  8
0
100
AcDbBlockEnd
  0
BLOCK
  5
1C
330
1B
100
AcDbEntity
 67
     1
  8
0
100
AcDbBlockBegin
  2
*Paper_Space
 70
     0
 71
     0
 10
0.0
 20
0.0
 30
0.0
  3
*Paper_Space
  1

  0
ENDBLK
  5
1D
330
1B
100
AcDbEntity
 67
     1
  8
0
100
AcDbBlockEnd
  0
BLOCK
  5
24
330
23
100
AcDbEntity
  8
0
100
AcDbBlockBegin
  2
*Paper_Space0
 70
     0
 71
     0
 10
0.0
 20
0.0
 30
0.0
  3
*Paper_Space0
  1

  0
ENDBLK
  5
25
330
23
100
AcDbEntity
  8
0
100
AcDbBlockEnd
  0
BLOCK
  5
3E
330
3C
100
AcDbEntity
  8
0
100
AcDbBlockBegin
  2
block 2
 70
     0
 71
     0
 10
0.0
 20
0.0
 30
0.0
  3
block 2
  1

  0
POLYLINE
  5
40
330
3C
100
AcDbEntity
  8
Ebene 1
 62
   179
420
  1709851
370
    18
100
AcDb2dPolyline
 66
     1
 10
0.0
 20
0.0
 30
0.0
  0
VERTEX
  5
41
330
40
100
AcDbEntity
  8
Ebene 1
 62
   179
420
  1709851
370
    18
100
AcDbVertex
100
AcDb2dVertex
 10
28.11249592396146
 20
-103.8684230968628
 30
0.0
  0
VERTEX
  5
42
330
40
100
AcDbEntity
  8
Ebene 1
 62
   179
420
  1709851
370
    18
100
AcDbVertex
100
AcDb2dVertex
 10
40.79130858355217
 20
-91.16842310003776
 30
0.0
  0
SEQEND
  5
43
330
40
100
AcDbEntity
  8
Ebene 1
370
    18
  0
POLYLINE
  5
44
330
3C
100
AcDbEntity
  8
Ebene 1
 62
   179
420
  1709851
370
    18
100
AcDb2dPolyline
 66
     1
 10
0.0
 20
0.0
 30
0.0
  0
VERTEX
  5
45
330
44
100
AcDbEntity
  8
Ebene 1
 62
   179
420
  1709851
370
    18
100
AcDbVertex
100
AcDb2dVertex
 10
28.11249592396146
 20
-118.0077839874251
 30
0.0
  0
VERTEX
  5
46
330
44
100
AcDbEntity
  8
Ebene 1
 62
   179
420
  1709851
370
    18
100
AcDbVertex
100
AcDb2dVertex
 10
54.93066947411456
 20
-91.16842310003776
 30
0.0
  0
SEQEND
  5
47
330
44
100
AcDbEntity
  8
Ebene 1
370
    18
  0
POLYLINE
  5
48
330
3C
100
AcDbEntity
  8
Ebene 1
 62
   179
420
  1709851
370
    18
100
AcDb2dPolyline
 66
     1
 10
0.0
 20
0.0
 30
0.0
  0
VERTEX
  5
49
330
48
100
AcDbEntity
  8
Ebene 1
 62
   179
420
  1709851
370
    18
100
AcDbVertex
100
AcDb2dVertex
 10
28.11249592396146
 20
-132.1471448779875
 30
0.0
  0
VERTEX
  5
4A
330
48
100
AcDbEntity
  8
Ebene 1
 62
   179
420
  1709851
370
    18
100
AcDbVertex
100
AcDb2dVertex
 10
69.07037487422546
 20
-91.16842310003776
 30
0.0
  0
SEQEND
  5
4B
330
48
100
AcDbEntity
  8
Ebene 1
370
    18
  0
POLYLINE
  5
4C
330
3C
100
AcDbEntity
  8
Ebene 1
 62
   179
420
  1709851
370
    18
100
AcDb2dPolyline
 66
     1
 10
0.0
 20
0.0
 30
0.0
  0
VERTEX
  5
4D
330
4C
100
AcDbEntity
  8
Ebene 1
 62
   179
420
  1709851
370
    18
100
AcDbVertex
100
AcDb2dVertex
 10
28.11249592396146
 20
-146.2865057685499
 30
0.0
  0
VERTEX
  5
4E
330
4C
100
AcDbEntity
  8
Ebene 1
 62
   179
420
  1709851
370
    18
100
AcDbVertex
100
AcDb2dVertex
 10
83.20973576478785
 20
-91.16842310003776
 30
0.0
  0
SEQEND
  5
4F
330
4C
100
AcDbEntity
  8
Ebene 1
370
    18
  0
POLYLINE
  5
50
330
3C
100
AcDbEntity
  8
Ebene 1
 62
   179
420
  1709851
370
    18
100
AcDb2dPolyline
 66
     1
 10
0.0
 20
0.0
 30
0.0
  0
VERTEX
  5
51
330
50
100
AcDbEntity
  8
Ebene 1
 62
   179
420
  1709851
370
    18
100
AcDbVertex
100
AcDb2dVertex
 10
37.36274955663153
 20
-151.1756130264422
 30
0.0
  0
VERTEX
  5
52
330
50
100
AcDbEntity
  8
Ebene 1
 62
   179
420
  1709851
370
    18
100
AcDbVertex
100
AcDb2dVertex
 10
97.34909665535022
 20
-91.16842310003776
 30
0.0
  0
SEQEND
  5
53
330
50
100
AcDbEntity
  8
Ebene 1
370
    18
  0
POLYLINE
  5
54
330
3C
100
AcDbEntity
  8
Ebene 1
 62
   179
420
  1709851
370
    18
100
AcDb2dPolyline
 66
     1
 10
0.0
 20
0.0
 30
0.0
  0
VERTEX
  5
55
330
54
100
AcDbEntity
  8
Ebene 1
 62
   179
420
  1709851
370
    18
100
AcDbVertex
100
AcDb2dVertex
 10
51.50211044719392
 20
-151.1756130264422
 30
0.0
  0
VERTEX
  5
56
330
54
100
AcDbEntity
  8
Ebene 1
 62
   179
420
  1709851
370
    18
100
AcDbVertex
100
AcDb2dVertex
 10
111.4884575459126
 20
-91.16842310003776
 30
0.0
  0
SEQEND
  5
57
330
54
100
AcDbEntity
  8
Ebene 1
370
    18
  0
POLYLINE
  5
58
330
3C
100
AcDbEntity
  8
Ebene 1
 62
   179
420
  1709851
370
    18
100
AcDb2dPolyline
 66
     1
 10
0.0
 20
0.0
 30
0.0
  0
VERTEX
  5
59
330
58
100
AcDbEntity
  8
Ebene 1
 62
   179
420
  1709851
370
    18
100
AcDbVertex
100
AcDb2dVertex
 10
65.6414713377563
 20
-151.1756130264422
 30
0.0
  0
VERTEX
  5
5A
330
58
100
AcDbEntity
  8
Ebene 1
 62
   179
420
  1709851
370
    18
100
AcDbVertex
100
AcDb2dVertex
 10
125.6274739269265
 20
-91.16842310003776
 30
0.0
  0
SEQEND
  5
5B
330
58
100
AcDbEntity
  8
Ebene 1
370
    18
  0
POLYLINE
  5
5C
330
3C
100
AcDbEntity
  8
Ebene 1
 62
   179
420
  1709851
370
    18
100
AcDb2dPolyline
 66
     1
 10
0.0
 20
0.0
 30
0.0
  0
VERTEX
  5
5D
330
5C
100
AcDbEntity
  8
Ebene 1
 62
   179
420
  1709851
370
    18
100
AcDbVertex
100
AcDb2dVertex
 10
79.78031546399589
 20
-151.1756130264422
 30
0.0
  0
VERTEX
  5
5E
330
5C
100
AcDbEntity
  8
Ebene 1
 62
   179
420
  1709851
370
    18
100
AcDbVertex
100
AcDb2dVertex
 10
139.7671793270374
 20
-91.16842310003776
 30
0.0
  0
SEQEND
  5
5F
330
5C
100
AcDbEntity
  8
Ebene 1
370
    18
  0
POLYLINE
  5
60
330
3C
100
AcDbEntity
  8
Ebene 1
 62
   179
420
  1709851
370
    18
100
AcDb2dPolyline
 66
     1
 10
0.0
 20
0.0
 30
0.0
  0
VERTEX
  5
61
330
60
100
AcDbEntity
  8
Ebene 1
 62
   179
420
  1709851
370
    18
100
AcDbVertex
100
AcDb2dVertex
 10
93.91967635455828
 20
-151.1756130264422
 30
0.0
  0
VERTEX
  5
62
330
60
100
AcDbEntity
  8
Ebene 1
 62
   179
420
  1709851
370
    18
100
AcDbVertex
100
AcDb2dVertex
 10
153.9275553000598
 20
-91.16842310003776
 30
0.0
  0
SEQEND
  5
63
330
60
100
AcDbEntity
  8
Ebene 1
370
    18
  0
POLYLINE
  5
64
330
3C
100
AcDbEntity
  8
Ebene 1
 62
   179
420
  1709851
370
    18
100
AcDb2dPolyline
 66
     1
 10
0.0
 20
0.0
 30
0.0
  0
VERTEX
  5
65
330
64
100
AcDbEntity
  8
Ebene 1
 62
   179
420
  1709851
370
    18
100
AcDbVertex
100
AcDb2dVertex
 10
108.0595540094434
 20
-151.1756130264422
 30
0.0
  0
VERTEX
  5
66
330
64
100
AcDbEntity
  8
Ebene 1
 62
   179
420
  1709851
370
    18
100
AcDbVertex
100
AcDb2dVertex
 10
168.0669161906222
 20
-91.16842310003776
 30
0.0
  0
SEQEND
  5
67
330
64
100
AcDbEntity
  8
Ebene 1
370
    18
  0
POLYLINE
  5
68
330
3C
100
AcDbEntity
  8
Ebene 1
 62
   179
420
  1709851
370
    18
100
AcDb2dPolyline
 66
     1
 10
0.0
 20
0.0
 30
0.0
  0
VERTEX
  5
69
330
68
100
AcDbEntity
  8
Ebene 1
 62
   179
420
  1709851
370
    18
100
AcDbVertex
100
AcDb2dVertex
 10
122.1982258809088
 20
-151.1756130264422
 30
0.0
  0
VERTEX
  5
6A
330
68
100
AcDbEntity
  8
Ebene 1
 62
   179
420
  1709851
370
    18
100
AcDbVertex
100
AcDb2dVertex
 10
182.2062770811845
 20
-91.16842310003776
 30
0.0
  0
SEQEND
  5
6B
330
68
100
AcDbEntity
  8
Ebene 1
370
    18
  0
POLYLINE
  5
6C
330
3C
100
AcDbEntity
  8
Ebene 1
 62
   179
420
  1709851
370
    18
100
AcDb2dPolyline
 66
     1
 10
0.0
 20
0.0
 30
0.0
  0
VERTEX
  5
6D
330
6C
100
AcDbEntity
  8
Ebene 1
 62
   179
420
  1709851
370
    18
100
AcDbVertex
100
AcDb2dVertex
 10
136.3375867714712
 20
-151.1756130264422
 30
0.0
  0
VERTEX
  5
6E
330
6C
100
AcDbEntity
  8
Ebene 1
 62
   179
420
  1709851
370
    18
100
AcDbVertex
100
AcDb2dVertex
 10
196.0913899249355
 20
-91.42232663730067
 30
0.0
  0
SEQEND
  5
6F
330
6C
100
AcDbEntity
  8
Ebene 1
370
    18
  0
POLYLINE
  5
70
330
3C
100
AcDbEntity
  8
Ebene 1
 62
   179
420
  1709851
370
    18
100
AcDb2dPolyline
 66
     1
 10
0.0
 20
0.0
 30
0.0
  0
VERTEX
  5
71
330
70
100
AcDbEntity
  8
Ebene 1
 62
   179
420
  1709851
370
    18
100
AcDbVertex
100
AcDb2dVertex
 10
150.4769476620336
 20
-151.1756130264422
 30
0.0
  0
VERTEX
  5
72
330
70
100
AcDbEntity
  8
Ebene 1
 62
   179
420
  1709851
370
    18
100
AcDbVertex
100
AcDb2dVertex
 10
196.0913899249355
 20
-105.5616875278631
 30
0.0
  0
SEQEND
  5
73
330
70
100
AcDbEntity
  8
Ebene 1
370
    18
  0
POLYLINE
  5
74
330
3C
100
AcDbEntity
  8
Ebene 1
 62
   179
420
  1709851
370
    18
100
AcDb2dPolyline
 66
     1
 10
0.0
 20
0.0
 30
0.0
  0
VERTEX
  5
75
330
74
100
AcDbEntity
  8
Ebene 1
 62
   179
420
  1709851
370
    18
100
AcDbVertex
100
AcDb2dVertex
 10
164.6163085525959
 20
-151.1756130264422
 30
0.0
  0
VERTEX
  5
76
330
74
100
AcDbEntity
  8
Ebene 1
 62
   179
420
  1709851
370
    18
100
AcDbVertex
100
AcDb2dVertex
 10
196.0913899249355
 20
-119.7010484184254
 30
0.0
  0
SEQEND
  5
77
330
74
100
AcDbEntity
  8
Ebene 1
370
    18
  0
POLYLINE
  5
78
330
3C
100
AcDbEntity
  8
Ebene 1
 62
   179
420
  1709851
370
    18
100
AcDb2dPolyline
 66
     1
 10
0.0
 20
0.0
 30
0.0
  0
VERTEX
  5
79
330
78
100
AcDbEntity
  8
Ebene 1
 62
   179
420
  1709851
370
    18
100
AcDbVertex
100
AcDb2dVertex
 10
178.7773735447154
 20
-151.1756130264422
 30
0.0
  0
VERTEX
  5
7A
330
78
100
AcDbEntity
  8
Ebene 1
 62
   179
420
  1709851
370
    18
100
AcDbVertex
100
AcDb2dVertex
 10
196.0913899249355
 20
-133.8404093089878
 30
0.0
  0
SEQEND
  5
7B
330
78
100
AcDbEntity
  8
Ebene 1
370
    18
  0
POLYLINE
  5
7C
330
3C
100
AcDbEntity
  8
Ebene 1
 62
   179
420
  1709851
370
    18
100
AcDb2dPolyline
 66
     1
 10
0.0
 20
0.0
 30
0.0
  0
VERTEX
  5
7D
330
7C
100
AcDbEntity
  8
Ebene 1
 62
   179
420
  1709851
370
    18
100
AcDbVertex
100
AcDb2dVertex
 10
192.9163899257292
 20
-151.1756130264422
 30
0.0
  0
VERTEX
  5
7E
330
7C
100
AcDbEntity
  8
Ebene 1
 62
   179
420
  1709851
370
    18
100
AcDbVertex
100
AcDb2dVertex
 10
196.0913899249355
 20
-147.9797701995502
 30
0.0
  0
SEQEND
  5
7F
330
7C
100
AcDbEntity
  8
Ebene 1
370
    18
  0
POLYLINE
  5
80
330
3C
100
AcDbEntity
  8
Ebene 1
 62
   179
420
  1709851
370
    18
100
AcDb2dPolyline
 66
     1
 10
0.0
 20
0.0
 30
0.0
  0
VERTEX
  5
81
330
80
100
AcDbEntity
  8
Ebene 1
 62
   179
420
  1709851
370
    18
100
AcDbVertex
100
AcDb2dVertex
 10
28.11284043350999
 20
-96.79874265158156
 30
0.0
  0
VERTEX
  5
82
330
80
100
AcDbEntity
  8
Ebene 1
 62
   179
420
  1709851
370
    18
100
AcDbVertex
100
AcDb2dVertex
 10
33.72197264781951
 20
-91.16842310003776
 30
0.0
  0
SEQEND
  5
83
330
80
100
AcDbEntity
  8
Ebene 1
370
    18
  0
POLYLINE
  5
84
330
3C
100
AcDbEntity
  8
Ebene 1
 62
   179
420
  1709851
370
    18
100
AcDb2dPolyline
 66
     1
 10
0.0
 20
0.0
 30
0.0
  0
VERTEX
  5
85
330
84
100
AcDbEntity
  8
Ebene 1
 62
   179
420
  1709851
370
    18
100
AcDbVertex
100
AcDb2dVertex
 10
28.11284043350999
 20
-110.9381035421439
 30
0.0
  0
VERTEX
  5
86
330
84
100
AcDbEntity
  8
Ebene 1
 62
   179
420
  1709851
370
    18
100
AcDbVertex
100
AcDb2dVertex
 10
47.86133353838189
 20
-91.16842310003776
 30
0.0
  0
SEQEND
  5
87
330
84
100
AcDbEntity
  8
Ebene 1
370
    18
  0
POLYLINE
  5
88
330
3C
100
AcDbEntity
  8
Ebene 1
 62
   179
420
  1709851
370
    18
100
AcDb2dPolyline
 66
     1
 10
0.0
 20
0.0
 30
0.0
  0
VERTEX
  5
89
330
88
100
AcDbEntity
  8
Ebene 1
 62
   179
420
  1709851
370
    18
100
AcDbVertex
100
AcDb2dVertex
 10
28.11284043350999
 20
-125.0774644327063
 30
0.0
  0
VERTEX
  5
8A
330
88
100
AcDbEntity
  8
Ebene 1
 62
   179
420
  1709851
370
    18
100
AcDbVertex
100
AcDb2dVertex
 10
62.00034991939575
 20
-91.16842310003776
 30
0.0
  0
SEQEND
  5
8B
330
88
100
AcDbEntity
  8
Ebene 1
370
    18
  0
POLYLINE
  5
8C
330
3C
100
AcDbEntity
  8
Ebene 1
 62
   179
420
  1709851
370
    18
100
AcDb2dPolyline
 66
     1
 10
0.0
 20
0.0
 30
0.0
  0
VERTEX
  5
8D
330
8C
100
AcDbEntity
  8
Ebene 1
 62
   179
420
  1709851
370
    18
100
AcDbVertex
100
AcDb2dVertex
 10
28.11284043350999
 20
-139.2168253232687
 30
0.0
  0
VERTEX
  5
8E
330
8C
100
AcDbEntity
  8
Ebene 1
 62
   179
420
  1709851
370
    18
100
AcDbVertex
100
AcDb2dVertex
 10
76.14005531950666
 20
-91.16842310003776
 30
0.0
  0
SEQEND
  5
8F
330
8C
100
AcDbEntity
  8
Ebene 1
370
    18
  0
POLYLINE
  5
90
330
3C
100
AcDbEntity
  8
Ebene 1
 62
   179
420
  1709851
370
    18
100
AcDb2dPolyline
 66
     1
 10
0.0
 20
0.0
 30
0.0
  0
VERTEX
  5
91
330
90
100
AcDbEntity
  8
Ebene 1
 62
   179
420
  1709851
370
    18
100
AcDbVertex
100
AcDb2dVertex
 10
30.29306911135034
 20
-151.1756130264422
 30
0.0
  0
VERTEX
  5
92
330
90
100
AcDbEntity
  8
Ebene 1
 62
   179
420
  1709851
370
    18
100
AcDbVertex
100
AcDb2dVertex
 10
90.27941621006904
 20
-91.16842310003776
 30
0.0
  0
SEQEND
  5
93
330
90
100
AcDbEntity
  8
Ebene 1
370
    18
  0
POLYLINE
  5
94
330
3C
100
AcDbEntity
  8
Ebene 1
 62
   179
420
  1709851
370
    18
100
AcDb2dPolyline
 66
     1
 10
0.0
 20
0.0
 30
0.0
  0
VERTEX
  5
95
330
94
100
AcDbEntity
  8
Ebene 1
 62
   179
420
  1709851
370
    18
100
AcDbVertex
100
AcDb2dVertex
 10
44.43243000191273
 20
-151.1756130264422
 30
0.0
  0
VERTEX
  5
96
330
94
100
AcDbEntity
  8
Ebene 1
 62
   179
420
  1709851
370
    18
100
AcDbVertex
100
AcDb2dVertex
 10
104.4187771006314
 20
-91.16842310003776
 30
0.0
  0
SEQEND
  5
97
330
94
100
AcDbEntity
  8
Ebene 1
370
    18
  0
POLYLINE
  5
98
330
3C
100
AcDbEntity
  8
Ebene 1
 62
   179
420
  1709851
370
    18
100
AcDb2dPolyline
 66
     1
 10
0.0
 20
0.0
 30
0.0
  0
VERTEX
  5
99
330
98
100
AcDbEntity
  8
Ebene 1
 62
   179
420
  1709851
370
    18
100
AcDbVertex
100
AcDb2dVertex
 10
58.57179089247511
 20
-151.1756130264422
 30
0.0
  0
VERTEX
  5
9A
330
98
100
AcDbEntity
  8
Ebene 1
 62
   179
420
  1709851
370
    18
100
AcDbVertex
100
AcDb2dVertex
 10
118.5581379911938
 20
-91.16842310003776
 30
0.0
  0
SEQEND
  5
9B
330
98
100
AcDbEntity
  8
Ebene 1
370
    18
  0
POLYLINE
  5
9C
330
3C
100
AcDbEntity
  8
Ebene 1
 62
   179
420
  1709851
370
    18
100
AcDb2dPolyline
 66
     1
 10
0.0
 20
0.0
 30
0.0
  0
VERTEX
  5
9D
330
9C
100
AcDbEntity
  8
Ebene 1
 62
   179
420
  1709851
370
    18
100
AcDbVertex
100
AcDb2dVertex
 10
72.71097952826324
 20
-151.1756130264422
 30
0.0
  0
VERTEX
  5
9E
330
9C
100
AcDbEntity
  8
Ebene 1
 62
   179
420
  1709851
370
    18
100
AcDbVertex
100
AcDb2dVertex
 10
132.6974988817562
 20
-91.16842310003776
 30
0.0
  0
SEQEND
  5
9F
330
9C
100
AcDbEntity
  8
Ebene 1
370
    18
  0
POLYLINE
  5
A0
330
3C
100
AcDbEntity
  8
Ebene 1
 62
   179
420
  1709851
370
    18
100
AcDb2dPolyline
 66
     1
 10
0.0
 20
0.0
 30
0.0
  0
VERTEX
  5
A1
330
A0
100
AcDbEntity
  8
Ebene 1
 62
   179
420
  1709851
370
    18
100
AcDbVertex
100
AcDb2dVertex
 10
86.85034041882561
 20
-151.1756130264422
 30
0.0
  0
VERTEX
  5
A2
330
A0
100
AcDbEntity
  8
Ebene 1
 62
   179
420
  1709851
370
    18
100
AcDbVertex
100
AcDb2dVertex
 10
146.8368597723186
 20
-91.16842310003776
 30
0.0
  0
SEQEND
  5
A3
330
A0
100
AcDbEntity
  8
Ebene 1
370
    18
  0
POLYLINE
  5
A4
330
3C
100
AcDbEntity
  8
Ebene 1
 62
   179
420
  1709851
370
    18
100
AcDb2dPolyline
 66
     1
 10
0.0
 20
0.0
 30
0.0
  0
VERTEX
  5
A5
330
A4
100
AcDbEntity
  8
Ebene 1
 62
   179
420
  1709851
370
    18
100
AcDbVertex
100
AcDb2dVertex
 10
100.9893567998395
 20
-151.1756130264422
 30
0.0
  0
VERTEX
  5
A6
330
A4
100
AcDbEntity
  8
Ebene 1
 62
   179
420
  1709851
370
    18
100
AcDbVertex
100
AcDb2dVertex
 10
160.997235745341
 20
-91.16842310003776
 30
0.0
  0
SEQEND
  5
A7
330
A4
100
AcDbEntity
  8
Ebene 1
370
    18
  0
POLYLINE
  5
A8
330
3C
100
AcDbEntity
  8
Ebene 1
 62
   179
420
  1709851
370
    18
100
AcDb2dPolyline
 66
     1
 10
0.0
 20
0.0
 30
0.0
  0
VERTEX
  5
A9
330
A8
100
AcDbEntity
  8
Ebene 1
 62
   179
420
  1709851
370
    18
100
AcDbVertex
100
AcDb2dVertex
 10
115.1288899451761
 20
-151.1756130264422
 30
0.0
  0
VERTEX
  5
AA
330
A8
100
AcDbEntity
  8
Ebene 1
 62
   179
420
  1709851
370
    18
100
AcDbVertex
100
AcDb2dVertex
 10
175.1365966359033
 20
-91.16842310003776
 30
0.0
  0
SEQEND
  5
AB
330
A8
100
AcDbEntity
  8
Ebene 1
370
    18
  0
POLYLINE
  5
AC
330
3C
100
AcDbEntity
  8
Ebene 1
 62
   179
420
  1709851
370
    18
100
AcDb2dPolyline
 66
     1
 10
0.0
 20
0.0
 30
0.0
  0
VERTEX
  5
AD
330
AC
100
AcDbEntity
  8
Ebene 1
 62
   179
420
  1709851
370
    18
100
AcDbVertex
100
AcDb2dVertex
 10
129.2682508357385
 20
-151.1756130264422
 30
0.0
  0
VERTEX
  5
AE
330
AC
100
AcDbEntity
  8
Ebene 1
 62
   179
420
  1709851
370
    18
100
AcDbVertex
100
AcDb2dVertex
 10
189.2759575264657
 20
-91.16842310003776
 30
0.0
  0
SEQEND
  5
AF
330
AC
100
AcDbEntity
  8
Ebene 1
370
    18
  0
POLYLINE
  5
B0
330
3C
100
AcDbEntity
  8
Ebene 1
 62
   179
420
  1709851
370
    18
100
AcDb2dPolyline
 66
     1
 10
0.0
 20
0.0
 30
0.0
  0
VERTEX
  5
B1
330
B0
100
AcDbEntity
  8
Ebene 1
 62
   179
420
  1709851
370
    18
100
AcDbVertex
100
AcDb2dVertex
 10
143.4076117263009
 20
-151.1756130264422
 30
0.0
  0
VERTEX
  5
B2
330
B0
100
AcDbEntity
  8
Ebene 1
 62
   179
420
  1709851
370
    18
100
AcDbVertex
100
AcDb2dVertex
 10
196.0913899249355
 20
-98.49200708258186
 30
0.0
  0
SEQEND
  5
B3
330
B0
100
AcDbEntity
  8
Ebene 1
370
    18
  0
POLYLINE
  5
B4
330
3C
100
AcDbEntity
  8
Ebene 1
 62
   179
420
  1709851
370
    18
100
AcDb2dPolyline
 66
     1
 10
0.0
 20
0.0
 30
0.0
  0
VERTEX
  5
B5
330
B4
100
AcDbEntity
  8
Ebene 1
 62
   179
420
  1709851
370
    18
100
AcDbVertex
100
AcDb2dVertex
 10
157.5466281073147
 20
-151.1756130264422
 30
0.0
  0
VERTEX
  5
B6
330
B4
100
AcDbEntity
  8
Ebene 1
 62
   179
420
  1709851
370
    18
100
AcDbVertex
100
AcDb2dVertex
 10
196.0913899249355
 20
-112.6313679731443
 30
0.0
  0
SEQEND
  5
B7
330
B4
100
AcDbEntity
  8
Ebene 1
370
    18
  0
POLYLINE
  5
B8
330
3C
100
AcDbEntity
  8
Ebene 1
 62
   179
420
  1709851
370
    18
100
AcDb2dPolyline
 66
     1
 10
0.0
 20
0.0
 30
0.0
  0
VERTEX
  5
B9
330
B8
100
AcDbEntity
  8
Ebene 1
 62
   179
420
  1709851
370
    18
100
AcDbVertex
100
AcDb2dVertex
 10
171.7076930994342
 20
-151.1756130264422
 30
0.0
  0
VERTEX
  5
BA
330
B8
100
AcDbEntity
  8
Ebene 1
 62
   179
420
  1709851
370
    18
100
AcDbVertex
100
AcDb2dVertex
 10
196.0913899249355
 20
-126.7707288637066
 30
0.0
  0
SEQEND
  5
BB
330
B8
100
AcDbEntity
  8
Ebene 1
370
    18
  0
POLYLINE
  5
BC
330
3C
100
AcDbEntity
  8
Ebene 1
 62
   179
420
  1709851
370
    18
100
AcDb2dPolyline
 66
     1
 10
0.0
 20
0.0
 30
0.0
  0
VERTEX
  5
BD
330
BC
100
AcDbEntity
  8
Ebene 1
 62
   179
420
  1709851
370
    18
100
AcDbVertex
100
AcDb2dVertex
 10
185.8470539899966
 20
-151.1756130264422
 30
0.0
  0
VERTEX
  5
BE
330
BC
100
AcDbEntity
  8
Ebene 1
 62
   179
420
  1709851
370
    18
100
AcDbVertex
100
AcDb2dVertex
 10
196.0913899249355
 20
-140.910089754269
 30
0.0
  0
SEQEND
  5
BF
330
BC
100
AcDbEntity
  8
Ebene 1
370
    18
  0
POLYLINE
  5
C0
330
3C
100
AcDbEntity
  8
Ebene 1
370
     0
100
AcDb2dPolyline
 66
     1
 10
0.0
 20
0.0
 30
0.0
  0
VERTEX
  5
C1
330
C0
100
AcDbEntity
  8
Ebene 1
370
     0
100
AcDbVertex
100
AcDb2dVertex
 10
27.86944443747709
 20
-213.7447482104527
 30
0.0
  0
VERTEX
  5
C2
330
C0
100
AcDbEntity
  8
Ebene 1
370
     0
100
AcDbVertex
100
AcDb2dVertex
 10
196.3349581757427
 20
-213.7447482104527
 30
0.0
  0
VERTEX
  5
C3
330
C0
100
AcDbEntity
  8
Ebene 1
370
     0
100
AcDbVertex
100
AcDb2dVertex
 10
196.3349581757427
 20
-87.0832288736285
 30
0.0
  0
VERTEX
  5
C4
330
C0
100
AcDbEntity
  8
Ebene 1
370
     0
100
AcDbVertex
100
AcDb2dVertex
 10
27.86944443747709
 20
-87.0832288736285
 30
0.0
  0
VERTEX
  5
C5
330
C0
100
AcDbEntity
  8
Ebene 1
370
     0
100
AcDbVertex
100
AcDb2dVertex
 10
27.86944443747709
 20
-213.7447482104527
 30
0.0
  0
SEQEND
  5
C6
330
C0
100
AcDbEntity
  8
Ebene 1
370
     0
  0
ENDBLK
  5
3F
330
3C
100
AcDbEntity
  8
0
100
AcDbBlockEnd
  0
BLOCK
  5
13A
330
138
100
AcDbEntity
  8
0
100
AcDbBlockBegin
  2
block 3
 70
     0
 71
     0
 10
0.0
 20
0.0
 30
0.0
  3
block 3
  1

  0
POLYLINE
  5
13C
330
138
100
AcDbEntity
  8
Ebene 1
 62
   179
420
  1709851
370
    50
100
AcDb2dPolyline
 66
     1
 10
0.0
 20
0.0
 30
0.0
  0
VERTEX
  5
13D
330
13C
100
AcDbEntity
  8
Ebene 1
 62
   179
420
  1709851
370
    50
100
AcDbVertex
100
AcDb2dVertex
 10
28.11284043350999
 20
-91.16842310003776
 30
0.0
  0
VERTEX
  5
13E
330
13C
100
AcDbEntity
  8
Ebene 1
 62
   179
420
  1709851
370
    50
100
AcDbVertex
100
AcDb2dVertex
 10
196.0913899249355
 20
-91.16842310003776
 30
0.0
  0
SEQEND
  5
13F
330
13C
100
AcDbEntity
  8
Ebene 1
370
    50
  0
POLYLINE
  5
140
330
138
100
AcDbEntity
  8
Ebene 1
 62
   179
420
  1709851
370
    50
100
AcDb2dPolyline
 66
     1
 10
0.0
 20
0.0
 30
0.0
  0
VERTEX
  5
141
330
140
100
AcDbEntity
  8
Ebene 1
 62
   179
420
  1709851
370
    50
100
AcDbVertex
100
AcDb2dVertex
 10
28.11284043350999
 20
-151.1756130264422
 30
0.0
  0
VERTEX
  5
142
330
140
100
AcDbEntity
  8
Ebene 1
 62
   179
420
  1709851
370
    50
100
AcDbVertex
100
AcDb2dVertex
 10
196.0913899249355
 20
-151.1756130264422
 30
0.0
  0
SEQEND
  5
143
330
140
100
AcDbEntity
  8
Ebene 1
370
    50
  0
POLYLINE
  5
144
330
138
100
AcDbEntity
  8
Ebene 1
 62
   179
420
  1709851
370
    18
100
AcDb2dPolyline
 66
     1
 10
0.0
 20
0.0
 30
0.0
  0
VERTEX
  5
145
330
144
100
AcDbEntity
  8
Ebene 1
 62
   179
420
  1709851
370
    18
100
AcDbVertex
100
AcDb2dVertex
 10
28.11266817873572
 20
-212.1572482108496
 30
0.0
  0
VERTEX
  5
146
330
144
100
AcDbEntity
  8
Ebene 1
 62
   179
420
  1709851
370
    18
100
AcDbVertex
100
AcDb2dVertex
 10
41.97693819480091
 20
-212.1572482108496
 30
0.0
  0
SEQEND
  5
147
330
144
100
AcDbEntity
  8
Ebene 1
370
    18
  0
POLYLINE
  5
148
330
138
100
AcDbEntity
  8
Ebene 1
 62
   179
420
  1709851
370
    18
100
AcDb2dPolyline
 66
     1
 10
0.0
 20
0.0
 30
0.0
  0
VERTEX
  5
149
330
148
100
AcDbEntity
  8
Ebene 1
 62
   179
420
  1709851
370
    18
100
AcDbVertex
100
AcDb2dVertex
 10
196.091734434484
 20
-212.1572482108496
 30
0.0
  0
VERTEX
  5
14A
330
148
100
AcDbEntity
  8
Ebene 1
 62
   179
420
  1709851
370
    18
100
AcDbVertex
100
AcDb2dVertex
 10
161.9708197294726
 20
-212.1572482108496
 30
0.0
  0
SEQEND
  5
14B
330
148
100
AcDbEntity
  8
Ebene 1
370
    18
  0
POLYLINE
  5
14C
330
138
100
AcDbEntity
  8
Ebene 1
 62
   179
420
  1709851
370
    18
100
AcDb2dPolyline
 66
     1
 10
0.0
 20
0.0
 30
0.0
  0
VERTEX
  5
14D
330
14C
100
AcDbEntity
  8
Ebene 1
 62
   179
420
  1709851
370
    18
100
AcDbVertex
100
AcDb2dVertex
 10
196.091734434484
 20
-200.1559135784333
 30
0.0
  0
VERTEX
  5
14E
330
14C
100
AcDbEntity
  8
Ebene 1
 62
   179
420
  1709851
370
    18
100
AcDbVertex
100
AcDb2dVertex
 10
162.7749050157299
 20
-200.1559135784333
 30
0.0
  0
SEQEND
  5
14F
330
14C
100
AcDbEntity
  8
Ebene 1
370
    18
  0
POLYLINE
  5
150
330
138
100
AcDbEntity
  8
Ebene 1
 62
   179
420
  1709851
370
    18
100
AcDb2dPolyline
 66
     1
 10
0.0
 20
0.0
 30
0.0
  0
VERTEX
  5
151
330
150
100
AcDbEntity
  8
Ebene 1
 62
   179
420
  1709851
370
    18
100
AcDbVertex
100
AcDb2dVertex
 10
28.11266817873572
 20
-200.1559135784333
 30
0.0
  0
VERTEX
  5
152
330
150
100
AcDbEntity
  8
Ebene 1
 62
   179
420
  1709851
370
    18
100
AcDbVertex
100
AcDb2dVertex
 10
41.17250839899507
 20
-200.1559135784333
 30
0.0
  0
SEQEND
  5
153
330
150
100
AcDbEntity
  8
Ebene 1
370
    18
  0
POLYLINE
  5
154
330
138
100
AcDbEntity
  8
Ebene 1
 62
   179
420
  1709851
370
    18
100
AcDb2dPolyline
 66
     1
 10
0.0
 20
0.0
 30
0.0
  0
VERTEX
  5
155
330
154
100
AcDbEntity
  8
Ebene 1
 62
   179
420
  1709851
370
    18
100
AcDbVertex
100
AcDb2dVertex
 10
41.97693819480091
 20
-212.1572482108496
 30
0.0
  0
VERTEX
  5
156
330
154
100
AcDbEntity
  8
Ebene 1
 62
   179
420
  1709851
370
    18
100
AcDbVertex
100
AcDb2dVertex
 10
161.9708197294726
 20
-212.1572482108496
 30
0.0
  0
SEQEND
  5
157
330
154
100
AcDbEntity
  8
Ebene 1
370
    18
  0
POLYLINE
  5
158
330
138
100
AcDbEntity
  8
Ebene 1
 62
   179
420
  1709851
370
    18
100
AcDb2dPolyline
 66
     1
 10
0.0
 20
0.0
 30
0.0
  0
VERTEX
  5
159
330
158
100
AcDbEntity
  8
Ebene 1
 62
   179
420
  1709851
370
    18
100
AcDbVertex
100
AcDb2dVertex
 10
161.9708197294726
 20
-212.1572482108496
 30
0.0
  0
VERTEX
  5
15A
330
158
100
AcDbEntity
  8
Ebene 1
 62
   179
420
  1709851
370
    18
100
AcDbVertex
100
AcDb2dVertex
 10
161.9708197294726
 20
-213.6599988615156
 30
0.0
  0
SEQEND
  5
15B
330
158
100
AcDbEntity
  8
Ebene 1
370
    18
  0
POLYLINE
  5
15C
330
138
100
AcDbEntity
  8
Ebene 1
 62
   179
420
  1709851
370
    18
100
AcDb2dPolyline
 66
     1
 10
0.0
 20
0.0
 30
0.0
  0
VERTEX
  5
15D
330
15C
100
AcDbEntity
  8
Ebene 1
 62
   179
420
  1709851
370
    18
100
AcDbVertex
100
AcDb2dVertex
 10
161.9708197294726
 20
-212.1572482108496
 30
0.0
  0
VERTEX
  5
15E
330
15C
100
AcDbEntity
  8
Ebene 1
 62
   179
420
  1709851
370
    18
100
AcDbVertex
100
AcDb2dVertex
 10
161.9708197294726
 20
-210.6544975601836
 30
0.0
  0
SEQEND
  5
15F
330
15C
100
AcDbEntity
  8
Ebene 1
370
    18
  0
POLYLINE
  5
160
330
138
100
AcDbEntity
  8
Ebene 1
 62
   179
420
  1709851
370
    18
100
AcDb2dPolyline
 66
     1
 10
0.0
 20
0.0
 30
0.0
  0
VERTEX
  5
161
330
160
100
AcDbEntity
  8
Ebene 1
 62
   179
420
  1709851
370
    18
100
AcDbVertex
100
AcDb2dVertex
 10
41.97693819480091
 20
-212.1572482108496
 30
0.0
  0
VERTEX
  5
162
330
160
100
AcDbEntity
  8
Ebene 1
 62
   179
420
  1709851
370
    18
100
AcDbVertex
100
AcDb2dVertex
 10
41.97693819480091
 20
-213.6599988615156
 30
0.0
  0
SEQEND
  5
163
330
160
100
AcDbEntity
  8
Ebene 1
370
    18
  0
POLYLINE
  5
164
330
138
100
AcDbEntity
  8
Ebene 1
 62
   179
420
  1709851
370
    18
100
AcDb2dPolyline
 66
     1
 10
0.0
 20
0.0
 30
0.0
  0
VERTEX
  5
165
330
164
100
AcDbEntity
  8
Ebene 1
 62
   179
420
  1709851
370
    18
100
AcDbVertex
100
AcDb2dVertex
 10
41.97693819480091
 20
-212.1572482108496
 30
0.0
  0
VERTEX
  5
166
330
164
100
AcDbEntity
  8
Ebene 1
 62
   179
420
  1709851
370
    18
100
AcDbVertex
100
AcDb2dVertex
 10
41.97693819480091
 20
-210.6544975601836
 30
0.0
  0
SEQEND
  5
167
330
164
100
AcDbEntity
  8
Ebene 1
370
    18
  0
POLYLINE
  5
168
330
138
100
AcDbEntity
  8
Ebene 1
 62
   179
420
  1709851
370
    18
100
AcDb2dPolyline
 66
     1
 10
0.0
 20
0.0
 30
0.0
  0
VERTEX
  5
169
330
168
100
AcDbEntity
  8
Ebene 1
 62
   179
420
  1709851
370
    18
100
AcDbVertex
100
AcDb2dVertex
 10
161.9708197294726
 20
-212.1572482108496
 30
0.0
  0
VERTEX
  5
16A
330
168
100
AcDbEntity
  8
Ebene 1
 62
   179
420
  1709851
370
    18
100
AcDbVertex
100
AcDb2dVertex
 10
163.4739148896871
 20
-212.1572482108496
 30
0.0
  0
SEQEND
  5
16B
330
168
100
AcDbEntity
  8
Ebene 1
370
    18
  0
POLYLINE
  5
16C
330
138
100
AcDbEntity
  8
Ebene 1
 62
   179
420
  1709851
370
    18
100
AcDb2dPolyline
 66
     1
 10
0.0
 20
0.0
 30
0.0
  0
VERTEX
  5
16D
330
16C
100
AcDbEntity
  8
Ebene 1
 62
   179
420
  1709851
370
    18
100
AcDbVertex
100
AcDb2dVertex
 10
41.97693819480091
 20
-212.1572482108496
 30
0.0
  0
VERTEX
  5
16E
330
16C
100
AcDbEntity
  8
Ebene 1
 62
   179
420
  1709851
370
    18
100
AcDbVertex
100
AcDb2dVertex
 10
40.47401528936066
 20
-212.1572482108496
 30
0.0
  0
SEQEND
  5
16F
330
16C
100
AcDbEntity
  8
Ebene 1
370
    18
  0
POLYLINE
  5
170
330
138
100
AcDbEntity
  8
Ebene 1
 62
   179
420
  1709851
370
    18
100
AcDb2dPolyline
 66
     1
 10
0.0
 20
0.0
 30
0.0
  0
VERTEX
  5
171
330
170
100
AcDbEntity
  8
Ebene 1
 62
   179
420
  1709851
370
    18
100
AcDbVertex
100
AcDb2dVertex
 10
161.0816405847296
 20
-213.0674424380526
 30
0.0
  0
VERTEX
  5
172
330
170
100
AcDbEntity
  8
Ebene 1
 62
   179
420
  1709851
370
    18
100
AcDbVertex
100
AcDb2dVertex
 10
162.8810139566756
 20
-211.2684135756551
 30
0.0
  0
SEQEND
  5
173
330
170
100
AcDbEntity
  8
Ebene 1
370
    18
  0
POLYLINE
  5
174
330
138
100
AcDbEntity
  8
Ebene 1
 62
   179
420
  1709851
370
    18
100
AcDb2dPolyline
 66
     1
 10
0.0
 20
0.0
 30
0.0
  0
VERTEX
  5
175
330
174
100
AcDbEntity
  8
Ebene 1
 62
   179
420
  1709851
370
    18
100
AcDbVertex
100
AcDb2dVertex
 10
41.08793130483219
 20
-213.0674424380526
 30
0.0
  0
VERTEX
  5
176
330
174
100
AcDbEntity
  8
Ebene 1
 62
   179
420
  1709851
370
    18
100
AcDbVertex
100
AcDb2dVertex
 10
42.88713242200392
 20
-211.2684135756551
 30
0.0
  0
SEQEND
  5
177
330
174
100
AcDbEntity
  8
Ebene 1
370
    18
  0
POLYLINE
  5
178
330
138
100
AcDbEntity
  8
Ebene 1
 62
   179
420
  1709851
370
    18
100
AcDb2dPolyline
 66
     1
 10
0.0
 20
0.0
 30
0.0
  0
VERTEX
  5
179
330
178
100
AcDbEntity
  8
Ebene 1
 62
   179
420
  1709851
370
    18
100
AcDbVertex
100
AcDb2dVertex
 10
118.0710014895795
 20
-168.1730251315679
 30
0.0
  0
VERTEX
  5
17A
330
178
100
AcDbEntity
  8
Ebene 1
 62
   179
420
  1709851
370
    18
100
AcDbVertex
100
AcDb2dVertex
 10
114.8746418983647
 20
-168.1730251315679
 30
0.0
  0
SEQEND
  5
17B
330
178
100
AcDbEntity
  8
Ebene 1
370
    18
  0
POLYLINE
  5
17C
330
138
100
AcDbEntity
  8
Ebene 1
 62
   179
420
  1709851
370
    18
100
AcDb2dPolyline
 66
     1
 10
0.0
 20
0.0
 30
0.0
  0
VERTEX
  5
17D
330
17C
100
AcDbEntity
  8
Ebene 1
 62
   179
420
  1709851
370
    18
100
AcDbVertex
100
AcDb2dVertex
 10
116.4835014899763
 20
-173.7609700086431
 30
0.0
  0
VERTEX
  5
17E
330
17C
100
AcDbEntity
  8
Ebene 1
 62
   179
420
  1709851
370
    18
100
AcDbVertex
100
AcDb2dVertex
 10
116.4835014899763
 20
-170.1622232647511
 30
0.0
  0
VERTEX
  5
17F
330
17C
100
AcDbEntity
  8
Ebene 1
 62
   179
420
  1709851
370
    18
100
AcDbVertex
100
AcDb2dVertex
 10
117.0760579134393
 20
-170.1622232647511
 30
0.0
  0
VERTEX
  5
180
330
17C
100
AcDbEntity
  8
Ebene 1
 62
   179
420
  1709851
370
    18
100
AcDbVertex
100
AcDb2dVertex
 10
117.0760579134393
 20
-151.1756130264422
 30
0.0
  0
SEQEND
  5
181
330
17C
100
AcDbEntity
  8
Ebene 1
370
    18
  0
POLYLINE
  5
182
330
138
100
AcDbEntity
  8
Ebene 1
 62
   179
420
  1709851
370
    18
100
AcDb2dPolyline
 66
     1
 10
0.0
 20
0.0
 30
0.0
  0
VERTEX
  5
183
330
182
100
AcDbEntity
  8
Ebene 1
 62
   179
420
  1709851
370
    18
100
AcDbVertex
100
AcDb2dVertex
 10
116.4835014899763
 20
-152.7631130260453
 30
0.0
  0
VERTEX
  5
184
330
182
100
AcDbEntity
  8
Ebene 1
 62
   179
420
  1709851
370
    18
100
AcDbVertex
100
AcDb2dVertex
 10
116.4835014899763
 20
-170.1622232647511
 30
0.0
  0
SEQEND
  5
185
330
182
100
AcDbEntity
  8
Ebene 1
370
    18
  0
POLYLINE
  5
186
330
138
100
AcDbEntity
  8
Ebene 1
 62
   179
420
  1709851
370
    18
100
AcDb2dPolyline
 66
     1
 10
0.0
 20
0.0
 30
0.0
  0
VERTEX
  5
187
330
186
100
AcDbEntity
  8
Ebene 1
 62
   179
420
  1709851
370
    18
100
AcDbVertex
100
AcDb2dVertex
 10
115.2770290510419
 20
-175.3691405811577
 30
0.0
  0
VERTEX
  5
188
330
186
100
AcDbEntity
  8
Ebene 1
 62
   179
420
  1709851
370
    18
100
AcDbVertex
100
AcDb2dVertex
 10
115.2770290510419
 20
-172.7660264325029
 30
0.0
  0
SEQEND
  5
189
330
186
100
AcDbEntity
  8
Ebene 1
370
    18
  0
POLYLINE
  5
18A
330
138
100
AcDbEntity
  8
Ebene 1
 62
   179
420
  1709851
370
    18
100
AcDb2dPolyline
 66
     1
 10
0.0
 20
0.0
 30
0.0
  0
VERTEX
  5
18B
330
18A
100
AcDbEntity
  8
Ebene 1
 62
   179
420
  1709851
370
    18
100
AcDbVertex
100
AcDb2dVertex
 10
110.176220675581
 20
-174.3748860241146
 30
0.0
  0
VERTEX
  5
18C
330
18A
100
AcDbEntity
  8
Ebene 1
 62
   179
420
  1709851
370
    18
100
AcDbVertex
100
AcDb2dVertex
 10
122.1775553079973
 20
-174.3748860241146
 30
0.0
  0
SEQEND
  5
18D
330
18A
100
AcDbEntity
  8
Ebene 1
370
    18
  0
POLYLINE
  5
18E
330
138
100
AcDbEntity
  8
Ebene 1
 62
   179
420
  1709851
370
    18
100
AcDb2dPolyline
 66
     1
 10
0.0
 20
0.0
 30
0.0
  0
VERTEX
  5
18F
330
18E
100
AcDbEntity
  8
Ebene 1
 62
   179
420
  1709851
370
    18
100
AcDbVertex
100
AcDb2dVertex
 10
115.8695854745048
 20
-173.7609700086431
 30
0.0
  0
VERTEX
  5
190
330
18E
100
AcDbEntity
  8
Ebene 1
 62
   179
420
  1709851
370
    18
100
AcDbVertex
100
AcDb2dVertex
 10
110.176220675581
 20
-173.7609700086431
 30
0.0
  0
SEQEND
  5
191
330
18E
100
AcDbEntity
  8
Ebene 1
370
    18
  0
POLYLINE
  5
192
330
138
100
AcDbEntity
  8
Ebene 1
 62
   179
420
  1709851
370
    18
100
AcDb2dPolyline
 66
     1
 10
0.0
 20
0.0
 30
0.0
  0
VERTEX
  5
193
330
192
100
AcDbEntity
  8
Ebene 1
 62
   179
420
  1709851
370
    18
100
AcDbVertex
100
AcDb2dVertex
 10
110.176220675581
 20
-173.7609700086431
 30
0.0
  0
VERTEX
  5
194
330
192
100
AcDbEntity
  8
Ebene 1
 62
   179
420
  1709851
370
    18
100
AcDbVertex
100
AcDb2dVertex
 10
110.176220675581
 20
-174.3748860241146
 30
0.0
  0
SEQEND
  5
195
330
192
100
AcDbEntity
  8
Ebene 1
370
    18
  0
POLYLINE
  5
196
330
138
100
AcDbEntity
  8
Ebene 1
 62
   179
420
  1709851
370
    18
100
AcDb2dPolyline
 66
     1
 10
0.0
 20
0.0
 30
0.0
  0
VERTEX
  5
197
330
196
100
AcDbEntity
  8
Ebene 1
 62
   179
420
  1709851
370
    18
100
AcDbVertex
100
AcDb2dVertex
 10
122.1775553079973
 20
-174.3748860241146
 30
0.0
  0
VERTEX
  5
198
330
196
100
AcDbEntity
  8
Ebene 1
 62
   179
420
  1709851
370
    18
100
AcDbVertex
100
AcDb2dVertex
 10
122.1775553079973
 20
-173.7609700086431
 30
0.0
  0
SEQEND
  5
199
330
196
100
AcDbEntity
  8
Ebene 1
370
    18
  0
POLYLINE
  5
19A
330
138
100
AcDbEntity
  8
Ebene 1
 62
   179
420
  1709851
370
    18
100
AcDb2dPolyline
 66
     1
 10
0.0
 20
0.0
 30
0.0
  0
VERTEX
  5
19B
330
19A
100
AcDbEntity
  8
Ebene 1
 62
   179
420
  1709851
370
    18
100
AcDbVertex
100
AcDb2dVertex
 10
122.1775553079973
 20
-173.7609700086431
 30
0.0
  0
VERTEX
  5
19C
330
19A
100
AcDbEntity
  8
Ebene 1
 62
   179
420
  1709851
370
    18
100
AcDbVertex
100
AcDb2dVertex
 10
116.4835014899763
 20
-173.7609700086431
 30
0.0
  0
SEQEND
  5
19D
330
19A
100
AcDbEntity
  8
Ebene 1
370
    18
  0
POLYLINE
  5
19E
330
138
100
AcDbEntity
  8
Ebene 1
 62
   179
420
  1709851
370
    18
100
AcDb2dPolyline
 66
     1
 10
0.0
 20
0.0
 30
0.0
  0
VERTEX
  5
19F
330
19E
100
AcDbEntity
  8
Ebene 1
 62
   179
420
  1709851
370
    18
100
AcDbVertex
100
AcDb2dVertex
 10
108.9697482366465
 20
-152.1705566025824
 30
0.0
  0
VERTEX
  5
1A0
330
19E
100
AcDbEntity
  8
Ebene 1
 62
   179
420
  1709851
370
    18
100
AcDbVertex
100
AcDb2dVertex
 10
117.0760579134393
 20
-152.1705566025824
 30
0.0
  0
SEQEND
  5
1A1
330
19E
100
AcDbEntity
  8
Ebene 1
370
    18
  0
POLYLINE
  5
1A2
330
138
100
AcDbEntity
  8
Ebene 1
 62
   179
420
  1709851
370
    18
100
AcDb2dPolyline
 66
     1
 10
0.0
 20
0.0
 30
0.0
  0
VERTEX
  5
1A3
330
1A2
100
AcDbEntity
  8
Ebene 1
 62
   179
420
  1709851
370
    18
100
AcDbVertex
100
AcDb2dVertex
 10
116.4835014899763
 20
-164.3627495248815
 30
0.0
  0
VERTEX
  5
1A4
330
1A2
100
AcDbEntity
  8
Ebene 1
 62
   179
420
  1709851
370
    18
100
AcDbVertex
100
AcDb2dVertex
 10
115.8695854745048
 20
-164.3627495248815
 30
0.0
  0
VERTEX
  5
1A5
330
1A2
100
AcDbEntity
  8
Ebene 1
 62
   179
420
  1709851
370
    18
100
AcDbVertex
100
AcDb2dVertex
 10
115.8695854745048
 20
-173.7609700086431
 30
0.0
  0
SEQEND
  5
1A6
330
1A2
100
AcDbEntity
  8
Ebene 1
370
    18
  0
POLYLINE
  5
1A7
330
138
100
AcDbEntity
  8
Ebene 1
 62
   179
420
  1709851
370
    18
100
AcDb2dPolyline
 66
     1
 10
0.0
 20
0.0
 30
0.0
  0
VERTEX
  5
1A8
330
1A7
100
AcDbEntity
  8
Ebene 1
 62
   179
420
  1709851
370
    18
100
AcDbVertex
100
AcDb2dVertex
 10
28.11266817873572
 20
-87.8662990774258
 30
0.0
  0
VERTEX
  5
1A9
330
1A7
100
AcDbEntity
  8
Ebene 1
 62
   179
420
  1709851
370
    18
100
AcDbVertex
100
AcDb2dVertex
 10
28.11266817873572
 20
-87.16797822256565
 30
0.0
  0
SEQEND
  5
1AA
330
1A7
100
AcDbEntity
  8
Ebene 1
370
    18
  0
POLYLINE
  5
1AB
330
138
100
AcDbEntity
  8
Ebene 1
 62
   179
420
  1709851
370
    18
100
AcDb2dPolyline
 66
     1
 10
0.0
 20
0.0
 30
0.0
  0
VERTEX
  5
1AC
330
1AB
100
AcDbEntity
  8
Ebene 1
 62
   179
420
  1709851
370
    18
100
AcDbVertex
100
AcDb2dVertex
 10
28.11266817873572
 20
-95.86753334191853
 30
0.0
  0
VERTEX
  5
1AD
330
1AB
100
AcDbEntity
  8
Ebene 1
 62
   179
420
  1709851
370
    18
100
AcDbVertex
100
AcDb2dVertex
 10
28.11266817873572
 20
-88.86124265356594
 30
0.0
  0
SEQEND
  5
1AE
330
1AB
100
AcDbEntity
  8
Ebene 1
370
    18
  0
POLYLINE
  5
1AF
330
138
100
AcDbEntity
  8
Ebene 1
 62
   179
420
  1709851
370
    18
100
AcDb2dPolyline
 66
     1
 10
0.0
 20
0.0
 30
0.0
  0
VERTEX
  5
1B0
330
1AF
100
AcDbEntity
  8
Ebene 1
 62
   179
420
  1709851
370
    18
100
AcDbVertex
100
AcDb2dVertex
 10
28.11266817873572
 20
-97.85707598465032
 30
0.0
  0
VERTEX
  5
1B1
330
1AF
100
AcDbEntity
  8
Ebene 1
 62
   179
420
  1709851
370
    18
100
AcDbVertex
100
AcDb2dVertex
 10
28.11266817873572
 20
-96.86213240851016
 30
0.0
  0
SEQEND
  5
1B2
330
1AF
100
AcDbEntity
  8
Ebene 1
370
    18
  0
POLYLINE
  5
1B3
330
138
100
AcDbEntity
  8
Ebene 1
 62
   179
420
  1709851
370
    18
100
AcDb2dPolyline
 66
     1
 10
0.0
 20
0.0
 30
0.0
  0
VERTEX
  5
1B4
330
1B3
100
AcDbEntity
  8
Ebene 1
 62
   179
420
  1709851
370
    18
100
AcDbVertex
100
AcDb2dVertex
 10
28.11266817873572
 20
-105.8579657395945
 30
0.0
  0
VERTEX
  5
1B5
330
1B3
100
AcDbEntity
  8
Ebene 1
 62
   179
420
  1709851
370
    18
100
AcDbVertex
100
AcDb2dVertex
 10
28.11266817873572
 20
-98.85201956079047
 30
0.0
  0
SEQEND
  5
1B6
330
1B3
100
AcDbEntity
  8
Ebene 1
370
    18
  0
POLYLINE
  5
1B7
330
138
100
AcDbEntity
  8
Ebene 1
 62
   179
420
  1709851
370
    18
100
AcDb2dPolyline
 66
     1
 10
0.0
 20
0.0
 30
0.0
  0
VERTEX
  5
1B8
330
1B7
100
AcDbEntity
  8
Ebene 1
 62
   179
420
  1709851
370
    18
100
AcDbVertex
100
AcDb2dVertex
 10
28.11266817873572
 20
-107.8688679743349
 30
0.0
  0
VERTEX
  5
1B9
330
1B7
100
AcDbEntity
  8
Ebene 1
 62
   179
420
  1709851
370
    18
100
AcDbVertex
100
AcDb2dVertex
 10
28.11266817873572
 20
-106.8529093157347
 30
0.0
  0
SEQEND
  5
1BA
330
1B7
100
AcDbEntity
  8
Ebene 1
370
    18
  0
POLYLINE
  5
1BB
330
138
100
AcDbEntity
  8
Ebene 1
 62
   179
420
  1709851
370
    18
100
AcDb2dPolyline
 66
     1
 10
0.0
 20
0.0
 30
0.0
  0
VERTEX
  5
1BC
330
1BB
100
AcDbEntity
  8
Ebene 1
 62
   179
420
  1709851
370
    18
100
AcDbVertex
100
AcDb2dVertex
 10
28.11266817873572
 20
-115.8701022388276
 30
0.0
  0
VERTEX
  5
1BD
330
1BB
100
AcDbEntity
  8
Ebene 1
 62
   179
420
  1709851
370
    18
100
AcDbVertex
100
AcDb2dVertex
 10
28.11266817873572
 20
-108.863811550475
 30
0.0
  0
SEQEND
  5
1BE
330
1BB
100
AcDbEntity
  8
Ebene 1
370
    18
  0
POLYLINE
  5
1BF
330
138
100
AcDbEntity
  8
Ebene 1
 62
   179
420
  1709851
370
    18
100
AcDb2dPolyline
 66
     1
 10
0.0
 20
0.0
 30
0.0
  0
VERTEX
  5
1C0
330
1BF
100
AcDbEntity
  8
Ebene 1
 62
   179
420
  1709851
370
    18
100
AcDbVertex
100
AcDb2dVertex
 10
28.11266817873572
 20
-117.8596448815594
 30
0.0
  0
VERTEX
  5
1C1
330
1BF
100
AcDbEntity
  8
Ebene 1
 62
   179
420
  1709851
370
    18
100
AcDbVertex
100
AcDb2dVertex
 10
28.11266817873572
 20
-116.8647013054192
 30
0.0
  0
SEQEND
  5
1C2
330
1BF
100
AcDbEntity
  8
Ebene 1
370
    18
  0
POLYLINE
  5
1C3
330
138
100
AcDbEntity
  8
Ebene 1
 62
   179
420
  1709851
370
    18
100
AcDb2dPolyline
 66
     1
 10
0.0
 20
0.0
 30
0.0
  0
VERTEX
  5
1C4
330
1C3
100
AcDbEntity
  8
Ebene 1
 62
   179
420
  1709851
370
    18
100
AcDbVertex
100
AcDb2dVertex
 10
28.11266817873572
 20
-125.8605346365036
 30
0.0
  0
VERTEX
  5
1C5
330
1C3
100
AcDbEntity
  8
Ebene 1
 62
   179
420
  1709851
370
    18
100
AcDbVertex
100
AcDb2dVertex
 10
28.11266817873572
 20
-118.8545884576995
 30
0.0
  0
SEQEND
  5
1C6
330
1C3
100
AcDbEntity
  8
Ebene 1
370
    18
  0
POLYLINE
  5
1C7
330
138
100
AcDbEntity
  8
Ebene 1
 62
   179
420
  1709851
370
    18
100
AcDb2dPolyline
 66
     1
 10
0.0
 20
0.0
 30
0.0
  0
VERTEX
  5
1C8
330
1C7
100
AcDbEntity
  8
Ebene 1
 62
   179
420
  1709851
370
    18
100
AcDbVertex
100
AcDb2dVertex
 10
28.11266817873572
 20
-127.8504217887839
 30
0.0
  0
VERTEX
  5
1C9
330
1C7
100
AcDbEntity
  8
Ebene 1
 62
   179
420
  1709851
370
    18
100
AcDbVertex
100
AcDb2dVertex
 10
28.11266817873572
 20
-126.8554782126438
 30
0.0
  0
SEQEND
  5
1CA
330
1C7
100
AcDbEntity
  8
Ebene 1
370
    18
  0
POLYLINE
  5
1CB
330
138
100
AcDbEntity
  8
Ebene 1
 62
   179
420
  1709851
370
    18
100
AcDb2dPolyline
 66
     1
 10
0.0
 20
0.0
 30
0.0
  0
VERTEX
  5
1CC
330
1CB
100
AcDbEntity
  8
Ebene 1
 62
   179
420
  1709851
370
    18
100
AcDbVertex
100
AcDb2dVertex
 10
28.11266817873572
 20
-135.8513115437281
 30
0.0
  0
VERTEX
  5
1CD
330
1CB
100
AcDbEntity
  8
Ebene 1
 62
   179
420
  1709851
370
    18
100
AcDbVertex
100
AcDb2dVertex
 10
28.11266817873572
 20
-128.8663804473841
 30
0.0
  0
SEQEND
  5
1CE
330
1CB
100
AcDbEntity
  8
Ebene 1
370
    18
  0
POLYLINE
  5
1CF
330
138
100
AcDbEntity
  8
Ebene 1
 62
   179
420
  1709851
370
    18
100
AcDb2dPolyline
 66
     1
 10
0.0
 20
0.0
 30
0.0
  0
VERTEX
  5
1D0
330
1CF
100
AcDbEntity
  8
Ebene 1
 62
   179
420
  1709851
370
    18
100
AcDbVertex
100
AcDb2dVertex
 10
28.11266817873572
 20
-137.8622137784685
 30
0.0
  0
VERTEX
  5
1D1
330
1CF
100
AcDbEntity
  8
Ebene 1
 62
   179
420
  1709851
370
    18
100
AcDbVertex
100
AcDb2dVertex
 10
28.11266817873572
 20
-136.8672702023283
 30
0.0
  0
SEQEND
  5
1D2
330
1CF
100
AcDbEntity
  8
Ebene 1
370
    18
  0
POLYLINE
  5
1D3
330
138
100
AcDbEntity
  8
Ebene 1
 62
   179
420
  1709851
370
    18
100
AcDb2dPolyline
 66
     1
 10
0.0
 20
0.0
 30
0.0
  0
VERTEX
  5
1D4
330
1D3
100
AcDbEntity
  8
Ebene 1
 62
   179
420
  1709851
370
    18
100
AcDbVertex
100
AcDb2dVertex
 10
28.11266817873572
 20
-145.8631035334127
 30
0.0
  0
VERTEX
  5
1D5
330
1D3
100
AcDbEntity
  8
Ebene 1
 62
   179
420
  1709851
370
    18
100
AcDbVertex
100
AcDb2dVertex
 10
28.11266817873572
 20
-138.8568128450601
 30
0.0
  0
SEQEND
  5
1D6
330
1D3
100
AcDbEntity
  8
Ebene 1
370
    18
  0
POLYLINE
  5
1D7
330
138
100
AcDbEntity
  8
Ebene 1
 62
   179
420
  1709851
370
    18
100
AcDb2dPolyline
 66
     1
 10
0.0
 20
0.0
 30
0.0
  0
VERTEX
  5
1D8
330
1D7
100
AcDbEntity
  8
Ebene 1
 62
   179
420
  1709851
370
    18
100
AcDbVertex
100
AcDb2dVertex
 10
28.11266817873572
 20
-147.8526461761445
 30
0.0
  0
VERTEX
  5
1D9
330
1D7
100
AcDbEntity
  8
Ebene 1
 62
   179
420
  1709851
370
    18
100
AcDbVertex
100
AcDb2dVertex
 10
28.11266817873572
 20
-146.8580471095528
 30
0.0
  0
SEQEND
  5
1DA
330
1D7
100
AcDbEntity
  8
Ebene 1
370
    18
  0
POLYLINE
  5
1DB
330
138
100
AcDbEntity
  8
Ebene 1
 62
   179
420
  1709851
370
    18
100
AcDb2dPolyline
 66
     1
 10
0.0
 20
0.0
 30
0.0
  0
VERTEX
  5
1DC
330
1DB
100
AcDbEntity
  8
Ebene 1
 62
   179
420
  1709851
370
    18
100
AcDbVertex
100
AcDb2dVertex
 10
28.11266817873572
 20
-155.8540526954115
 30
0.0
  0
VERTEX
  5
1DD
330
1DB
100
AcDbEntity
  8
Ebene 1
 62
   179
420
  1709851
370
    18
100
AcDbVertex
100
AcDb2dVertex
 10
28.11266817873572
 20
-148.8475897522846
 30
0.0
  0
SEQEND
  5
1DE
330
1DB
100
AcDbEntity
  8
Ebene 1
370
    18
  0
POLYLINE
  5
1DF
330
138
100
AcDbEntity
  8
Ebene 1
 62
   179
420
  1709851
370
    18
100
AcDb2dPolyline
 66
     1
 10
0.0
 20
0.0
 30
0.0
  0
VERTEX
  5
1E0
330
1DF
100
AcDbEntity
  8
Ebene 1
 62
   179
420
  1709851
370
    18
100
AcDbVertex
100
AcDb2dVertex
 10
28.11266817873572
 20
-157.8646104206033
 30
0.0
  0
VERTEX
  5
1E1
330
1DF
100
AcDbEntity
  8
Ebene 1
 62
   179
420
  1709851
370
    18
100
AcDbVertex
100
AcDb2dVertex
 10
28.11266817873572
 20
-156.8483072524546
 30
0.0
  0
SEQEND
  5
1E2
330
1DF
100
AcDbEntity
  8
Ebene 1
370
    18
  0
POLYLINE
  5
1E3
330
138
100
AcDbEntity
  8
Ebene 1
 62
   179
420
  1709851
370
    18
100
AcDb2dPolyline
 66
     1
 10
0.0
 20
0.0
 30
0.0
  0
VERTEX
  5
1E4
330
1E3
100
AcDbEntity
  8
Ebene 1
 62
   179
420
  1709851
370
    18
100
AcDbVertex
100
AcDb2dVertex
 10
28.11266817873572
 20
-165.8655001755475
 30
0.0
  0
VERTEX
  5
1E5
330
1E3
100
AcDbEntity
  8
Ebene 1
 62
   179
420
  1709851
370
    18
100
AcDbVertex
100
AcDb2dVertex
 10
28.11266817873572
 20
-158.8595539967434
 30
0.0
  0
SEQEND
  5
1E6
330
1E3
100
AcDbEntity
  8
Ebene 1
370
    18
  0
POLYLINE
  5
1E7
330
138
100
AcDbEntity
  8
Ebene 1
 62
   179
420
  1709851
370
    18
100
AcDb2dPolyline
 66
     1
 10
0.0
 20
0.0
 30
0.0
  0
VERTEX
  5
1E8
330
1E7
100
AcDbEntity
  8
Ebene 1
 62
   179
420
  1709851
370
    18
100
AcDbVertex
100
AcDb2dVertex
 10
28.11266817873572
 20
-167.8553873278278
 30
0.0
  0
VERTEX
  5
1E9
330
1E7
100
AcDbEntity
  8
Ebene 1
 62
   179
420
  1709851
370
    18
100
AcDbVertex
100
AcDb2dVertex
 10
28.11266817873572
 20
-166.8604437516877
 30
0.0
  0
SEQEND
  5
1EA
330
1E7
100
AcDbEntity
  8
Ebene 1
370
    18
  0
POLYLINE
  5
1EB
330
138
100
AcDbEntity
  8
Ebene 1
 62
   179
420
  1709851
370
    18
100
AcDb2dPolyline
 66
     1
 10
0.0
 20
0.0
 30
0.0
  0
VERTEX
  5
1EC
330
1EB
100
AcDbEntity
  8
Ebene 1
 62
   179
420
  1709851
370
    18
100
AcDbVertex
100
AcDb2dVertex
 10
28.11266817873572
 20
-175.856277082772
 30
0.0
  0
VERTEX
  5
1ED
330
1EB
100
AcDbEntity
  8
Ebene 1
 62
   179
420
  1709851
370
    18
100
AcDbVertex
100
AcDb2dVertex
 10
28.11266817873572
 20
-168.850330903968
 30
0.0
  0
SEQEND
  5
1EE
330
1EB
100
AcDbEntity
  8
Ebene 1
370
    18
  0
POLYLINE
  5
1EF
330
138
100
AcDbEntity
  8
Ebene 1
 62
   179
420
  1709851
370
    18
100
AcDb2dPolyline
 66
     1
 10
0.0
 20
0.0
 30
0.0
  0
VERTEX
  5
1F0
330
1EF
100
AcDbEntity
  8
Ebene 1
 62
   179
420
  1709851
370
    18
100
AcDbVertex
100
AcDb2dVertex
 10
28.11266817873572
 20
-177.8461642350524
 30
0.0
  0
VERTEX
  5
1F1
330
1EF
100
AcDbEntity
  8
Ebene 1
 62
   179
420
  1709851
370
    18
100
AcDbVertex
100
AcDb2dVertex
 10
28.11266817873572
 20
-176.8512206589122
 30
0.0
  0
SEQEND
  5
1F2
330
1EF
100
AcDbEntity
  8
Ebene 1
370
    18
  0
POLYLINE
  5
1F3
330
138
100
AcDbEntity
  8
Ebene 1
 62
   179
420
  1709851
370
    18
100
AcDb2dPolyline
 66
     1
 10
0.0
 20
0.0
 30
0.0
  0
VERTEX
  5
1F4
330
1F3
100
AcDbEntity
  8
Ebene 1
 62
   179
420
  1709851
370
    18
100
AcDbVertex
100
AcDb2dVertex
 10
28.11266817873572
 20
-185.8470539899966
 30
0.0
  0
VERTEX
  5
1F5
330
1F3
100
AcDbEntity
  8
Ebene 1
 62
   179
420
  1709851
370
    18
100
AcDbVertex
100
AcDb2dVertex
 10
28.11266817873572
 20
-178.861778384104
 30
0.0
  0
SEQEND
  5
1F6
330
1F3
100
AcDbEntity
  8
Ebene 1
370
    18
  0
POLYLINE
  5
1F7
330
138
100
AcDbEntity
  8
Ebene 1
 62
   179
420
  1709851
370
    18
100
AcDb2dPolyline
 66
     1
 10
0.0
 20
0.0
 30
0.0
  0
VERTEX
  5
1F8
330
1F7
100
AcDbEntity
  8
Ebene 1
 62
   179
420
  1709851
370
    18
100
AcDbVertex
100
AcDb2dVertex
 10
28.11266817873572
 20
-187.8576117151884
 30
0.0
  0
VERTEX
  5
1F9
330
1F7
100
AcDbEntity
  8
Ebene 1
 62
   179
420
  1709851
370
    18
100
AcDbVertex
100
AcDb2dVertex
 10
28.11266817873572
 20
-186.8626681390482
 30
0.0
  0
SEQEND
  5
1FA
330
1F7
100
AcDbEntity
  8
Ebene 1
370
    18
  0
POLYLINE
  5
1FB
330
138
100
AcDbEntity
  8
Ebene 1
 62
   179
420
  1709851
370
    18
100
AcDb2dPolyline
 66
     1
 10
0.0
 20
0.0
 30
0.0
  0
VERTEX
  5
1FC
330
1FB
100
AcDbEntity
  8
Ebene 1
 62
   179
420
  1709851
370
    18
100
AcDbVertex
100
AcDb2dVertex
 10
28.11266817873572
 20
-189.1701930950686
 30
0.0
  0
VERTEX
  5
1FD
330
1FB
100
AcDbEntity
  8
Ebene 1
 62
   179
420
  1709851
370
    18
100
AcDbVertex
100
AcDb2dVertex
 10
28.11266817873572
 20
-188.8525552913285
 30
0.0
  0
SEQEND
  5
1FE
330
1FB
100
AcDbEntity
  8
Ebene 1
370
    18
  0
POLYLINE
  5
1FF
330
138
100
AcDbEntity
  8
Ebene 1
 62
   179
420
  1709851
370
    18
100
AcDb2dPolyline
 66
     1
 10
0.0
 20
0.0
 30
0.0
  0
VERTEX
  5
200
330
1FF
100
AcDbEntity
  8
Ebene 1
 62
   179
420
  1709851
370
    18
100
AcDbVertex
100
AcDb2dVertex
 10
132.7822482306933
 20
-175.9623860237178
 30
0.0
  0
VERTEX
  5
201
330
1FF
100
AcDbEntity
  8
Ebene 1
 62
   179
420
  1709851
370
    18
100
AcDbVertex
100
AcDb2dVertex
 10
73.98084172412632
 20
-175.9623860237178
 30
0.0
  0
SEQEND
  5
202
330
1FF
100
AcDbEntity
  8
Ebene 1
370
    18
  0
POLYLINE
  5
203
330
138
100
AcDbEntity
  8
Ebene 1
 62
   179
420
  1709851
370
    18
100
AcDb2dPolyline
 66
     1
 10
0.0
 20
0.0
 30
0.0
  0
VERTEX
  5
204
330
203
100
AcDbEntity
  8
Ebene 1
 62
   179
420
  1709851
370
    18
100
AcDbVertex
100
AcDb2dVertex
 10
183.963275778662
 20
-175.9623860237178
 30
0.0
  0
VERTEX
  5
205
330
203
100
AcDbEntity
  8
Ebene 1
 62
   179
420
  1709851
370
    18
100
AcDbVertex
100
AcDb2dVertex
 10
139.9787081898317
 20
-175.9623860237178
 30
0.0
  0
SEQEND
  5
206
330
203
100
AcDbEntity
  8
Ebene 1
370
    18
  0
POLYLINE
  5
207
330
138
100
AcDbEntity
  8
Ebene 1
 62
   179
420
  1709851
370
    18
100
AcDb2dPolyline
 66
     1
 10
0.0
 20
0.0
 30
0.0
  0
VERTEX
  5
208
330
207
100
AcDbEntity
  8
Ebene 1
 62
   179
420
  1709851
370
    18
100
AcDbVertex
100
AcDb2dVertex
 10
63.99023707167606
 20
-175.9623860237178
 30
0.0
  0
VERTEX
  5
209
330
207
100
AcDbEntity
  8
Ebene 1
 62
   179
420
  1709851
370
    18
100
AcDbVertex
100
AcDb2dVertex
 10
28.11266817873572
 20
-175.9623860237178
 30
0.0
  0
SEQEND
  5
20A
330
207
100
AcDbEntity
  8
Ebene 1
370
    18
  0
POLYLINE
  5
20B
330
138
100
AcDbEntity
  8
Ebene 1
 62
   179
420
  1709851
370
    18
100
AcDb2dPolyline
 66
     1
 10
0.0
 20
0.0
 30
0.0
  0
VERTEX
  5
20C
330
20B
100
AcDbEntity
  8
Ebene 1
 62
   179
420
  1709851
370
    18
100
AcDbVertex
100
AcDb2dVertex
 10
28.11266817873572
 20
-174.3748860241146
 30
0.0
  0
VERTEX
  5
20D
330
20B
100
AcDbEntity
  8
Ebene 1
 62
   179
420
  1709851
370
    18
100
AcDbVertex
100
AcDb2dVertex
 10
196.091734434484
 20
-174.3748860241146
 30
0.0
  0
SEQEND
  5
20E
330
20B
100
AcDbEntity
  8
Ebene 1
370
    18
  0
POLYLINE
  5
20F
330
138
100
AcDbEntity
  8
Ebene 1
 62
   179
420
  1709851
370
    18
100
AcDb2dPolyline
 66
     1
 10
0.0
 20
0.0
 30
0.0
  0
VERTEX
  5
210
330
20F
100
AcDbEntity
  8
Ebene 1
 62
   179
420
  1709851
370
    18
100
AcDbVertex
100
AcDb2dVertex
 10
193.9750677683465
 20
-180.36452903477
 30
0.0
  0
VERTEX
  5
211
330
20F
100
AcDbEntity
  8
Ebene 1
 62
   179
420
  1709851
370
    18
100
AcDbVertex
100
AcDb2dVertex
 10
196.091734434484
 20
-180.36452903477
 30
0.0
  0
SEQEND
  5
212
330
20F
100
AcDbEntity
  8
Ebene 1
370
    18
  0
POLYLINE
  5
213
330
138
100
AcDbEntity
  8
Ebene 1
 62
   179
420
  1709851
370
    18
100
AcDb2dPolyline
 66
     1
 10
0.0
 20
0.0
 30
0.0
  0
VERTEX
  5
214
330
213
100
AcDbEntity
  8
Ebene 1
 62
   179
420
  1709851
370
    18
100
AcDbVertex
100
AcDb2dVertex
 10
196.091734434484
 20
-175.9623860237178
 30
0.0
  0
VERTEX
  5
215
330
213
100
AcDbEntity
  8
Ebene 1
 62
   179
420
  1709851
370
    18
100
AcDbVertex
100
AcDb2dVertex
 10
193.9750677683465
 20
-175.9623860237178
 30
0.0
  0
SEQEND
  5
216
330
213
100
AcDbEntity
  8
Ebene 1
370
    18
  0
POLYLINE
  5
217
330
138
100
AcDbEntity
  8
Ebene 1
 62
   179
420
  1709851
370
    18
100
AcDb2dPolyline
 66
     1
 10
0.0
 20
0.0
 30
0.0
  0
VERTEX
  5
218
330
217
100
AcDbEntity
  8
Ebene 1
 62
   179
420
  1709851
370
    18
100
AcDbVertex
100
AcDb2dVertex
 10
139.9787081898317
 20
-180.36452903477
 30
0.0
  0
VERTEX
  5
219
330
217
100
AcDbEntity
  8
Ebene 1
 62
   179
420
  1709851
370
    18
100
AcDbVertex
100
AcDb2dVertex
 10
183.963275778662
 20
-180.36452903477
 30
0.0
  0
SEQEND
  5
21A
330
217
100
AcDbEntity
  8
Ebene 1
370
    18
  0
POLYLINE
  5
21B
330
138
100
AcDbEntity
  8
Ebene 1
 62
   179
420
  1709851
370
    18
100
AcDb2dPolyline
 66
     1
 10
0.0
 20
0.0
 30
0.0
  0
VERTEX
  5
21C
330
21B
100
AcDbEntity
  8
Ebene 1
 62
   179
420
  1709851
370
    18
100
AcDbVertex
100
AcDb2dVertex
 10
28.11266817873572
 20
-180.36452903477
 30
0.0
  0
VERTEX
  5
21D
330
21B
100
AcDbEntity
  8
Ebene 1
 62
   179
420
  1709851
370
    18
100
AcDbVertex
100
AcDb2dVertex
 10
63.99023707167606
 20
-180.36452903477
 30
0.0
  0
SEQEND
  5
21E
330
21B
100
AcDbEntity
  8
Ebene 1
370
    18
  0
POLYLINE
  5
21F
330
138
100
AcDbEntity
  8
Ebene 1
 62
   179
420
  1709851
370
    18
100
AcDb2dPolyline
 66
     1
 10
0.0
 20
0.0
 30
0.0
  0
VERTEX
  5
220
330
21F
100
AcDbEntity
  8
Ebene 1
 62
   179
420
  1709851
370
    18
100
AcDbVertex
100
AcDb2dVertex
 10
73.98084172412632
 20
-180.36452903477
 30
0.0
  0
VERTEX
  5
221
330
21F
100
AcDbEntity
  8
Ebene 1
 62
   179
420
  1709851
370
    18
100
AcDbVertex
100
AcDb2dVertex
 10
132.7822482306933
 20
-180.36452903477
 30
0.0
  0
SEQEND
  5
222
330
21F
100
AcDbEntity
  8
Ebene 1
370
    18
  0
POLYLINE
  5
223
330
138
100
AcDbEntity
  8
Ebene 1
 62
   179
420
  1709851
370
    18
100
AcDb2dPolyline
 66
     1
 10
0.0
 20
0.0
 30
0.0
  0
VERTEX
  5
224
330
223
100
AcDbEntity
  8
Ebene 1
 62
   179
420
  1709851
370
    18
100
AcDbVertex
100
AcDb2dVertex
 10
133.0571668504163
 20
-180.95777447733
 30
0.0
  0
VERTEX
  5
225
330
223
100
AcDbEntity
  8
Ebene 1
 62
   179
420
  1709851
370
    18
100
AcDbVertex
100
AcDb2dVertex
 10
139.6820854685517
 20
-180.95777447733
 30
0.0
  0
SEQEND
  5
226
330
223
100
AcDbEntity
  8
Ebene 1
370
    18
  0
POLYLINE
  5
227
330
138
100
AcDbEntity
  8
Ebene 1
 62
   179
420
  1709851
370
    18
100
AcDb2dPolyline
 66
     1
 10
0.0
 20
0.0
 30
0.0
  0
VERTEX
  5
228
330
227
100
AcDbEntity
  8
Ebene 1
 62
   179
420
  1709851
370
    18
100
AcDbVertex
100
AcDb2dVertex
 10
191.5621228904775
 20
-175.9623860237178
 30
0.0
  0
VERTEX
  5
229
330
227
100
AcDbEntity
  8
Ebene 1
 62
   179
420
  1709851
370
    18
100
AcDbVertex
100
AcDb2dVertex
 10
191.1810953298089
 20
-175.9623860237178
 30
0.0
  0
SEQEND
  5
22A
330
227
100
AcDbEntity
  8
Ebene 1
370
    18
  0
POLYLINE
  5
22B
330
138
100
AcDbEntity
  8
Ebene 1
 62
   179
420
  1709851
370
    18
100
AcDb2dPolyline
 66
     1
 10
0.0
 20
0.0
 30
0.0
  0
VERTEX
  5
22C
330
22B
100
AcDbEntity
  8
Ebene 1
 62
   179
420
  1709851
370
    18
100
AcDbVertex
100
AcDb2dVertex
 10
191.1810953298089
 20
-180.36452903477
 30
0.0
  0
VERTEX
  5
22D
330
22B
100
AcDbEntity
  8
Ebene 1
 62
   179
420
  1709851
370
    18
100
AcDbVertex
100
AcDb2dVertex
 10
191.5621228904775
 20
-180.36452903477
 30
0.0
  0
SEQEND
  5
22E
330
22B
100
AcDbEntity
  8
Ebene 1
370
    18
  0
POLYLINE
  5
22F
330
138
100
AcDbEntity
  8
Ebene 1
 62
   179
420
  1709851
370
    18
100
AcDb2dPolyline
 66
     1
 10
0.0
 20
0.0
 30
0.0
  0
VERTEX
  5
230
330
22F
100
AcDbEntity
  8
Ebene 1
 62
   179
420
  1709851
370
    18
100
AcDbVertex
100
AcDb2dVertex
 10
71.58908418349162
 20
-175.9623860237178
 30
0.0
  0
VERTEX
  5
231
330
22F
100
AcDbEntity
  8
Ebene 1
 62
   179
420
  1709851
370
    18
100
AcDbVertex
100
AcDb2dVertex
 10
71.1868692855887
 20
-175.9623860237178
 30
0.0
  0
SEQEND
  5
232
330
22F
100
AcDbEntity
  8
Ebene 1
370
    18
  0
POLYLINE
  5
233
330
138
100
AcDbEntity
  8
Ebene 1
 62
   179
420
  1709851
370
    18
100
AcDb2dPolyline
 66
     1
 10
0.0
 20
0.0
 30
0.0
  0
VERTEX
  5
234
330
233
100
AcDbEntity
  8
Ebene 1
 62
   179
420
  1709851
370
    18
100
AcDbVertex
100
AcDb2dVertex
 10
71.1868692855887
 20
-180.36452903477
 30
0.0
  0
VERTEX
  5
235
330
233
100
AcDbEntity
  8
Ebene 1
 62
   179
420
  1709851
370
    18
100
AcDbVertex
100
AcDb2dVertex
 10
71.58908418349162
 20
-180.36452903477
 30
0.0
  0
SEQEND
  5
236
330
233
100
AcDbEntity
  8
Ebene 1
370
    18
  0
MTEXT
  5
237
330
138
100
AcDbEntity
  8
Ebene 1
 62
   179
420
  1709851
100
AcDbMText
 10
70.78482664246005
 20
-211.1409450427009
 30
0.0
 40
1.8938508253643
 41
0.0
 71
     7
 72
     1
  1
\fArial|b0|i0|c0|p34;\W0.895322;RASTERMASS - GRID SIZE - FORMAT DE TRAME
 73
     1
 44
1.0
  0
MTEXT
  5
238
330
138
100
AcDbEntity
  8
Ebene 1
 62
   179
420
  1709851
100
AcDbMText
 10
66.76267766343086
 20
-199.351828292176
 30
0.0
 40
1.8938508253643
 41
0.0
 71
     7
 72
     1
  1
\fArial|b0|i0|c0|p34;\W0.895322;PLATTENMASS - WORK SIZE - COTE DE FABRICATION
 73
     1
 44
1.0
  0
MTEXT
  5
239
330
138
100
AcDbEntity
  8
Ebene 1
 62
   179
420
  1709851
100
AcDbMText
 10
161.4399305151956
 20
-204.0915906607827
 30
0.0
 40
1.8938508253643
 41
0.0
 71
     7
 72
     1
  1
\fArial|b0|i0|c0|p34;\W0.895322;8
 73
     1
 44
1.0
  0
MTEXT
  5
23A
330
138
100
AcDbEntity
  8
Ebene 1
 62
   179
420
  1709851
100
AcDbMText
 10
41.44587672574964
 20
-204.0502495149597
 30
0.0
 40
1.8938508253643
 41
0.0
 71
     7
 72
     1
  1
\fArial|b0|i0|c0|p34;\W0.895322;8
 73
     1
 44
1.0
  0
POLYLINE
  5
23B
330
138
100
AcDbEntity
  8
Ebene 1
 62
   179
420
  1709851
370
    18
100
AcDb2dPolyline
 66
     1
 10
0.0
 20
0.0
 30
0.0
  0
VERTEX
  5
23C
330
23B
100
AcDbEntity
  8
Ebene 1
 62
   179
420
  1709851
370
    18
100
AcDbVertex
100
AcDb2dVertex
 10
161.1663899336667
 20
-200.1552245593362
 30
0.0
  0
VERTEX
  5
23D
330
23B
100
AcDbEntity
  8
Ebene 1
 62
   179
420
  1709851
370
    18
100
AcDbVertex
100
AcDb2dVertex
 10
162.7752495252784
 20
-200.1552245593362
 30
0.0
  0
SEQEND
  5
23E
330
23B
100
AcDbEntity
  8
Ebene 1
370
    18
  0
POLYLINE
  5
23F
330
138
100
AcDbEntity
  8
Ebene 1
 62
   179
420
  1709851
370
    18
100
AcDb2dPolyline
 66
     1
 10
0.0
 20
0.0
 30
0.0
  0
VERTEX
  5
240
330
23F
100
AcDbEntity
  8
Ebene 1
 62
   179
420
  1709851
370
    18
100
AcDbVertex
100
AcDb2dVertex
 10
162.7752495252784
 20
-200.1552245593362
 30
0.0
  0
VERTEX
  5
241
330
23F
100
AcDbEntity
  8
Ebene 1
 62
   179
420
  1709851
370
    18
100
AcDbVertex
100
AcDb2dVertex
 10
162.7752495252784
 20
-201.6586642290992
 30
0.0
  0
SEQEND
  5
242
330
23F
100
AcDbEntity
  8
Ebene 1
370
    18
  0
POLYLINE
  5
243
330
138
100
AcDbEntity
  8
Ebene 1
 62
   179
420
  1709851
370
    18
100
AcDb2dPolyline
 66
     1
 10
0.0
 20
0.0
 30
0.0
  0
VERTEX
  5
244
330
243
100
AcDbEntity
  8
Ebene 1
 62
   179
420
  1709851
370
    18
100
AcDbVertex
100
AcDb2dVertex
 10
162.7752495252784
 20
-200.1552245593362
 30
0.0
  0
VERTEX
  5
245
330
243
100
AcDbEntity
  8
Ebene 1
 62
   179
420
  1709851
370
    18
100
AcDbVertex
100
AcDb2dVertex
 10
162.7752495252784
 20
-198.6738335006788
 30
0.0
  0
SEQEND
  5
246
330
243
100
AcDbEntity
  8
Ebene 1
370
    18
  0
POLYLINE
  5
247
330
138
100
AcDbEntity
  8
Ebene 1
 62
   179
420
  1709851
370
    18
100
AcDb2dPolyline
 66
     1
 10
0.0
 20
0.0
 30
0.0
  0
VERTEX
  5
248
330
247
100
AcDbEntity
  8
Ebene 1
 62
   179
420
  1709851
370
    18
100
AcDbVertex
100
AcDb2dVertex
 10
162.7752495252784
 20
-200.1552245593362
 30
0.0
  0
VERTEX
  5
249
330
247
100
AcDbEntity
  8
Ebene 1
 62
   179
420
  1709851
370
    18
100
AcDbVertex
100
AcDb2dVertex
 10
164.2780001759444
 20
-200.1552245593362
 30
0.0
  0
SEQEND
  5
24A
330
247
100
AcDbEntity
  8
Ebene 1
370
    18
  0
POLYLINE
  5
24B
330
138
100
AcDbEntity
  8
Ebene 1
 62
   179
420
  1709851
370
    18
100
AcDb2dPolyline
 66
     1
 10
0.0
 20
0.0
 30
0.0
  0
VERTEX
  5
24C
330
24B
100
AcDbEntity
  8
Ebene 1
 62
   179
420
  1709851
370
    18
100
AcDbVertex
100
AcDb2dVertex
 10
161.8650552980754
 20
-201.0661078056362
 30
0.0
  0
VERTEX
  5
24D
330
24B
100
AcDbEntity
  8
Ebene 1
 62
   179
420
  1709851
370
    18
100
AcDbVertex
100
AcDb2dVertex
 10
163.6640841604729
 20
-199.2663899241417
 30
0.0
  0
SEQEND
  5
24E
330
24B
100
AcDbEntity
  8
Ebene 1
370
    18
  0
POLYLINE
  5
24F
330
138
100
AcDbEntity
  8
Ebene 1
 62
   179
420
  1709851
370
    18
100
AcDb2dPolyline
 66
     1
 10
0.0
 20
0.0
 30
0.0
  0
VERTEX
  5
250
330
24F
100
AcDbEntity
  8
Ebene 1
 62
   179
420
  1709851
370
    18
100
AcDbVertex
100
AcDb2dVertex
 10
42.78119573583248
 20
-200.1552245593362
 30
0.0
  0
VERTEX
  5
251
330
24F
100
AcDbEntity
  8
Ebene 1
 62
   179
420
  1709851
370
    18
100
AcDbVertex
100
AcDb2dVertex
 10
161.1663899336667
 20
-200.1552245593362
 30
0.0
  0
SEQEND
  5
252
330
24F
100
AcDbEntity
  8
Ebene 1
370
    18
  0
POLYLINE
  5
253
330
138
100
AcDbEntity
  8
Ebene 1
 62
   179
420
  1709851
370
    18
100
AcDb2dPolyline
 66
     1
 10
0.0
 20
0.0
 30
0.0
  0
VERTEX
  5
254
330
253
100
AcDbEntity
  8
Ebene 1
 62
   179
420
  1709851
370
    18
100
AcDbVertex
100
AcDb2dVertex
 10
161.1663899336667
 20
-200.1552245593362
 30
0.0
  0
VERTEX
  5
255
330
253
100
AcDbEntity
  8
Ebene 1
 62
   179
420
  1709851
370
    18
100
AcDbVertex
100
AcDb2dVertex
 10
161.1663899336667
 20
-201.6586642290992
 30
0.0
  0
SEQEND
  5
256
330
253
100
AcDbEntity
  8
Ebene 1
370
    18
  0
POLYLINE
  5
257
330
138
100
AcDbEntity
  8
Ebene 1
 62
   179
420
  1709851
370
    18
100
AcDb2dPolyline
 66
     1
 10
0.0
 20
0.0
 30
0.0
  0
VERTEX
  5
258
330
257
100
AcDbEntity
  8
Ebene 1
 62
   179
420
  1709851
370
    18
100
AcDbVertex
100
AcDb2dVertex
 10
161.1663899336667
 20
-200.1552245593362
 30
0.0
  0
VERTEX
  5
259
330
257
100
AcDbEntity
  8
Ebene 1
 62
   179
420
  1709851
370
    18
100
AcDbVertex
100
AcDb2dVertex
 10
161.1663899336667
 20
-198.6738335006788
 30
0.0
  0
SEQEND
  5
25A
330
257
100
AcDbEntity
  8
Ebene 1
370
    18
  0
POLYLINE
  5
25B
330
138
100
AcDbEntity
  8
Ebene 1
 62
   179
420
  1709851
370
    18
100
AcDb2dPolyline
 66
     1
 10
0.0
 20
0.0
 30
0.0
  0
VERTEX
  5
25C
330
25B
100
AcDbEntity
  8
Ebene 1
 62
   179
420
  1709851
370
    18
100
AcDbVertex
100
AcDb2dVertex
 10
160.2775552984723
 20
-201.0661078056362
 30
0.0
  0
VERTEX
  5
25D
330
25B
100
AcDbEntity
  8
Ebene 1
 62
   179
420
  1709851
370
    18
100
AcDbVertex
100
AcDb2dVertex
 10
162.0765841608697
 20
-199.2663899241417
 30
0.0
  0
SEQEND
  5
25E
330
25B
100
AcDbEntity
  8
Ebene 1
370
    18
  0
POLYLINE
  5
25F
330
138
100
AcDbEntity
  8
Ebene 1
 62
   179
420
  1709851
370
    18
100
AcDb2dPolyline
 66
     1
 10
0.0
 20
0.0
 30
0.0
  0
VERTEX
  5
260
330
25F
100
AcDbEntity
  8
Ebene 1
 62
   179
420
  1709851
370
    18
100
AcDbVertex
100
AcDb2dVertex
 10
41.17250839899507
 20
-200.1552245593362
 30
0.0
  0
VERTEX
  5
261
330
25F
100
AcDbEntity
  8
Ebene 1
 62
   179
420
  1709851
370
    18
100
AcDbVertex
100
AcDb2dVertex
 10
42.78119573583248
 20
-200.1552245593362
 30
0.0
  0
SEQEND
  5
262
330
25F
100
AcDbEntity
  8
Ebene 1
370
    18
  0
POLYLINE
  5
263
330
138
100
AcDbEntity
  8
Ebene 1
 62
   179
420
  1709851
370
    18
100
AcDb2dPolyline
 66
     1
 10
0.0
 20
0.0
 30
0.0
  0
VERTEX
  5
264
330
263
100
AcDbEntity
  8
Ebene 1
 62
   179
420
  1709851
370
    18
100
AcDbVertex
100
AcDb2dVertex
 10
42.78119573583248
 20
-200.1552245593362
 30
0.0
  0
VERTEX
  5
265
330
263
100
AcDbEntity
  8
Ebene 1
 62
   179
420
  1709851
370
    18
100
AcDbVertex
100
AcDb2dVertex
 10
42.78119573583248
 20
-201.6586642290992
 30
0.0
  0
SEQEND
  5
266
330
263
100
AcDbEntity
  8
Ebene 1
370
    18
  0
POLYLINE
  5
267
330
138
100
AcDbEntity
  8
Ebene 1
 62
   179
420
  1709851
370
    18
100
AcDb2dPolyline
 66
     1
 10
0.0
 20
0.0
 30
0.0
  0
VERTEX
  5
268
330
267
100
AcDbEntity
  8
Ebene 1
 62
   179
420
  1709851
370
    18
100
AcDbVertex
100
AcDb2dVertex
 10
42.78119573583248
 20
-200.1552245593362
 30
0.0
  0
VERTEX
  5
269
330
267
100
AcDbEntity
  8
Ebene 1
 62
   179
420
  1709851
370
    18
100
AcDbVertex
100
AcDb2dVertex
 10
42.78119573583248
 20
-198.6738335006788
 30
0.0
  0
SEQEND
  5
26A
330
267
100
AcDbEntity
  8
Ebene 1
370
    18
  0
POLYLINE
  5
26B
330
138
100
AcDbEntity
  8
Ebene 1
 62
   179
420
  1709851
370
    18
100
AcDb2dPolyline
 66
     1
 10
0.0
 20
0.0
 30
0.0
  0
VERTEX
  5
26C
330
26B
100
AcDbEntity
  8
Ebene 1
 62
   179
420
  1709851
370
    18
100
AcDbVertex
100
AcDb2dVertex
 10
41.17250839899507
 20
-200.1552245593362
 30
0.0
  0
VERTEX
  5
26D
330
26B
100
AcDbEntity
  8
Ebene 1
 62
   179
420
  1709851
370
    18
100
AcDbVertex
100
AcDb2dVertex
 10
41.17250839899507
 20
-201.6586642290992
 30
0.0
  0
SEQEND
  5
26E
330
26B
100
AcDbEntity
  8
Ebene 1
370
    18
  0
POLYLINE
  5
26F
330
138
100
AcDbEntity
  8
Ebene 1
 62
   179
420
  1709851
370
    18
100
AcDb2dPolyline
 66
     1
 10
0.0
 20
0.0
 30
0.0
  0
VERTEX
  5
270
330
26F
100
AcDbEntity
  8
Ebene 1
 62
   179
420
  1709851
370
    18
100
AcDbVertex
100
AcDb2dVertex
 10
41.17250839899507
 20
-200.1552245593362
 30
0.0
  0
VERTEX
  5
271
330
26F
100
AcDbEntity
  8
Ebene 1
 62
   179
420
  1709851
370
    18
100
AcDbVertex
100
AcDb2dVertex
 10
41.17250839899507
 20
-198.6738335006788
 30
0.0
  0
SEQEND
  5
272
330
26F
100
AcDbEntity
  8
Ebene 1
370
    18
  0
POLYLINE
  5
273
330
138
100
AcDbEntity
  8
Ebene 1
 62
   179
420
  1709851
370
    18
100
AcDb2dPolyline
 66
     1
 10
0.0
 20
0.0
 30
0.0
  0
VERTEX
  5
274
330
273
100
AcDbEntity
  8
Ebene 1
 62
   179
420
  1709851
370
    18
100
AcDbVertex
100
AcDb2dVertex
 10
41.17250839899507
 20
-200.1552245593362
 30
0.0
  0
VERTEX
  5
275
330
273
100
AcDbEntity
  8
Ebene 1
 62
   179
420
  1709851
370
    18
100
AcDbVertex
100
AcDb2dVertex
 10
39.69094508556338
 20
-200.1552245593362
 30
0.0
  0
SEQEND
  5
276
330
273
100
AcDbEntity
  8
Ebene 1
370
    18
  0
POLYLINE
  5
277
330
138
100
AcDbEntity
  8
Ebene 1
 62
   179
420
  1709851
370
    18
100
AcDb2dPolyline
 66
     1
 10
0.0
 20
0.0
 30
0.0
  0
VERTEX
  5
278
330
277
100
AcDbEntity
  8
Ebene 1
 62
   179
420
  1709851
370
    18
100
AcDbVertex
100
AcDb2dVertex
 10
41.89218884586376
 20
-201.0661078056362
 30
0.0
  0
VERTEX
  5
279
330
277
100
AcDbEntity
  8
Ebene 1
 62
   179
420
  1709851
370
    18
100
AcDbVertex
100
AcDb2dVertex
 10
43.69138996303549
 20
-199.2663899241417
 30
0.0
  0
SEQEND
  5
27A
330
277
100
AcDbEntity
  8
Ebene 1
370
    18
  0
POLYLINE
  5
27B
330
138
100
AcDbEntity
  8
Ebene 1
 62
   179
420
  1709851
370
    18
100
AcDb2dPolyline
 66
     1
 10
0.0
 20
0.0
 30
0.0
  0
VERTEX
  5
27C
330
27B
100
AcDbEntity
  8
Ebene 1
 62
   179
420
  1709851
370
    18
100
AcDbVertex
100
AcDb2dVertex
 10
40.28367376380061
 20
-201.0661078056362
 30
0.0
  0
VERTEX
  5
27D
330
27B
100
AcDbEntity
  8
Ebene 1
 62
   179
420
  1709851
370
    18
100
AcDbVertex
100
AcDb2dVertex
 10
42.08270262619808
 20
-199.2663899241417
 30
0.0
  0
SEQEND
  5
27E
330
27B
100
AcDbEntity
  8
Ebene 1
370
    18
  0
POLYLINE
  5
27F
330
138
100
AcDbEntity
  8
Ebene 1
 62
   179
420
  1709851
370
    18
100
AcDb2dPolyline
 66
     1
 10
0.0
 20
0.0
 30
0.0
  0
VERTEX
  5
280
330
27F
100
AcDbEntity
  8
Ebene 1
 62
   179
420
  1709851
370
    18
100
AcDbVertex
100
AcDb2dVertex
 10
138.5817219705629
 20
-179.6658636703613
 30
0.0
  0
VERTEX
  5
281
330
27F
100
AcDbEntity
  8
Ebene 1
 62
   179
420
  1709851
370
    18
100
AcDbVertex
100
AcDb2dVertex
 10
138.5817219705629
 20
-176.6603623690294
 30
0.0
  0
SEQEND
  5
282
330
27F
100
AcDbEntity
  8
Ebene 1
370
    18
  0
POLYLINE
  5
283
330
138
100
AcDbEntity
  8
Ebene 1
 62
   179
420
  1709851
370
    18
100
AcDb2dPolyline
 66
     1
 10
0.0
 20
0.0
 30
0.0
  0
VERTEX
  5
284
330
283
100
AcDbEntity
  8
Ebene 1
 62
   179
420
  1709851
370
    18
100
AcDbVertex
100
AcDb2dVertex
 10
138.5817219705629
 20
-176.6603623690294
 30
0.0
  0
VERTEX
  5
285
330
283
100
AcDbEntity
  8
Ebene 1
 62
   179
420
  1709851
370
    18
100
AcDbVertex
100
AcDb2dVertex
 10
138.1793348178857
 20
-176.6603623690294
 30
0.0
  0
VERTEX
  5
286
330
283
100
AcDbEntity
  8
Ebene 1
 62
   179
420
  1709851
370
    18
100
AcDbVertex
100
AcDb2dVertex
 10
138.1793348178857
 20
-179.6658636703613
 30
0.0
  0
SEQEND
  5
287
330
283
100
AcDbEntity
  8
Ebene 1
370
    18
  0
POLYLINE
  5
288
330
138
100
AcDbEntity
  8
Ebene 1
 62
   179
420
  1709851
370
    18
100
AcDb2dPolyline
 66
     1
 10
0.0
 20
0.0
 30
0.0
  0
VERTEX
  5
289
330
288
100
AcDbEntity
  8
Ebene 1
 62
   179
420
  1709851
370
    18
100
AcDbVertex
100
AcDb2dVertex
 10
138.1793348178857
 20
-179.6658636703613
 30
0.0
  0
VERTEX
  5
28A
330
288
100
AcDbEntity
  8
Ebene 1
 62
   179
420
  1709851
370
    18
100
AcDbVertex
100
AcDb2dVertex
 10
138.5817219705629
 20
-179.6658636703613
 30
0.0
  0
SEQEND
  5
28B
330
288
100
AcDbEntity
  8
Ebene 1
370
    18
  0
POLYLINE
  5
28C
330
138
100
AcDbEntity
  8
Ebene 1
 62
   179
420
  1709851
370
    18
100
AcDb2dPolyline
 66
     1
 10
0.0
 20
0.0
 30
0.0
  0
VERTEX
  5
28D
330
28C
100
AcDbEntity
  8
Ebene 1
 62
   179
420
  1709851
370
    18
100
AcDbVertex
100
AcDb2dVertex
 10
117.0760579134393
 20
-154.4353623745856
 30
0.0
  0
VERTEX
  5
28E
330
28C
100
AcDbEntity
  8
Ebene 1
 62
   179
420
  1709851
370
    18
100
AcDbVertex
100
AcDb2dVertex
 10
118.092361081588
 20
-151.1763020455393
 30
0.0
  0
SEQEND
  5
28F
330
28C
100
AcDbEntity
  8
Ebene 1
370
    18
  0
POLYLINE
  5
290
330
138
100
AcDbEntity
  8
Ebene 1
 62
   179
420
  1709851
370
    18
100
AcDb2dPolyline
 66
     1
 10
0.0
 20
0.0
 30
0.0
  0
VERTEX
  5
291
330
290
100
AcDbEntity
  8
Ebene 1
 62
   179
420
  1709851
370
    18
100
AcDbVertex
100
AcDb2dVertex
 10
132.7822482306933
 20
-180.7669161874472
 30
0.0
  0
VERTEX
  5
292
330
290
100
AcDbEntity
  8
Ebene 1
 62
   179
420
  1709851
370
    18
100
AcDbVertex
100
AcDb2dVertex
 10
139.9787081898317
 20
-180.7669161874472
 30
0.0
  0
VERTEX
  5
293
330
290
100
AcDbEntity
  8
Ebene 1
 62
   179
420
  1709851
370
    18
100
AcDbVertex
100
AcDb2dVertex
 10
139.9787081898317
 20
-174.7765841576947
 30
0.0
  0
SEQEND
  5
294
330
290
100
AcDbEntity
  8
Ebene 1
370
    18
  0
POLYLINE
  5
295
330
138
100
AcDbEntity
  8
Ebene 1
 62
   179
420
  1709851
370
    18
100
AcDb2dPolyline
 66
     1
 10
0.0
 20
0.0
 30
0.0
  0
VERTEX
  5
296
330
295
100
AcDbEntity
  8
Ebene 1
 62
   179
420
  1709851
370
    18
100
AcDbVertex
100
AcDb2dVertex
 10
135.3643472968881
 20
-178.7563584622553
 30
0.0
  0
VERTEX
  5
297
330
295
100
AcDbEntity
  8
Ebene 1
 62
   179
420
  1709851
370
    18
100
AcDbVertex
100
AcDb2dVertex
 10
135.3643472968881
 20
-177.5919161882409
 30
0.0
  0
VERTEX
  5
298
330
295
100
AcDbEntity
  8
Ebene 1
 62
   179
420
  1709851
370
    18
100
AcDbVertex
100
AcDb2dVertex
 10
136.3803059554883
 20
-176.9993597647779
 30
0.0
  0
VERTEX
  5
299
330
295
100
AcDbEntity
  8
Ebene 1
 62
   179
420
  1709851
370
    18
100
AcDbVertex
100
AcDb2dVertex
 10
137.3752495316284
 20
-177.5919161882409
 30
0.0
  0
VERTEX
  5
29A
330
295
100
AcDbEntity
  8
Ebene 1
 62
   179
420
  1709851
370
    18
100
AcDbVertex
100
AcDb2dVertex
 10
137.3752495316284
 20
-178.7563584622553
 30
0.0
  0
VERTEX
  5
29B
330
295
100
AcDbEntity
  8
Ebene 1
 62
   179
420
  1709851
370
    18
100
AcDbVertex
100
AcDb2dVertex
 10
136.3803059554883
 20
-179.3275552937098
 30
0.0
  0
VERTEX
  5
29C
330
295
100
AcDbEntity
  8
Ebene 1
 62
   179
420
  1709851
370
    18
100
AcDbVertex
100
AcDb2dVertex
 10
135.3643472968881
 20
-178.7563584622553
 30
0.0
  0
SEQEND
  5
29D
330
295
100
AcDbEntity
  8
Ebene 1
370
    18
  0
SPLINE
  5
29E
330
138
100
AcDbEntity
  8
Ebene 1
 62
   179
420
  1709851
370
    18
100
AcDbSpline
210
0.0
220
0.0
230
1.0
 70
    11
 71
     3
 72
    17
 73
    13
 74
     0
 42
0.0000000001
 43
0.0000000001
 40
0.0
 40
0.0
 40
0.0
 40
0.0
 40
1.0
 40
1.0
 40
1.0
 40
2.0
 40
2.0
 40
2.0
 40
3.0
 40
3.0
 40
3.0
 40
4.0
 40
4.0
 40
4.0
 40
4.0
 10
137.3752495316284
 20
-178.1638020387924
 30
0.0
 10
137.3752495316284
 20
-177.6132757802495
 30
0.0
 10
136.9094726220226
 20
-177.1688584626522
 30
0.0
 10
136.3803059554883
 20
-177.1688584626522
 30
0.0
 10
135.8297796969453
 20
-177.1688584626522
 30
0.0
 10
135.3853623793481
 20
-177.6132757802495
 30
0.0
 10
135.3853623793481
 20
-178.1638020387924
 30
0.0
 10
135.3853623793481
 20
-178.6929687053268
 30
0.0
 10
135.8297796969453
 20
-179.1580565958355
 30
0.0
 10
136.3803059554883
 20
-179.1580565958355
 30
0.0
 10
136.9304877044827
 20
-179.1580565958355
 30
0.0
 10
137.3752495316284
 20
-178.6929687053268
 30
0.0
 10
137.3752495316284
 20
-178.1638020387924
 30
0.0
  0
POLYLINE
  5
29F
330
138
100
AcDbEntity
  8
Ebene 1
 62
   179
420
  1709851
370
    18
100
AcDb2dPolyline
 66
     1
 10
0.0
 20
0.0
 30
0.0
  0
VERTEX
  5
2A0
330
29F
100
AcDbEntity
  8
Ebene 1
 62
   179
420
  1709851
370
    18
100
AcDbVertex
100
AcDb2dVertex
 10
139.9787081898317
 20
-174.7765841576947
 30
0.0
  0
VERTEX
  5
2A1
330
29F
100
AcDbEntity
  8
Ebene 1
 62
   179
420
  1709851
370
    18
100
AcDbVertex
100
AcDb2dVertex
 10
132.7822482306933
 20
-174.7765841576947
 30
0.0
  0
SEQEND
  5
2A2
330
29F
100
AcDbEntity
  8
Ebene 1
370
    18
  0
POLYLINE
  5
2A3
330
138
100
AcDbEntity
  8
Ebene 1
 62
   179
420
  1709851
370
    18
100
AcDb2dPolyline
 66
     1
 10
0.0
 20
0.0
 30
0.0
  0
VERTEX
  5
2A4
330
2A3
100
AcDbEntity
  8
Ebene 1
 62
   179
420
  1709851
370
    18
100
AcDbVertex
100
AcDb2dVertex
 10
132.7822482306933
 20
-174.7765841576947
 30
0.0
  0
VERTEX
  5
2A5
330
2A3
100
AcDbEntity
  8
Ebene 1
 62
   179
420
  1709851
370
    18
100
AcDbVertex
100
AcDb2dVertex
 10
132.7822482306933
 20
-180.7669161874472
 30
0.0
  0
SEQEND
  5
2A6
330
2A3
100
AcDbEntity
  8
Ebene 1
370
    18
  0
POLYLINE
  5
2A7
330
138
100
AcDbEntity
  8
Ebene 1
 62
   179
420
  1709851
370
    18
100
AcDb2dPolyline
 66
     1
 10
0.0
 20
0.0
 30
0.0
  0
VERTEX
  5
2A8
330
2A7
100
AcDbEntity
  8
Ebene 1
 62
   179
420
  1709851
370
    18
100
AcDbVertex
100
AcDb2dVertex
 10
191.6675428123262
 20
-175.7715277338349
 30
0.0
  0
VERTEX
  5
2A9
330
2A7
100
AcDbEntity
  8
Ebene 1
 62
   179
420
  1709851
370
    18
100
AcDbVertex
100
AcDb2dVertex
 10
193.8689588274008
 20
-175.7715277338349
 30
0.0
  0
SEQEND
  5
2AA
330
2A7
100
AcDbEntity
  8
Ebene 1
370
    18
  0
POLYLINE
  5
2AB
330
138
100
AcDbEntity
  8
Ebene 1
 62
   179
420
  1709851
370
    18
100
AcDb2dPolyline
 66
     1
 10
0.0
 20
0.0
 30
0.0
  0
VERTEX
  5
2AC
330
2AB
100
AcDbEntity
  8
Ebene 1
 62
   179
420
  1709851
370
    18
100
AcDbVertex
100
AcDb2dVertex
 10
191.5621228904775
 20
-179.4756943995755
 30
0.0
  0
VERTEX
  5
2AD
330
2AB
100
AcDbEntity
  8
Ebene 1
 62
   179
420
  1709851
370
    18
100
AcDbVertex
100
AcDb2dVertex
 10
191.5621228904775
 20
-180.4706379757157
 30
0.0
  0
SEQEND
  5
2AE
330
2AB
100
AcDbEntity
  8
Ebene 1
370
    18
  0
POLYLINE
  5
2AF
330
138
100
AcDbEntity
  8
Ebene 1
 62
   179
420
  1709851
370
    18
100
AcDb2dPolyline
 66
     1
 10
0.0
 20
0.0
 30
0.0
  0
VERTEX
  5
2B0
330
2AF
100
AcDbEntity
  8
Ebene 1
 62
   179
420
  1709851
370
    18
100
AcDbVertex
100
AcDb2dVertex
 10
193.8689588274008
 20
-180.5760578975643
 30
0.0
  0
VERTEX
  5
2B1
330
2AF
100
AcDbEntity
  8
Ebene 1
 62
   179
420
  1709851
370
    18
100
AcDbVertex
100
AcDb2dVertex
 10
193.953708176338
 20
-180.5340277326443
 30
0.0
  0
VERTEX
  5
2B2
330
2AF
100
AcDbEntity
  8
Ebene 1
 62
   179
420
  1709851
370
    18
100
AcDbVertex
100
AcDb2dVertex
 10
193.974723258798
 20
-180.4706379757157
 30
0.0
  0
SEQEND
  5
2B3
330
2AF
100
AcDbEntity
  8
Ebene 1
370
    18
  0
POLYLINE
  5
2B4
330
138
100
AcDbEntity
  8
Ebene 1
 62
   179
420
  1709851
370
    18
100
AcDb2dPolyline
 66
     1
 10
0.0
 20
0.0
 30
0.0
  0
VERTEX
  5
2B5
330
2B4
100
AcDbEntity
  8
Ebene 1
 62
   179
420
  1709851
370
    18
100
AcDbVertex
100
AcDb2dVertex
 10
191.5621228904775
 20
-180.4706379757157
 30
0.0
  0
VERTEX
  5
2B6
330
2B4
100
AcDbEntity
  8
Ebene 1
 62
   179
420
  1709851
370
    18
100
AcDbVertex
100
AcDb2dVertex
 10
191.6041530553976
 20
-180.5553873246528
 30
0.0
  0
VERTEX
  5
2B7
330
2B4
100
AcDbEntity
  8
Ebene 1
 62
   179
420
  1709851
370
    18
100
AcDbVertex
100
AcDb2dVertex
 10
191.6675428123262
 20
-180.5760578975643
 30
0.0
  0
SEQEND
  5
2B8
330
2B4
100
AcDbEntity
  8
Ebene 1
370
    18
  0
POLYLINE
  5
2B9
330
138
100
AcDbEntity
  8
Ebene 1
 62
   179
420
  1709851
370
    18
100
AcDb2dPolyline
 66
     1
 10
0.0
 20
0.0
 30
0.0
  0
VERTEX
  5
2BA
330
2B9
100
AcDbEntity
  8
Ebene 1
 62
   179
420
  1709851
370
    18
100
AcDbVertex
100
AcDb2dVertex
 10
193.8689588274008
 20
-180.5760578975643
 30
0.0
  0
VERTEX
  5
2BB
330
2B9
100
AcDbEntity
  8
Ebene 1
 62
   179
420
  1709851
370
    18
100
AcDbVertex
100
AcDb2dVertex
 10
191.6675428123262
 20
-180.5760578975643
 30
0.0
  0
SEQEND
  5
2BC
330
2B9
100
AcDbEntity
  8
Ebene 1
370
    18
  0
POLYLINE
  5
2BD
330
138
100
AcDbEntity
  8
Ebene 1
 62
   179
420
  1709851
370
    18
100
AcDb2dPolyline
 66
     1
 10
0.0
 20
0.0
 30
0.0
  0
VERTEX
  5
2BE
330
2BD
100
AcDbEntity
  8
Ebene 1
 62
   179
420
  1709851
370
    18
100
AcDbVertex
100
AcDb2dVertex
 10
193.974723258798
 20
-175.8776366747806
 30
0.0
  0
VERTEX
  5
2BF
330
2BD
100
AcDbEntity
  8
Ebene 1
 62
   179
420
  1709851
370
    18
100
AcDbVertex
100
AcDb2dVertex
 10
193.9323485843294
 20
-175.7928873258435
 30
0.0
  0
VERTEX
  5
2C0
330
2BD
100
AcDbEntity
  8
Ebene 1
 62
   179
420
  1709851
370
    18
100
AcDbVertex
100
AcDb2dVertex
 10
193.8689588274008
 20
-175.7715277338349
 30
0.0
  0
SEQEND
  5
2C1
330
2BD
100
AcDbEntity
  8
Ebene 1
370
    18
  0
POLYLINE
  5
2C2
330
138
100
AcDbEntity
  8
Ebene 1
 62
   179
420
  1709851
370
    18
100
AcDb2dPolyline
 66
     1
 10
0.0
 20
0.0
 30
0.0
  0
VERTEX
  5
2C3
330
2C2
100
AcDbEntity
  8
Ebene 1
 62
   179
420
  1709851
370
    18
100
AcDbVertex
100
AcDb2dVertex
 10
193.974723258798
 20
-175.8776366747806
 30
0.0
  0
VERTEX
  5
2C4
330
2C2
100
AcDbEntity
  8
Ebene 1
 62
   179
420
  1709851
370
    18
100
AcDbVertex
100
AcDb2dVertex
 10
193.974723258798
 20
-180.4706379757157
 30
0.0
  0
SEQEND
  5
2C5
330
2C2
100
AcDbEntity
  8
Ebene 1
370
    18
  0
POLYLINE
  5
2C6
330
138
100
AcDbEntity
  8
Ebene 1
 62
   179
420
  1709851
370
    18
100
AcDb2dPolyline
 66
     1
 10
0.0
 20
0.0
 30
0.0
  0
VERTEX
  5
2C7
330
2C6
100
AcDbEntity
  8
Ebene 1
 62
   179
420
  1709851
370
    18
100
AcDbVertex
100
AcDb2dVertex
 10
191.6675428123262
 20
-175.7715277338349
 30
0.0
  0
VERTEX
  5
2C8
330
2C6
100
AcDbEntity
  8
Ebene 1
 62
   179
420
  1709851
370
    18
100
AcDbVertex
100
AcDb2dVertex
 10
191.582793463389
 20
-175.813557898755
 30
0.0
  0
VERTEX
  5
2C9
330
2C6
100
AcDbEntity
  8
Ebene 1
 62
   179
420
  1709851
370
    18
100
AcDbVertex
100
AcDb2dVertex
 10
191.5621228904775
 20
-175.8776366747806
 30
0.0
  0
SEQEND
  5
2CA
330
2C6
100
AcDbEntity
  8
Ebene 1
370
    18
  0
POLYLINE
  5
2CB
330
138
100
AcDbEntity
  8
Ebene 1
 62
   179
420
  1709851
370
    18
100
AcDb2dPolyline
 66
     1
 10
0.0
 20
0.0
 30
0.0
  0
VERTEX
  5
2CC
330
2CB
100
AcDbEntity
  8
Ebene 1
 62
   179
420
  1709851
370
    18
100
AcDbVertex
100
AcDb2dVertex
 10
191.5621228904775
 20
-179.4756943995755
 30
0.0
  0
VERTEX
  5
2CD
330
2CB
100
AcDbEntity
  8
Ebene 1
 62
   179
420
  1709851
370
    18
100
AcDbVertex
100
AcDb2dVertex
 10
191.5621228904775
 20
-176.8718912318237
 30
0.0
  0
VERTEX
  5
2CE
330
2CB
100
AcDbEntity
  8
Ebene 1
 62
   179
420
  1709851
370
    18
100
AcDbVertex
100
AcDb2dVertex
 10
191.5621228904775
 20
-175.8776366747806
 30
0.0
  0
SEQEND
  5
2CF
330
2CB
100
AcDbEntity
  8
Ebene 1
370
    18
  0
POLYLINE
  5
2D0
330
138
100
AcDbEntity
  8
Ebene 1
 62
   179
420
  1709851
370
    18
100
AcDb2dPolyline
 66
     1
 10
0.0
 20
0.0
 30
0.0
  0
VERTEX
  5
2D1
330
2D0
100
AcDbEntity
  8
Ebene 1
 62
   179
420
  1709851
370
    18
100
AcDbVertex
100
AcDb2dVertex
 10
191.5621228904775
 20
-179.4756943995755
 30
0.0
  0
VERTEX
  5
2D2
330
2D0
100
AcDbEntity
  8
Ebene 1
 62
   179
420
  1709851
370
    18
100
AcDbVertex
100
AcDb2dVertex
 10
189.5722357381972
 20
-179.4756943995755
 30
0.0
  0
SEQEND
  5
2D3
330
2D0
100
AcDbEntity
  8
Ebene 1
370
    18
  0
POLYLINE
  5
2D4
330
138
100
AcDbEntity
  8
Ebene 1
 62
   179
420
  1709851
370
    18
100
AcDb2dPolyline
 66
     1
 10
0.0
 20
0.0
 30
0.0
  0
VERTEX
  5
2D5
330
2D4
100
AcDbEntity
  8
Ebene 1
 62
   179
420
  1709851
370
    18
100
AcDbVertex
100
AcDb2dVertex
 10
183.963275778662
 20
-180.7669161874472
 30
0.0
  0
VERTEX
  5
2D6
330
2D4
100
AcDbEntity
  8
Ebene 1
 62
   179
420
  1709851
370
    18
100
AcDbVertex
100
AcDb2dVertex
 10
191.1807508202604
 20
-180.7669161874472
 30
0.0
  0
VERTEX
  5
2D7
330
2D4
100
AcDbEntity
  8
Ebene 1
 62
   179
420
  1709851
370
    18
100
AcDbVertex
100
AcDb2dVertex
 10
191.1807508202604
 20
-179.4756943995755
 30
0.0
  0
SEQEND
  5
2D8
330
2D4
100
AcDbEntity
  8
Ebene 1
370
    18
  0
POLYLINE
  5
2D9
330
138
100
AcDbEntity
  8
Ebene 1
 62
   179
420
  1709851
370
    18
100
AcDb2dPolyline
 66
     1
 10
0.0
 20
0.0
 30
0.0
  0
VERTEX
  5
2DA
330
2D9
100
AcDbEntity
  8
Ebene 1
 62
   179
420
  1709851
370
    18
100
AcDbVertex
100
AcDb2dVertex
 10
186.5663899273167
 20
-178.7563584622553
 30
0.0
  0
VERTEX
  5
2DB
330
2D9
100
AcDbEntity
  8
Ebene 1
 62
   179
420
  1709851
370
    18
100
AcDbVertex
100
AcDb2dVertex
 10
186.5663899273167
 20
-177.5919161882409
 30
0.0
  0
VERTEX
  5
2DC
330
2D9
100
AcDbEntity
  8
Ebene 1
 62
   179
420
  1709851
370
    18
100
AcDbVertex
100
AcDb2dVertex
 10
187.5823485859169
 20
-176.9993597647779
 30
0.0
  0
VERTEX
  5
2DD
330
2D9
100
AcDbEntity
  8
Ebene 1
 62
   179
420
  1709851
370
    18
100
AcDbVertex
100
AcDb2dVertex
 10
188.5772921620571
 20
-177.5919161882409
 30
0.0
  0
VERTEX
  5
2DE
330
2D9
100
AcDbEntity
  8
Ebene 1
 62
   179
420
  1709851
370
    18
100
AcDbVertex
100
AcDb2dVertex
 10
188.5772921620571
 20
-178.7563584622553
 30
0.0
  0
VERTEX
  5
2DF
330
2D9
100
AcDbEntity
  8
Ebene 1
 62
   179
420
  1709851
370
    18
100
AcDbVertex
100
AcDb2dVertex
 10
187.5823485859169
 20
-179.3275552937098
 30
0.0
  0
VERTEX
  5
2E0
330
2D9
100
AcDbEntity
  8
Ebene 1
 62
   179
420
  1709851
370
    18
100
AcDbVertex
100
AcDb2dVertex
 10
186.5663899273167
 20
-178.7563584622553
 30
0.0
  0
SEQEND
  5
2E1
330
2D9
100
AcDbEntity
  8
Ebene 1
370
    18
  0
SPLINE
  5
2E2
330
138
100
AcDbEntity
  8
Ebene 1
 62
   179
420
  1709851
370
    18
100
AcDbSpline
210
0.0
220
0.0
230
1.0
 70
    11
 71
     3
 72
    17
 73
    13
 74
     0
 42
0.0000000001
 43
0.0000000001
 40
0.0
 40
0.0
 40
0.0
 40
0.0
 40
1.0
 40
1.0
 40
1.0
 40
2.0
 40
2.0
 40
2.0
 40
3.0
 40
3.0
 40
3.0
 40
4.0
 40
4.0
 40
4.0
 40
4.0
 10
188.5776366716056
 20
-178.1638020387924
 30
0.0
 10
188.5776366716056
 20
-177.6132757802495
 30
0.0
 10
188.1115152524513
 20
-177.1688584626522
 30
0.0
 10
187.5823485859169
 20
-177.1688584626522
 30
0.0
 10
187.0321668369225
 20
-177.1688584626522
 30
0.0
 10
186.5877495193253
 20
-177.6132757802495
 30
0.0
 10
186.5877495193253
 20
-178.1638020387924
 30
0.0
 10
186.5877495193253
 20
-178.6929687053268
 30
0.0
 10
187.0321668369225
 20
-179.1580565958355
 30
0.0
 10
187.5823485859169
 20
-179.1580565958355
 30
0.0
 10
188.1328748444598
 20
-179.1580565958355
 30
0.0
 10
188.5776366716056
 20
-178.6929687053268
 30
0.0
 10
188.5776366716056
 20
-178.1638020387924
 30
0.0
  0
POLYLINE
  5
2E3
330
138
100
AcDbEntity
  8
Ebene 1
 62
   179
420
  1709851
370
    18
100
AcDb2dPolyline
 66
     1
 10
0.0
 20
0.0
 30
0.0
  0
VERTEX
  5
2E4
330
2E3
100
AcDbEntity
  8
Ebene 1
 62
   179
420
  1709851
370
    18
100
AcDbVertex
100
AcDb2dVertex
 10
189.7627495185315
 20
-176.8718912318237
 30
0.0
  0
VERTEX
  5
2E5
330
2E3
100
AcDbEntity
  8
Ebene 1
 62
   179
420
  1709851
370
    18
100
AcDbVertex
100
AcDb2dVertex
 10
189.7627495185315
 20
-176.6603623690294
 30
0.0
  0
VERTEX
  5
2E6
330
2E3
100
AcDbEntity
  8
Ebene 1
 62
   179
420
  1709851
370
    18
100
AcDbVertex
100
AcDb2dVertex
 10
189.3817219578629
 20
-176.6603623690294
 30
0.0
  0
VERTEX
  5
2E7
330
2E3
100
AcDbEntity
  8
Ebene 1
 62
   179
420
  1709851
370
    18
100
AcDbVertex
100
AcDb2dVertex
 10
189.3817219578629
 20
-179.6658636703613
 30
0.0
  0
SEQEND
  5
2E8
330
2E3
100
AcDbEntity
  8
Ebene 1
370
    18
  0
POLYLINE
  5
2E9
330
138
100
AcDbEntity
  8
Ebene 1
 62
   179
420
  1709851
370
    18
100
AcDb2dPolyline
 66
     1
 10
0.0
 20
0.0
 30
0.0
  0
VERTEX
  5
2EA
330
2E9
100
AcDbEntity
  8
Ebene 1
 62
   179
420
  1709851
370
    18
100
AcDbVertex
100
AcDb2dVertex
 10
189.3817219578629
 20
-179.6658636703613
 30
0.0
  0
VERTEX
  5
2EB
330
2E9
100
AcDbEntity
  8
Ebene 1
 62
   179
420
  1709851
370
    18
100
AcDbVertex
100
AcDb2dVertex
 10
189.7627495185315
 20
-179.6658636703613
 30
0.0
  0
VERTEX
  5
2EC
330
2E9
100
AcDbEntity
  8
Ebene 1
 62
   179
420
  1709851
370
    18
100
AcDbVertex
100
AcDb2dVertex
 10
189.7627495185315
 20
-179.4756943995755
 30
0.0
  0
SEQEND
  5
2ED
330
2E9
100
AcDbEntity
  8
Ebene 1
370
    18
  0
POLYLINE
  5
2EE
330
138
100
AcDbEntity
  8
Ebene 1
 62
   179
420
  1709851
370
    18
100
AcDb2dPolyline
 66
     1
 10
0.0
 20
0.0
 30
0.0
  0
VERTEX
  5
2EF
330
2EE
100
AcDbEntity
  8
Ebene 1
 62
   179
420
  1709851
370
    18
100
AcDbVertex
100
AcDb2dVertex
 10
189.5722357381972
 20
-176.8718912318237
 30
0.0
  0
VERTEX
  5
2F0
330
2EE
100
AcDbEntity
  8
Ebene 1
 62
   179
420
  1709851
370
    18
100
AcDbVertex
100
AcDb2dVertex
 10
189.5722357381972
 20
-179.4756943995755
 30
0.0
  0
SEQEND
  5
2F1
330
2EE
100
AcDbEntity
  8
Ebene 1
370
    18
  0
POLYLINE
  5
2F2
330
138
100
AcDbEntity
  8
Ebene 1
 62
   179
420
  1709851
370
    18
100
AcDb2dPolyline
 66
     1
 10
0.0
 20
0.0
 30
0.0
  0
VERTEX
  5
2F3
330
2F2
100
AcDbEntity
  8
Ebene 1
 62
   179
420
  1709851
370
    18
100
AcDbVertex
100
AcDb2dVertex
 10
189.5722357381972
 20
-176.8718912318237
 30
0.0
  0
VERTEX
  5
2F4
330
2F2
100
AcDbEntity
  8
Ebene 1
 62
   179
420
  1709851
370
    18
100
AcDbVertex
100
AcDb2dVertex
 10
191.5621228904775
 20
-176.8718912318237
 30
0.0
  0
SEQEND
  5
2F5
330
2F2
100
AcDbEntity
  8
Ebene 1
370
    18
  0
POLYLINE
  5
2F6
330
138
100
AcDbEntity
  8
Ebene 1
 62
   179
420
  1709851
370
    18
100
AcDb2dPolyline
 66
     1
 10
0.0
 20
0.0
 30
0.0
  0
VERTEX
  5
2F7
330
2F6
100
AcDbEntity
  8
Ebene 1
 62
   179
420
  1709851
370
    18
100
AcDbVertex
100
AcDb2dVertex
 10
191.1807508202604
 20
-176.8718912318237
 30
0.0
  0
VERTEX
  5
2F8
330
2F6
100
AcDbEntity
  8
Ebene 1
 62
   179
420
  1709851
370
    18
100
AcDbVertex
100
AcDb2dVertex
 10
191.1807508202604
 20
-174.7765841576947
 30
0.0
  0
SEQEND
  5
2F9
330
2F6
100
AcDbEntity
  8
Ebene 1
370
    18
  0
POLYLINE
  5
2FA
330
138
100
AcDbEntity
  8
Ebene 1
 62
   179
420
  1709851
370
    18
100
AcDb2dPolyline
 66
     1
 10
0.0
 20
0.0
 30
0.0
  0
VERTEX
  5
2FB
330
2FA
100
AcDbEntity
  8
Ebene 1
 62
   179
420
  1709851
370
    18
100
AcDbVertex
100
AcDb2dVertex
 10
191.1807508202604
 20
-174.7765841576947
 30
0.0
  0
VERTEX
  5
2FC
330
2FA
100
AcDbEntity
  8
Ebene 1
 62
   179
420
  1709851
370
    18
100
AcDbVertex
100
AcDb2dVertex
 10
183.963275778662
 20
-174.7765841576947
 30
0.0
  0
SEQEND
  5
2FD
330
2FA
100
AcDbEntity
  8
Ebene 1
370
    18
  0
POLYLINE
  5
2FE
330
138
100
AcDbEntity
  8
Ebene 1
 62
   179
420
  1709851
370
    18
100
AcDb2dPolyline
 66
     1
 10
0.0
 20
0.0
 30
0.0
  0
VERTEX
  5
2FF
330
2FE
100
AcDbEntity
  8
Ebene 1
 62
   179
420
  1709851
370
    18
100
AcDbVertex
100
AcDb2dVertex
 10
183.963275778662
 20
-174.7765841576947
 30
0.0
  0
VERTEX
  5
300
330
2FE
100
AcDbEntity
  8
Ebene 1
 62
   179
420
  1709851
370
    18
100
AcDbVertex
100
AcDb2dVertex
 10
183.963275778662
 20
-180.7669161874472
 30
0.0
  0
SEQEND
  5
301
330
2FE
100
AcDbEntity
  8
Ebene 1
370
    18
  0
POLYLINE
  5
302
330
138
100
AcDbEntity
  8
Ebene 1
 62
   179
420
  1709851
370
    18
100
AcDb2dPolyline
 66
     1
 10
0.0
 20
0.0
 30
0.0
  0
VERTEX
  5
303
330
302
100
AcDbEntity
  8
Ebene 1
 62
   179
420
  1709851
370
    18
100
AcDbVertex
100
AcDb2dVertex
 10
71.67383353242877
 20
-175.7715277338349
 30
0.0
  0
VERTEX
  5
304
330
302
100
AcDbEntity
  8
Ebene 1
 62
   179
420
  1709851
370
    18
100
AcDbVertex
100
AcDb2dVertex
 10
73.87507729272915
 20
-175.7715277338349
 30
0.0
  0
SEQEND
  5
305
330
302
100
AcDbEntity
  8
Ebene 1
370
    18
  0
POLYLINE
  5
306
330
138
100
AcDbEntity
  8
Ebene 1
 62
   179
420
  1709851
370
    18
100
AcDb2dPolyline
 66
     1
 10
0.0
 20
0.0
 30
0.0
  0
VERTEX
  5
307
330
306
100
AcDbEntity
  8
Ebene 1
 62
   179
420
  1709851
370
    18
100
AcDbVertex
100
AcDb2dVertex
 10
71.58908418349162
 20
-179.4756943995755
 30
0.0
  0
VERTEX
  5
308
330
306
100
AcDbEntity
  8
Ebene 1
 62
   179
420
  1709851
370
    18
100
AcDbVertex
100
AcDb2dVertex
 10
71.58908418349162
 20
-180.4706379757157
 30
0.0
  0
SEQEND
  5
309
330
306
100
AcDbEntity
  8
Ebene 1
370
    18
  0
POLYLINE
  5
30A
330
138
100
AcDbEntity
  8
Ebene 1
 62
   179
420
  1709851
370
    18
100
AcDb2dPolyline
 66
     1
 10
0.0
 20
0.0
 30
0.0
  0
VERTEX
  5
30B
330
30A
100
AcDbEntity
  8
Ebene 1
 62
   179
420
  1709851
370
    18
100
AcDbVertex
100
AcDb2dVertex
 10
73.87507729272915
 20
-180.5760578975643
 30
0.0
  0
VERTEX
  5
30C
330
30A
100
AcDbEntity
  8
Ebene 1
 62
   179
420
  1709851
370
    18
100
AcDbVertex
100
AcDb2dVertex
 10
73.9598266416663
 20
-180.5340277326443
 30
0.0
  0
VERTEX
  5
30D
330
30A
100
AcDbEntity
  8
Ebene 1
 62
   179
420
  1709851
370
    18
100
AcDbVertex
100
AcDb2dVertex
 10
73.98084172412632
 20
-180.4706379757157
 30
0.0
  0
SEQEND
  5
30E
330
30A
100
AcDbEntity
  8
Ebene 1
370
    18
  0
POLYLINE
  5
30F
330
138
100
AcDbEntity
  8
Ebene 1
 62
   179
420
  1709851
370
    18
100
AcDb2dPolyline
 66
     1
 10
0.0
 20
0.0
 30
0.0
  0
VERTEX
  5
310
330
30F
100
AcDbEntity
  8
Ebene 1
 62
   179
420
  1709851
370
    18
100
AcDbVertex
100
AcDb2dVertex
 10
71.58908418349162
 20
-180.4706379757157
 30
0.0
  0
VERTEX
  5
311
330
30F
100
AcDbEntity
  8
Ebene 1
 62
   179
420
  1709851
370
    18
100
AcDbVertex
100
AcDb2dVertex
 10
71.6314588579602
 20
-180.5553873246528
 30
0.0
  0
VERTEX
  5
312
330
30F
100
AcDbEntity
  8
Ebene 1
 62
   179
420
  1709851
370
    18
100
AcDbVertex
100
AcDb2dVertex
 10
71.67383353242877
 20
-180.5760578975643
 30
0.0
  0
SEQEND
  5
313
330
30F
100
AcDbEntity
  8
Ebene 1
370
    18
  0
POLYLINE
  5
314
330
138
100
AcDbEntity
  8
Ebene 1
 62
   179
420
  1709851
370
    18
100
AcDb2dPolyline
 66
     1
 10
0.0
 20
0.0
 30
0.0
  0
VERTEX
  5
315
330
314
100
AcDbEntity
  8
Ebene 1
 62
   179
420
  1709851
370
    18
100
AcDbVertex
100
AcDb2dVertex
 10
73.87507729272915
 20
-180.5760578975643
 30
0.0
  0
VERTEX
  5
316
330
314
100
AcDbEntity
  8
Ebene 1
 62
   179
420
  1709851
370
    18
100
AcDbVertex
100
AcDb2dVertex
 10
71.67383353242877
 20
-180.5760578975643
 30
0.0
  0
SEQEND
  5
317
330
314
100
AcDbEntity
  8
Ebene 1
370
    18
  0
POLYLINE
  5
318
330
138
100
AcDbEntity
  8
Ebene 1
 62
   179
420
  1709851
370
    18
100
AcDb2dPolyline
 66
     1
 10
0.0
 20
0.0
 30
0.0
  0
VERTEX
  5
319
330
318
100
AcDbEntity
  8
Ebene 1
 62
   179
420
  1709851
370
    18
100
AcDbVertex
100
AcDb2dVertex
 10
73.98084172412632
 20
-175.8776366747806
 30
0.0
  0
VERTEX
  5
31A
330
318
100
AcDbEntity
  8
Ebene 1
 62
   179
420
  1709851
370
    18
100
AcDbVertex
100
AcDb2dVertex
 10
73.93863930443202
 20
-175.7928873258435
 30
0.0
  0
VERTEX
  5
31B
330
318
100
AcDbEntity
  8
Ebene 1
 62
   179
420
  1709851
370
    18
100
AcDbVertex
100
AcDb2dVertex
 10
73.87507729272915
 20
-175.7715277338349
 30
0.0
  0
SEQEND
  5
31C
330
318
100
AcDbEntity
  8
Ebene 1
370
    18
  0
POLYLINE
  5
31D
330
138
100
AcDbEntity
  8
Ebene 1
 62
   179
420
  1709851
370
    18
100
AcDb2dPolyline
 66
     1
 10
0.0
 20
0.0
 30
0.0
  0
VERTEX
  5
31E
330
31D
100
AcDbEntity
  8
Ebene 1
 62
   179
420
  1709851
370
    18
100
AcDbVertex
100
AcDb2dVertex
 10
73.98084172412632
 20
-175.8776366747806
 30
0.0
  0
VERTEX
  5
31F
330
31D
100
AcDbEntity
  8
Ebene 1
 62
   179
420
  1709851
370
    18
100
AcDbVertex
100
AcDb2dVertex
 10
73.98084172412632
 20
-180.4706379757157
 30
0.0
  0
SEQEND
  5
320
330
31D
100
AcDbEntity
  8
Ebene 1
370
    18
  0
POLYLINE
  5
321
330
138
100
AcDbEntity
  8
Ebene 1
 62
   179
420
  1709851
370
    18
100
AcDb2dPolyline
 66
     1
 10
0.0
 20
0.0
 30
0.0
  0
VERTEX
  5
322
330
321
100
AcDbEntity
  8
Ebene 1
 62
   179
420
  1709851
370
    18
100
AcDbVertex
100
AcDb2dVertex
 10
71.67383353242877
 20
-175.7715277338349
 30
0.0
  0
VERTEX
  5
323
330
321
100
AcDbEntity
  8
Ebene 1
 62
   179
420
  1709851
370
    18
100
AcDbVertex
100
AcDb2dVertex
 10
71.6102715207259
 20
-175.813557898755
 30
0.0
  0
VERTEX
  5
324
330
321
100
AcDbEntity
  8
Ebene 1
 62
   179
420
  1709851
370
    18
100
AcDbVertex
100
AcDb2dVertex
 10
71.58908418349162
 20
-175.8776366747806
 30
0.0
  0
SEQEND
  5
325
330
321
100
AcDbEntity
  8
Ebene 1
370
    18
  0
POLYLINE
  5
326
330
138
100
AcDbEntity
  8
Ebene 1
 62
   179
420
  1709851
370
    18
100
AcDb2dPolyline
 66
     1
 10
0.0
 20
0.0
 30
0.0
  0
VERTEX
  5
327
330
326
100
AcDbEntity
  8
Ebene 1
 62
   179
420
  1709851
370
    18
100
AcDbVertex
100
AcDb2dVertex
 10
71.58908418349162
 20
-179.4756943995755
 30
0.0
  0
VERTEX
  5
328
330
326
100
AcDbEntity
  8
Ebene 1
 62
   179
420
  1709851
370
    18
100
AcDbVertex
100
AcDb2dVertex
 10
71.58908418349162
 20
-176.8718912318237
 30
0.0
  0
VERTEX
  5
329
330
326
100
AcDbEntity
  8
Ebene 1
 62
   179
420
  1709851
370
    18
100
AcDbVertex
100
AcDb2dVertex
 10
71.58908418349162
 20
-175.8776366747806
 30
0.0
  0
SEQEND
  5
32A
330
326
100
AcDbEntity
  8
Ebene 1
370
    18
  0
POLYLINE
  5
32B
330
138
100
AcDbEntity
  8
Ebene 1
 62
   179
420
  1709851
370
    18
100
AcDb2dPolyline
 66
     1
 10
0.0
 20
0.0
 30
0.0
  0
VERTEX
  5
32C
330
32B
100
AcDbEntity
  8
Ebene 1
 62
   179
420
  1709851
370
    18
100
AcDbVertex
100
AcDb2dVertex
 10
71.58908418349162
 20
-179.4756943995755
 30
0.0
  0
VERTEX
  5
32D
330
32B
100
AcDbEntity
  8
Ebene 1
 62
   179
420
  1709851
370
    18
100
AcDbVertex
100
AcDb2dVertex
 10
69.5781819487513
 20
-179.4756943995755
 30
0.0
  0
SEQEND
  5
32E
330
32B
100
AcDbEntity
  8
Ebene 1
370
    18
  0
POLYLINE
  5
32F
330
138
100
AcDbEntity
  8
Ebene 1
 62
   179
420
  1709851
370
    18
100
AcDb2dPolyline
 66
     1
 10
0.0
 20
0.0
 30
0.0
  0
VERTEX
  5
330
330
32F
100
AcDbEntity
  8
Ebene 1
 62
   179
420
  1709851
370
    18
100
AcDbVertex
100
AcDb2dVertex
 10
71.1868692855887
 20
-180.7669161874472
 30
0.0
  0
VERTEX
  5
331
330
32F
100
AcDbEntity
  8
Ebene 1
 62
   179
420
  1709851
370
    18
100
AcDbVertex
100
AcDb2dVertex
 10
71.1868692855887
 20
-179.4756943995755
 30
0.0
  0
SEQEND
  5
332
330
32F
100
AcDbEntity
  8
Ebene 1
370
    18
  0
POLYLINE
  5
333
330
138
100
AcDbEntity
  8
Ebene 1
 62
   179
420
  1709851
370
    18
100
AcDb2dPolyline
 66
     1
 10
0.0
 20
0.0
 30
0.0
  0
VERTEX
  5
334
330
333
100
AcDbEntity
  8
Ebene 1
 62
   179
420
  1709851
370
    18
100
AcDbVertex
100
AcDb2dVertex
 10
66.57250839264508
 20
-178.7563584622553
 30
0.0
  0
VERTEX
  5
335
330
333
100
AcDbEntity
  8
Ebene 1
 62
   179
420
  1709851
370
    18
100
AcDbVertex
100
AcDb2dVertex
 10
66.57250839264508
 20
-177.5919161882409
 30
0.0
  0
VERTEX
  5
336
330
333
100
AcDbEntity
  8
Ebene 1
 62
   179
420
  1709851
370
    18
100
AcDbVertex
100
AcDb2dVertex
 10
67.58863930601952
 20
-176.9993597647779
 30
0.0
  0
VERTEX
  5
337
330
333
100
AcDbEntity
  8
Ebene 1
 62
   179
420
  1709851
370
    18
100
AcDbVertex
100
AcDb2dVertex
 10
68.5834106273854
 20
-177.5919161882409
 30
0.0
  0
VERTEX
  5
338
330
333
100
AcDbEntity
  8
Ebene 1
 62
   179
420
  1709851
370
    18
100
AcDbVertex
100
AcDb2dVertex
 10
68.5834106273854
 20
-178.7563584622553
 30
0.0
  0
VERTEX
  5
339
330
333
100
AcDbEntity
  8
Ebene 1
 62
   179
420
  1709851
370
    18
100
AcDbVertex
100
AcDb2dVertex
 10
67.58863930601952
 20
-179.3275552937098
 30
0.0
  0
VERTEX
  5
33A
330
333
100
AcDbEntity
  8
Ebene 1
 62
   179
420
  1709851
370
    18
100
AcDbVertex
100
AcDb2dVertex
 10
66.57250839264508
 20
-178.7563584622553
 30
0.0
  0
SEQEND
  5
33B
330
333
100
AcDbEntity
  8
Ebene 1
370
    18
  0
SPLINE
  5
33C
330
138
100
AcDbEntity
  8
Ebene 1
 62
   179
420
  1709851
370
    18
100
AcDbSpline
210
0.0
220
0.0
230
1.0
 70
    11
 71
     3
 72
    17
 73
    13
 74
     0
 42
0.0000000001
 43
0.0000000001
 40
0.0
 40
0.0
 40
0.0
 40
0.0
 40
1.0
 40
1.0
 40
1.0
 40
2.0
 40
2.0
 40
2.0
 40
3.0
 40
3.0
 40
3.0
 40
4.0
 40
4.0
 40
4.0
 40
4.0
 10
68.5834106273854
 20
-178.1638020387924
 30
0.0
 10
68.5834106273854
 20
-177.6132757802495
 30
0.0
 10
68.11780597255388
 20
-177.1688584626522
 30
0.0
 10
67.58863930601952
 20
-177.1688584626522
 30
0.0
 10
67.03828530225084
 20
-177.1688584626522
 30
0.0
 10
66.59369572987936
 20
-177.6132757802495
 30
0.0
 10
66.59369572987936
 20
-178.1638020387924
 30
0.0
 10
66.59369572987936
 20
-178.6929687053268
 30
0.0
 10
67.03828530225084
 20
-179.1580565958355
 30
0.0
 10
67.58863930601952
 20
-179.1580565958355
 30
0.0
 10
68.13899330978818
 20
-179.1580565958355
 30
0.0
 10
68.5834106273854
 20
-178.6929687053268
 30
0.0
 10
68.5834106273854
 20
-178.1638020387924
 30
0.0
  0
POLYLINE
  5
33D
330
138
100
AcDbEntity
  8
Ebene 1
 62
   179
420
  1709851
370
    18
100
AcDb2dPolyline
 66
     1
 10
0.0
 20
0.0
 30
0.0
  0
VERTEX
  5
33E
330
33D
100
AcDbEntity
  8
Ebene 1
 62
   179
420
  1709851
370
    18
100
AcDbVertex
100
AcDb2dVertex
 10
69.78988306631989
 20
-176.8718912318237
 30
0.0
  0
VERTEX
  5
33F
330
33D
100
AcDbEntity
  8
Ebene 1
 62
   179
420
  1709851
370
    18
100
AcDbVertex
100
AcDb2dVertex
 10
69.78988306631989
 20
-176.6603623690294
 30
0.0
  0
VERTEX
  5
340
330
33D
100
AcDbEntity
  8
Ebene 1
 62
   179
420
  1709851
370
    18
100
AcDbVertex
100
AcDb2dVertex
 10
69.38766816841698
 20
-176.6603623690294
 30
0.0
  0
VERTEX
  5
341
330
33D
100
AcDbEntity
  8
Ebene 1
 62
   179
420
  1709851
370
    18
100
AcDbVertex
100
AcDb2dVertex
 10
69.38766816841698
 20
-179.6658636703613
 30
0.0
  0
SEQEND
  5
342
330
33D
100
AcDbEntity
  8
Ebene 1
370
    18
  0
POLYLINE
  5
343
330
138
100
AcDbEntity
  8
Ebene 1
 62
   179
420
  1709851
370
    18
100
AcDb2dPolyline
 66
     1
 10
0.0
 20
0.0
 30
0.0
  0
VERTEX
  5
344
330
343
100
AcDbEntity
  8
Ebene 1
 62
   179
420
  1709851
370
    18
100
AcDbVertex
100
AcDb2dVertex
 10
69.38766816841698
 20
-179.6658636703613
 30
0.0
  0
VERTEX
  5
345
330
343
100
AcDbEntity
  8
Ebene 1
 62
   179
420
  1709851
370
    18
100
AcDbVertex
100
AcDb2dVertex
 10
69.78988306631989
 20
-179.6658636703613
 30
0.0
  0
VERTEX
  5
346
330
343
100
AcDbEntity
  8
Ebene 1
 62
   179
420
  1709851
370
    18
100
AcDbVertex
100
AcDb2dVertex
 10
69.78988306631989
 20
-179.4756943995755
 30
0.0
  0
SEQEND
  5
347
330
343
100
AcDbEntity
  8
Ebene 1
370
    18
  0
POLYLINE
  5
348
330
138
100
AcDbEntity
  8
Ebene 1
 62
   179
420
  1709851
370
    18
100
AcDb2dPolyline
 66
     1
 10
0.0
 20
0.0
 30
0.0
  0
VERTEX
  5
349
330
348
100
AcDbEntity
  8
Ebene 1
 62
   179
420
  1709851
370
    18
100
AcDbVertex
100
AcDb2dVertex
 10
69.5781819487513
 20
-176.8718912318237
 30
0.0
  0
VERTEX
  5
34A
330
348
100
AcDbEntity
  8
Ebene 1
 62
   179
420
  1709851
370
    18
100
AcDbVertex
100
AcDb2dVertex
 10
69.5781819487513
 20
-179.4756943995755
 30
0.0
  0
SEQEND
  5
34B
330
348
100
AcDbEntity
  8
Ebene 1
370
    18
  0
POLYLINE
  5
34C
330
138
100
AcDbEntity
  8
Ebene 1
 62
   179
420
  1709851
370
    18
100
AcDb2dPolyline
 66
     1
 10
0.0
 20
0.0
 30
0.0
  0
VERTEX
  5
34D
330
34C
100
AcDbEntity
  8
Ebene 1
 62
   179
420
  1709851
370
    18
100
AcDbVertex
100
AcDb2dVertex
 10
69.5781819487513
 20
-176.8718912318237
 30
0.0
  0
VERTEX
  5
34E
330
34C
100
AcDbEntity
  8
Ebene 1
 62
   179
420
  1709851
370
    18
100
AcDbVertex
100
AcDb2dVertex
 10
71.58908418349162
 20
-176.8718912318237
 30
0.0
  0
SEQEND
  5
34F
330
34C
100
AcDbEntity
  8
Ebene 1
370
    18
  0
POLYLINE
  5
350
330
138
100
AcDbEntity
  8
Ebene 1
 62
   179
420
  1709851
370
    18
100
AcDb2dPolyline
 66
     1
 10
0.0
 20
0.0
 30
0.0
  0
VERTEX
  5
351
330
350
100
AcDbEntity
  8
Ebene 1
 62
   179
420
  1709851
370
    18
100
AcDbVertex
100
AcDb2dVertex
 10
71.1868692855887
 20
-176.8718912318237
 30
0.0
  0
VERTEX
  5
352
330
350
100
AcDbEntity
  8
Ebene 1
 62
   179
420
  1709851
370
    18
100
AcDbVertex
100
AcDb2dVertex
 10
71.1868692855887
 20
-174.7765841576947
 30
0.0
  0
SEQEND
  5
353
330
350
100
AcDbEntity
  8
Ebene 1
370
    18
  0
POLYLINE
  5
354
330
138
100
AcDbEntity
  8
Ebene 1
 62
   179
420
  1709851
370
    18
100
AcDb2dPolyline
 66
     1
 10
0.0
 20
0.0
 30
0.0
  0
VERTEX
  5
355
330
354
100
AcDbEntity
  8
Ebene 1
 62
   179
420
  1709851
370
    18
100
AcDbVertex
100
AcDb2dVertex
 10
71.1868692855887
 20
-174.7765841576947
 30
0.0
  0
VERTEX
  5
356
330
354
100
AcDbEntity
  8
Ebene 1
 62
   179
420
  1709851
370
    18
100
AcDbVertex
100
AcDb2dVertex
 10
63.99023707167606
 20
-174.7765841576947
 30
0.0
  0
SEQEND
  5
357
330
354
100
AcDbEntity
  8
Ebene 1
370
    18
  0
POLYLINE
  5
358
330
138
100
AcDbEntity
  8
Ebene 1
 62
   179
420
  1709851
370
    18
100
AcDb2dPolyline
 66
     1
 10
0.0
 20
0.0
 30
0.0
  0
VERTEX
  5
359
330
358
100
AcDbEntity
  8
Ebene 1
 62
   179
420
  1709851
370
    18
100
AcDbVertex
100
AcDb2dVertex
 10
63.99023707167606
 20
-174.7765841576947
 30
0.0
  0
VERTEX
  5
35A
330
358
100
AcDbEntity
  8
Ebene 1
 62
   179
420
  1709851
370
    18
100
AcDbVertex
100
AcDb2dVertex
 10
63.99023707167606
 20
-180.7669161874472
 30
0.0
  0
SEQEND
  5
35B
330
358
100
AcDbEntity
  8
Ebene 1
370
    18
  0
POLYLINE
  5
35C
330
138
100
AcDbEntity
  8
Ebene 1
 62
   179
420
  1709851
370
    25
100
AcDb2dPolyline
 66
     1
 10
0.0
 20
0.0
 30
0.0
  0
VERTEX
  5
35D
330
35C
100
AcDbEntity
  8
Ebene 1
 62
   179
420
  1709851
370
    25
100
AcDbVertex
100
AcDb2dVertex
 10
196.0913899249355
 20
-183.0737521243705
 30
0.0
  0
VERTEX
  5
35E
330
35C
100
AcDbEntity
  8
Ebene 1
 62
   179
420
  1709851
370
    25
100
AcDbVertex
100
AcDb2dVertex
 10
162.7752495252784
 20
-183.0737521243705
 30
0.0
  0
SEQEND
  5
35F
330
35C
100
AcDbEntity
  8
Ebene 1
370
    25
  0
POLYLINE
  5
360
330
138
100
AcDbEntity
  8
Ebene 1
 62
   179
420
  1709851
370
    25
100
AcDb2dPolyline
 66
     1
 10
0.0
 20
0.0
 30
0.0
  0
VERTEX
  5
361
330
360
100
AcDbEntity
  8
Ebene 1
 62
   179
420
  1709851
370
    25
100
AcDbVertex
100
AcDb2dVertex
 10
41.17268065376933
 20
-183.0737521243705
 30
0.0
  0
VERTEX
  5
362
330
360
100
AcDbEntity
  8
Ebene 1
 62
   179
420
  1709851
370
    25
100
AcDbVertex
100
AcDb2dVertex
 10
28.11284043350999
 20
-183.0737521243705
 30
0.0
  0
SEQEND
  5
363
330
360
100
AcDbEntity
  8
Ebene 1
370
    25
  0
POLYLINE
  5
364
330
138
100
AcDbEntity
  8
Ebene 1
 62
   179
420
  1709851
370
    25
100
AcDb2dPolyline
 66
     1
 10
0.0
 20
0.0
 30
0.0
  0
VERTEX
  5
365
330
364
100
AcDbEntity
  8
Ebene 1
 62
   179
420
  1709851
370
    25
100
AcDbVertex
100
AcDb2dVertex
 10
161.1663899336667
 20
-183.0737521243705
 30
0.0
  0
VERTEX
  5
366
330
364
100
AcDbEntity
  8
Ebene 1
 62
   179
420
  1709851
370
    25
100
AcDbVertex
100
AcDb2dVertex
 10
42.78136799060675
 20
-183.0737521243705
 30
0.0
  0
SEQEND
  5
367
330
364
100
AcDbEntity
  8
Ebene 1
370
    25
  0
POLYLINE
  5
368
330
138
100
AcDbEntity
  8
Ebene 1
 62
   179
420
  1709851
370
    25
100
AcDb2dPolyline
 66
     1
 10
0.0
 20
0.0
 30
0.0
  0
VERTEX
  5
369
330
368
100
AcDbEntity
  8
Ebene 1
 62
   179
420
  1709851
370
    25
100
AcDbVertex
100
AcDb2dVertex
 10
41.17268065376933
 20
-183.0737521243705
 30
0.0
  0
VERTEX
  5
36A
330
368
100
AcDbEntity
  8
Ebene 1
 62
   179
420
  1709851
370
    25
100
AcDbVertex
100
AcDb2dVertex
 10
41.17268065376933
 20
-180.957085458233
 30
0.0
  0
SEQEND
  5
36B
330
368
100
AcDbEntity
  8
Ebene 1
370
    25
  0
POLYLINE
  5
36C
330
138
100
AcDbEntity
  8
Ebene 1
 62
   179
420
  1709851
370
    25
100
AcDb2dPolyline
 66
     1
 10
0.0
 20
0.0
 30
0.0
  0
VERTEX
  5
36D
330
36C
100
AcDbEntity
  8
Ebene 1
 62
   179
420
  1709851
370
    25
100
AcDbVertex
100
AcDb2dVertex
 10
162.7752495252784
 20
-183.0737521243705
 30
0.0
  0
VERTEX
  5
36E
330
36C
100
AcDbEntity
  8
Ebene 1
 62
   179
420
  1709851
370
    25
100
AcDbVertex
100
AcDb2dVertex
 10
162.7752495252784
 20
-180.957085458233
 30
0.0
  0
SEQEND
  5
36F
330
36C
100
AcDbEntity
  8
Ebene 1
370
    25
  0
POLYLINE
  5
370
330
138
100
AcDbEntity
  8
Ebene 1
 62
   179
420
  1709851
370
    25
100
AcDb2dPolyline
 66
     1
 10
0.0
 20
0.0
 30
0.0
  0
VERTEX
  5
371
330
370
100
AcDbEntity
  8
Ebene 1
 62
   179
420
  1709851
370
    25
100
AcDbVertex
100
AcDb2dVertex
 10
42.78136799060675
 20
-183.0737521243705
 30
0.0
  0
VERTEX
  5
372
330
370
100
AcDbEntity
  8
Ebene 1
 62
   179
420
  1709851
370
    25
100
AcDbVertex
100
AcDb2dVertex
 10
42.78136799060675
 20
-180.957085458233
 30
0.0
  0
SEQEND
  5
373
330
370
100
AcDbEntity
  8
Ebene 1
370
    25
  0
POLYLINE
  5
374
330
138
100
AcDbEntity
  8
Ebene 1
 62
   179
420
  1709851
370
    25
100
AcDb2dPolyline
 66
     1
 10
0.0
 20
0.0
 30
0.0
  0
VERTEX
  5
375
330
374
100
AcDbEntity
  8
Ebene 1
 62
   179
420
  1709851
370
    25
100
AcDbVertex
100
AcDb2dVertex
 10
161.1663899336667
 20
-183.0737521243705
 30
0.0
  0
VERTEX
  5
376
330
374
100
AcDbEntity
  8
Ebene 1
 62
   179
420
  1709851
370
    25
100
AcDbVertex
100
AcDb2dVertex
 10
161.1663899336667
 20
-180.957085458233
 30
0.0
  0
SEQEND
  5
377
330
374
100
AcDbEntity
  8
Ebene 1
370
    25
  0
POLYLINE
  5
378
330
138
100
AcDbEntity
  8
Ebene 1
 62
   179
420
  1709851
370
    25
100
AcDb2dPolyline
 66
     1
 10
0.0
 20
0.0
 30
0.0
  0
VERTEX
  5
379
330
378
100
AcDbEntity
  8
Ebene 1
 62
   179
420
  1709851
370
    25
100
AcDbVertex
100
AcDb2dVertex
 10
28.11284043350999
 20
-180.957085458233
 30
0.0
  0
VERTEX
  5
37A
330
378
100
AcDbEntity
  8
Ebene 1
 62
   179
420
  1709851
370
    25
100
AcDbVertex
100
AcDb2dVertex
 10
41.17268065376933
 20
-180.957085458233
 30
0.0
  0
SEQEND
  5
37B
330
378
100
AcDbEntity
  8
Ebene 1
370
    25
  0
POLYLINE
  5
37C
330
138
100
AcDbEntity
  8
Ebene 1
370
     0
100
AcDb2dPolyline
 66
     1
 10
0.0
 20
0.0
 30
0.0
  0
VERTEX
  5
37D
330
37C
100
AcDbEntity
  8
Ebene 1
370
     0
100
AcDbVertex
100
AcDb2dVertex
 10
27.86944443747709
 20
-213.7447482104527
 30
0.0
  0
VERTEX
  5
37E
330
37C
100
AcDbEntity
  8
Ebene 1
370
     0
100
AcDbVertex
100
AcDb2dVertex
 10
196.3349581757427
 20
-213.7447482104527
 30
0.0
  0
VERTEX
  5
37F
330
37C
100
AcDbEntity
  8
Ebene 1
370
     0
100
AcDbVertex
100
AcDb2dVertex
 10
196.3349581757427
 20
-87.0832288736285
 30
0.0
  0
VERTEX
  5
380
330
37C
100
AcDbEntity
  8
Ebene 1
370
     0
100
AcDbVertex
100
AcDb2dVertex
 10
27.86944443747709
 20
-87.0832288736285
 30
0.0
  0
VERTEX
  5
381
330
37C
100
AcDbEntity
  8
Ebene 1
370
     0
100
AcDbVertex
100
AcDb2dVertex
 10
27.86944443747709
 20
-213.7447482104527
 30
0.0
  0
SEQEND
  5
382
330
37C
100
AcDbEntity
  8
Ebene 1
370
     0
  0
ENDBLK
  5
13B
330
138
100
AcDbEntity
  8
0
100
AcDbBlockEnd
  0
BLOCK
  5
589
330
587
100
AcDbEntity
  8
0
100
AcDbBlockBegin
  2
block 4
 70
     0
 71
     0
 10
0.0
 20
0.0
 30
0.0
  3
block 4
  1

  0
POLYLINE
  5
58B
330
587
100
AcDbEntity
  8
Ebene 1
 62
   179
420
  1709851
370
    25
100
AcDb2dPolyline
 66
     1
 10
0.0
 20
0.0
 30
0.0
  0
VERTEX
  5
58C
330
58B
100
AcDbEntity
  8
Ebene 1
 62
   179
420
  1709851
370
    25
100
AcDbVertex
100
AcDb2dVertex
 10
162.7752495252784
 20
-180.957085458233
 30
0.0
  0
VERTEX
  5
58D
330
58B
100
AcDbEntity
  8
Ebene 1
 62
   179
420
  1709851
370
    25
100
AcDbVertex
100
AcDb2dVertex
 10
196.0913899249355
 20
-180.957085458233
 30
0.0
  0
SEQEND
  5
58E
330
58B
100
AcDbEntity
  8
Ebene 1
370
    25
  0
POLYLINE
  5
58F
330
587
100
AcDbEntity
  8
Ebene 1
370
     0
100
AcDb2dPolyline
 66
     1
 10
0.0
 20
0.0
 30
0.0
  0
VERTEX
  5
590
330
58F
100
AcDbEntity
  8
Ebene 1
370
     0
100
AcDbVertex
100
AcDb2dVertex
 10
27.86944443747709
 20
-213.7447482104527
 30
0.0
  0
VERTEX
  5
591
330
58F
100
AcDbEntity
  8
Ebene 1
370
     0
100
AcDbVertex
100
AcDb2dVertex
 10
196.3349581757427
 20
-213.7447482104527
 30
0.0
  0
VERTEX
  5
592
330
58F
100
AcDbEntity
  8
Ebene 1
370
     0
100
AcDbVertex
100
AcDb2dVertex
 10
196.3349581757427
 20
-87.0832288736285
 30
0.0
  0
VERTEX
  5
593
330
58F
100
AcDbEntity
  8
Ebene 1
370
     0
100
AcDbVertex
100
AcDb2dVertex
 10
27.86944443747709
 20
-87.0832288736285
 30
0.0
  0
VERTEX
  5
594
330
58F
100
AcDbEntity
  8
Ebene 1
370
     0
100
AcDbVertex
100
AcDb2dVertex
 10
27.86944443747709
 20
-213.7447482104527
 30
0.0
  0
SEQEND
  5
595
330
58F
100
AcDbEntity
  8
Ebene 1
370
     0
  0
ENDBLK
  5
58A
330
587
100
AcDbEntity
  8
0
100
AcDbBlockEnd
  0
BLOCK
  5
5A0
330
59E
100
AcDbEntity
  8
0
100
AcDbBlockBegin
  2
block 5
 70
     0
 71
     0
 10
0.0
 20
0.0
 30
0.0
  3
block 5
  1

  0
POLYLINE
  5
5A2
330
59E
100
AcDbEntity
  8
Ebene 1
 62
   179
420
  1709851
370
    13
100
AcDb2dPolyline
 66
     1
 10
0.0
 20
0.0
 30
0.0
  0
VERTEX
  5
5A3
330
5A2
100
AcDbEntity
  8
Ebene 1
 62
   179
420
  1709851
370
    13
100
AcDbVertex
100
AcDb2dVertex
 10
117.0764024229879
 20
-167.1780815554277
 30
0.0
  0
VERTEX
  5
5A4
330
5A2
100
AcDbEntity
  8
Ebene 1
 62
   179
420
  1709851
370
    13
100
AcDbVertex
100
AcDb2dVertex
 10
196.0913899249355
 20
-167.1780815554277
 30
0.0
  0
SEQEND
  5
5A5
330
5A2
100
AcDbEntity
  8
Ebene 1
370
    13
  0
POLYLINE
  5
5A6
330
59E
100
AcDbEntity
  8
Ebene 1
 62
   179
420
  1709851
370
    13
100
AcDb2dPolyline
 66
     1
 10
0.0
 20
0.0
 30
0.0
  0
VERTEX
  5
5A7
330
5A6
100
AcDbEntity
  8
Ebene 1
 62
   179
420
  1709851
370
    13
100
AcDbVertex
100
AcDb2dVertex
 10
118.092361081588
 20
-151.1763020455393
 30
0.0
  0
VERTEX
  5
5A8
330
5A6
100
AcDbEntity
  8
Ebene 1
 62
   179
420
  1709851
370
    13
100
AcDbVertex
100
AcDb2dVertex
 10
123.0877495352003
 20
-167.1780815554277
 30
0.0
  0
VERTEX
  5
5A9
330
5A6
100
AcDbEntity
  8
Ebene 1
 62
   179
420
  1709851
370
    13
100
AcDbVertex
100
AcDb2dVertex
 10
128.1038085617241
 20
-151.1763020455393
 30
0.0
  0
VERTEX
  5
5AA
330
5A6
100
AcDbEntity
  8
Ebene 1
 62
   179
420
  1709851
370
    13
100
AcDbVertex
100
AcDb2dVertex
 10
133.0995415248848
 20
-167.1780815554277
 30
0.0
  0
VERTEX
  5
5AB
330
5A6
100
AcDbEntity
  8
Ebene 1
 62
   179
420
  1709851
370
    13
100
AcDbVertex
100
AcDb2dVertex
 10
138.0949299784971
 20
-151.1763020455393
 30
0.0
  0
VERTEX
  5
5AC
330
5A6
100
AcDbEntity
  8
Ebene 1
 62
   179
420
  1709851
370
    13
100
AcDbVertex
100
AcDb2dVertex
 10
143.0903184321094
 20
-167.1780815554277
 30
0.0
  0
VERTEX
  5
5AD
330
5A6
100
AcDbEntity
  8
Ebene 1
 62
   179
420
  1709851
370
    13
100
AcDbVertex
100
AcDb2dVertex
 10
148.0853623761731
 20
-151.1763020455393
 30
0.0
  0
VERTEX
  5
5AE
330
5A6
100
AcDbEntity
  8
Ebene 1
 62
   179
420
  1709851
370
    13
100
AcDbVertex
100
AcDb2dVertex
 10
153.1021104217939
 20
-167.1780815554277
 30
0.0
  0
VERTEX
  5
5AF
330
5A6
100
AcDbEntity
  8
Ebene 1
 62
   179
420
  1709851
370
    13
100
AcDbVertex
100
AcDb2dVertex
 10
158.0974988754062
 20
-151.1763020455393
 30
0.0
  0
VERTEX
  5
5B0
330
5A6
100
AcDbEntity
  8
Ebene 1
 62
   179
420
  1709851
370
    13
100
AcDbVertex
100
AcDb2dVertex
 10
163.0925428194699
 20
-167.1780815554277
 30
0.0
  0
VERTEX
  5
5B1
330
5A6
100
AcDbEntity
  8
Ebene 1
 62
   179
420
  1709851
370
    13
100
AcDbVertex
100
AcDb2dVertex
 10
168.0879312730822
 20
-151.1763020455393
 30
0.0
  0
VERTEX
  5
5B2
330
5A6
100
AcDbEntity
  8
Ebene 1
 62
   179
420
  1709851
370
    13
100
AcDbVertex
100
AcDb2dVertex
 10
173.0829752171459
 20
-167.1780815554277
 30
0.0
  0
VERTEX
  5
5B3
330
5A6
100
AcDbEntity
  8
Ebene 1
 62
   179
420
  1709851
370
    13
100
AcDbVertex
100
AcDb2dVertex
 10
178.0997232627667
 20
-151.1763020455393
 30
0.0
  0
VERTEX
  5
5B4
330
5A6
100
AcDbEntity
  8
Ebene 1
 62
   179
420
  1709851
370
    13
100
AcDbVertex
100
AcDb2dVertex
 10
183.095111716379
 20
-167.1780815554277
 30
0.0
  0
VERTEX
  5
5B5
330
5A6
100
AcDbEntity
  8
Ebene 1
 62
   179
420
  1709851
370
    13
100
AcDbVertex
100
AcDb2dVertex
 10
188.0901556604427
 20
-151.1763020455393
 30
0.0
  0
VERTEX
  5
5B6
330
5A6
100
AcDbEntity
  8
Ebene 1
 62
   179
420
  1709851
370
    13
100
AcDbVertex
100
AcDb2dVertex
 10
193.0858886236035
 20
-167.1780815554277
 30
0.0
  0
VERTEX
  5
5B7
330
5A6
100
AcDbEntity
  8
Ebene 1
 62
   179
420
  1709851
370
    13
100
AcDbVertex
100
AcDb2dVertex
 10
196.0913899249355
 20
-157.5683322088718
 30
0.0
  0
SEQEND
  5
5B8
330
5A6
100
AcDbEntity
  8
Ebene 1
370
    13
  0
POLYLINE
  5
5B9
330
59E
100
AcDbEntity
  8
Ebene 1
 62
   179
420
  1709851
370
    13
100
AcDb2dPolyline
 66
     1
 10
0.0
 20
0.0
 30
0.0
  0
VERTEX
  5
5BA
330
5B9
100
AcDbEntity
  8
Ebene 1
 62
   179
420
  1709851
370
    13
100
AcDbVertex
100
AcDb2dVertex
 10
196.0913899249355
 20
-87.86664358697432
 30
0.0
  0
VERTEX
  5
5BB
330
5B9
100
AcDbEntity
  8
Ebene 1
 62
   179
420
  1709851
370
    13
100
AcDbVertex
100
AcDb2dVertex
 10
196.0913899249355
 20
-87.16797822256565
 30
0.0
  0
SEQEND
  5
5BC
330
5B9
100
AcDbEntity
  8
Ebene 1
370
    13
  0
POLYLINE
  5
5BD
330
59E
100
AcDbEntity
  8
Ebene 1
 62
   179
420
  1709851
370
    13
100
AcDb2dPolyline
 66
     1
 10
0.0
 20
0.0
 30
0.0
  0
VERTEX
  5
5BE
330
5BD
100
AcDbEntity
  8
Ebene 1
 62
   179
420
  1709851
370
    13
100
AcDbVertex
100
AcDb2dVertex
 10
196.0913899249355
 20
-95.86753334191853
 30
0.0
  0
VERTEX
  5
5BF
330
5BD
100
AcDbEntity
  8
Ebene 1
 62
   179
420
  1709851
370
    13
100
AcDbVertex
100
AcDb2dVertex
 10
196.0913899249355
 20
-88.86124265356594
 30
0.0
  0
SEQEND
  5
5C0
330
5BD
100
AcDbEntity
  8
Ebene 1
370
    13
  0
POLYLINE
  5
5C1
330
59E
100
AcDbEntity
  8
Ebene 1
 62
   179
420
  1709851
370
    13
100
AcDb2dPolyline
 66
     1
 10
0.0
 20
0.0
 30
0.0
  0
VERTEX
  5
5C2
330
5C1
100
AcDbEntity
  8
Ebene 1
 62
   179
420
  1709851
370
    13
100
AcDbVertex
100
AcDb2dVertex
 10
196.0913899249355
 20
-97.85707598465032
 30
0.0
  0
VERTEX
  5
5C3
330
5C1
100
AcDbEntity
  8
Ebene 1
 62
   179
420
  1709851
370
    13
100
AcDbVertex
100
AcDb2dVertex
 10
196.0913899249355
 20
-96.86247691805869
 30
0.0
  0
SEQEND
  5
5C4
330
5C1
100
AcDbEntity
  8
Ebene 1
370
    13
  0
POLYLINE
  5
5C5
330
59E
100
AcDbEntity
  8
Ebene 1
 62
   179
420
  1709851
370
    13
100
AcDb2dPolyline
 66
     1
 10
0.0
 20
0.0
 30
0.0
  0
VERTEX
  5
5C6
330
5C5
100
AcDbEntity
  8
Ebene 1
 62
   179
420
  1709851
370
    13
100
AcDbVertex
100
AcDb2dVertex
 10
196.0913899249355
 20
-105.8583102491431
 30
0.0
  0
VERTEX
  5
5C7
330
5C5
100
AcDbEntity
  8
Ebene 1
 62
   179
420
  1709851
370
    13
100
AcDbVertex
100
AcDb2dVertex
 10
196.0913899249355
 20
-98.85201956079047
 30
0.0
  0
SEQEND
  5
5C8
330
5C5
100
AcDbEntity
  8
Ebene 1
370
    13
  0
POLYLINE
  5
5C9
330
59E
100
AcDbEntity
  8
Ebene 1
 62
   179
420
  1709851
370
    13
100
AcDb2dPolyline
 66
     1
 10
0.0
 20
0.0
 30
0.0
  0
VERTEX
  5
5CA
330
5C9
100
AcDbEntity
  8
Ebene 1
 62
   179
420
  1709851
370
    13
100
AcDbVertex
100
AcDb2dVertex
 10
196.0913899249355
 20
-107.8688679743349
 30
0.0
  0
VERTEX
  5
5CB
330
5C9
100
AcDbEntity
  8
Ebene 1
 62
   179
420
  1709851
370
    13
100
AcDbVertex
100
AcDb2dVertex
 10
196.0913899249355
 20
-106.8529093157347
 30
0.0
  0
SEQEND
  5
5CC
330
5C9
100
AcDbEntity
  8
Ebene 1
370
    13
  0
POLYLINE
  5
5CD
330
59E
100
AcDbEntity
  8
Ebene 1
 62
   179
420
  1709851
370
    13
100
AcDb2dPolyline
 66
     1
 10
0.0
 20
0.0
 30
0.0
  0
VERTEX
  5
5CE
330
5CD
100
AcDbEntity
  8
Ebene 1
 62
   179
420
  1709851
370
    13
100
AcDbVertex
100
AcDb2dVertex
 10
196.0913899249355
 20
-115.8701022388276
 30
0.0
  0
VERTEX
  5
5CF
330
5CD
100
AcDbEntity
  8
Ebene 1
 62
   179
420
  1709851
370
    13
100
AcDbVertex
100
AcDb2dVertex
 10
196.0913899249355
 20
-108.863811550475
 30
0.0
  0
SEQEND
  5
5D0
330
5CD
100
AcDbEntity
  8
Ebene 1
370
    13
  0
POLYLINE
  5
5D1
330
59E
100
AcDbEntity
  8
Ebene 1
 62
   179
420
  1709851
370
    13
100
AcDb2dPolyline
 66
     1
 10
0.0
 20
0.0
 30
0.0
  0
VERTEX
  5
5D2
330
5D1
100
AcDbEntity
  8
Ebene 1
 62
   179
420
  1709851
370
    13
100
AcDbVertex
100
AcDb2dVertex
 10
196.0913899249355
 20
-117.8596448815594
 30
0.0
  0
VERTEX
  5
5D3
330
5D1
100
AcDbEntity
  8
Ebene 1
 62
   179
420
  1709851
370
    13
100
AcDbVertex
100
AcDb2dVertex
 10
196.0913899249355
 20
-116.8647013054192
 30
0.0
  0
SEQEND
  5
5D4
330
5D1
100
AcDbEntity
  8
Ebene 1
370
    13
  0
POLYLINE
  5
5D5
330
59E
100
AcDbEntity
  8
Ebene 1
 62
   179
420
  1709851
370
    13
100
AcDb2dPolyline
 66
     1
 10
0.0
 20
0.0
 30
0.0
  0
VERTEX
  5
5D6
330
5D5
100
AcDbEntity
  8
Ebene 1
 62
   179
420
  1709851
370
    13
100
AcDbVertex
100
AcDb2dVertex
 10
196.0913899249355
 20
-125.8605346365036
 30
0.0
  0
VERTEX
  5
5D7
330
5D5
100
AcDbEntity
  8
Ebene 1
 62
   179
420
  1709851
370
    13
100
AcDbVertex
100
AcDb2dVertex
 10
196.0913899249355
 20
-118.8545884576995
 30
0.0
  0
SEQEND
  5
5D8
330
5D5
100
AcDbEntity
  8
Ebene 1
370
    13
  0
POLYLINE
  5
5D9
330
59E
100
AcDbEntity
  8
Ebene 1
 62
   179
420
  1709851
370
    13
100
AcDb2dPolyline
 66
     1
 10
0.0
 20
0.0
 30
0.0
  0
VERTEX
  5
5DA
330
5D9
100
AcDbEntity
  8
Ebene 1
 62
   179
420
  1709851
370
    13
100
AcDbVertex
100
AcDb2dVertex
 10
196.0913899249355
 20
-127.8504217887839
 30
0.0
  0
VERTEX
  5
5DB
330
5D9
100
AcDbEntity
  8
Ebene 1
 62
   179
420
  1709851
370
    13
100
AcDbVertex
100
AcDb2dVertex
 10
196.0913899249355
 20
-126.8554782126438
 30
0.0
  0
SEQEND
  5
5DC
330
5D9
100
AcDbEntity
  8
Ebene 1
370
    13
  0
POLYLINE
  5
5DD
330
59E
100
AcDbEntity
  8
Ebene 1
 62
   179
420
  1709851
370
    13
100
AcDb2dPolyline
 66
     1
 10
0.0
 20
0.0
 30
0.0
  0
VERTEX
  5
5DE
330
5DD
100
AcDbEntity
  8
Ebene 1
 62
   179
420
  1709851
370
    13
100
AcDbVertex
100
AcDb2dVertex
 10
196.0913899249355
 20
-135.8513115437281
 30
0.0
  0
VERTEX
  5
5DF
330
5DD
100
AcDbEntity
  8
Ebene 1
 62
   179
420
  1709851
370
    13
100
AcDbVertex
100
AcDb2dVertex
 10
196.0913899249355
 20
-128.8663804473841
 30
0.0
  0
SEQEND
  5
5E0
330
5DD
100
AcDbEntity
  8
Ebene 1
370
    13
  0
POLYLINE
  5
5E1
330
59E
100
AcDbEntity
  8
Ebene 1
 62
   179
420
  1709851
370
    13
100
AcDb2dPolyline
 66
     1
 10
0.0
 20
0.0
 30
0.0
  0
VERTEX
  5
5E2
330
5E1
100
AcDbEntity
  8
Ebene 1
 62
   179
420
  1709851
370
    13
100
AcDbVertex
100
AcDb2dVertex
 10
196.0913899249355
 20
-137.8622137784685
 30
0.0
  0
VERTEX
  5
5E3
330
5E1
100
AcDbEntity
  8
Ebene 1
 62
   179
420
  1709851
370
    13
100
AcDbVertex
100
AcDb2dVertex
 10
196.0913899249355
 20
-136.8672702023283
 30
0.0
  0
SEQEND
  5
5E4
330
5E1
100
AcDbEntity
  8
Ebene 1
370
    13
  0
POLYLINE
  5
5E5
330
59E
100
AcDbEntity
  8
Ebene 1
 62
   179
420
  1709851
370
    13
100
AcDb2dPolyline
 66
     1
 10
0.0
 20
0.0
 30
0.0
  0
VERTEX
  5
5E6
330
5E5
100
AcDbEntity
  8
Ebene 1
 62
   179
420
  1709851
370
    13
100
AcDbVertex
100
AcDb2dVertex
 10
196.0913899249355
 20
-145.8631035334127
 30
0.0
  0
VERTEX
  5
5E7
330
5E5
100
AcDbEntity
  8
Ebene 1
 62
   179
420
  1709851
370
    13
100
AcDbVertex
100
AcDb2dVertex
 10
196.0913899249355
 20
-138.8568128450601
 30
0.0
  0
SEQEND
  5
5E8
330
5E5
100
AcDbEntity
  8
Ebene 1
370
    13
  0
POLYLINE
  5
5E9
330
59E
100
AcDbEntity
  8
Ebene 1
 62
   179
420
  1709851
370
    13
100
AcDb2dPolyline
 66
     1
 10
0.0
 20
0.0
 30
0.0
  0
VERTEX
  5
5EA
330
5E9
100
AcDbEntity
  8
Ebene 1
 62
   179
420
  1709851
370
    13
100
AcDbVertex
100
AcDb2dVertex
 10
196.0913899249355
 20
-147.8526461761445
 30
0.0
  0
VERTEX
  5
5EB
330
5E9
100
AcDbEntity
  8
Ebene 1
 62
   179
420
  1709851
370
    13
100
AcDbVertex
100
AcDb2dVertex
 10
196.0913899249355
 20
-146.8580471095528
 30
0.0
  0
SEQEND
  5
5EC
330
5E9
100
AcDbEntity
  8
Ebene 1
370
    13
  0
POLYLINE
  5
5ED
330
59E
100
AcDbEntity
  8
Ebene 1
 62
   179
420
  1709851
370
    13
100
AcDb2dPolyline
 66
     1
 10
0.0
 20
0.0
 30
0.0
  0
VERTEX
  5
5EE
330
5ED
100
AcDbEntity
  8
Ebene 1
 62
   179
420
  1709851
370
    13
100
AcDbVertex
100
AcDb2dVertex
 10
196.0913899249355
 20
-155.8540526954115
 30
0.0
  0
VERTEX
  5
5EF
330
5ED
100
AcDbEntity
  8
Ebene 1
 62
   179
420
  1709851
370
    13
100
AcDbVertex
100
AcDb2dVertex
 10
196.0913899249355
 20
-148.8475897522846
 30
0.0
  0
SEQEND
  5
5F0
330
5ED
100
AcDbEntity
  8
Ebene 1
370
    13
  0
POLYLINE
  5
5F1
330
59E
100
AcDbEntity
  8
Ebene 1
 62
   179
420
  1709851
370
    13
100
AcDb2dPolyline
 66
     1
 10
0.0
 20
0.0
 30
0.0
  0
VERTEX
  5
5F2
330
5F1
100
AcDbEntity
  8
Ebene 1
 62
   179
420
  1709851
370
    13
100
AcDbVertex
100
AcDb2dVertex
 10
196.0913899249355
 20
-157.8646104206033
 30
0.0
  0
VERTEX
  5
5F3
330
5F1
100
AcDbEntity
  8
Ebene 1
 62
   179
420
  1709851
370
    13
100
AcDbVertex
100
AcDb2dVertex
 10
196.0913899249355
 20
-156.8483072524546
 30
0.0
  0
SEQEND
  5
5F4
330
5F1
100
AcDbEntity
  8
Ebene 1
370
    13
  0
POLYLINE
  5
5F5
330
59E
100
AcDbEntity
  8
Ebene 1
 62
   179
420
  1709851
370
    13
100
AcDb2dPolyline
 66
     1
 10
0.0
 20
0.0
 30
0.0
  0
VERTEX
  5
5F6
330
5F5
100
AcDbEntity
  8
Ebene 1
 62
   179
420
  1709851
370
    13
100
AcDbVertex
100
AcDb2dVertex
 10
196.0913899249355
 20
-165.8655001755475
 30
0.0
  0
VERTEX
  5
5F7
330
5F5
100
AcDbEntity
  8
Ebene 1
 62
   179
420
  1709851
370
    13
100
AcDbVertex
100
AcDb2dVertex
 10
196.0913899249355
 20
-158.8595539967434
 30
0.0
  0
SEQEND
  5
5F8
330
5F5
100
AcDbEntity
  8
Ebene 1
370
    13
  0
POLYLINE
  5
5F9
330
59E
100
AcDbEntity
  8
Ebene 1
 62
   179
420
  1709851
370
    13
100
AcDb2dPolyline
 66
     1
 10
0.0
 20
0.0
 30
0.0
  0
VERTEX
  5
5FA
330
5F9
100
AcDbEntity
  8
Ebene 1
 62
   179
420
  1709851
370
    13
100
AcDbVertex
100
AcDb2dVertex
 10
196.0913899249355
 20
-167.8553873278278
 30
0.0
  0
VERTEX
  5
5FB
330
5F9
100
AcDbEntity
  8
Ebene 1
 62
   179
420
  1709851
370
    13
100
AcDbVertex
100
AcDb2dVertex
 10
196.0913899249355
 20
-166.8604437516877
 30
0.0
  0
SEQEND
  5
5FC
330
5F9
100
AcDbEntity
  8
Ebene 1
370
    13
  0
POLYLINE
  5
5FD
330
59E
100
AcDbEntity
  8
Ebene 1
 62
   179
420
  1709851
370
    13
100
AcDb2dPolyline
 66
     1
 10
0.0
 20
0.0
 30
0.0
  0
VERTEX
  5
5FE
330
5FD
100
AcDbEntity
  8
Ebene 1
 62
   179
420
  1709851
370
    13
100
AcDbVertex
100
AcDb2dVertex
 10
196.0913899249355
 20
-175.856277082772
 30
0.0
  0
VERTEX
  5
5FF
330
5FD
100
AcDbEntity
  8
Ebene 1
 62
   179
420
  1709851
370
    13
100
AcDbVertex
100
AcDb2dVertex
 10
196.0913899249355
 20
-168.850330903968
 30
0.0
  0
SEQEND
  5
600
330
5FD
100
AcDbEntity
  8
Ebene 1
370
    13
  0
POLYLINE
  5
601
330
59E
100
AcDbEntity
  8
Ebene 1
 62
   179
420
  1709851
370
    13
100
AcDb2dPolyline
 66
     1
 10
0.0
 20
0.0
 30
0.0
  0
VERTEX
  5
602
330
601
100
AcDbEntity
  8
Ebene 1
 62
   179
420
  1709851
370
    13
100
AcDbVertex
100
AcDb2dVertex
 10
196.0913899249355
 20
-177.8461642350524
 30
0.0
  0
VERTEX
  5
603
330
601
100
AcDbEntity
  8
Ebene 1
 62
   179
420
  1709851
370
    13
100
AcDbVertex
100
AcDb2dVertex
 10
196.0913899249355
 20
-176.8512206589122
 30
0.0
  0
SEQEND
  5
604
330
601
100
AcDbEntity
  8
Ebene 1
370
    13
  0
POLYLINE
  5
605
330
59E
100
AcDbEntity
  8
Ebene 1
 62
   179
420
  1709851
370
    13
100
AcDb2dPolyline
 66
     1
 10
0.0
 20
0.0
 30
0.0
  0
VERTEX
  5
606
330
605
100
AcDbEntity
  8
Ebene 1
 62
   179
420
  1709851
370
    13
100
AcDbVertex
100
AcDb2dVertex
 10
196.0913899249355
 20
-185.8470539899966
 30
0.0
  0
VERTEX
  5
607
330
605
100
AcDbEntity
  8
Ebene 1
 62
   179
420
  1709851
370
    13
100
AcDbVertex
100
AcDb2dVertex
 10
196.0913899249355
 20
-178.861778384104
 30
0.0
  0
SEQEND
  5
608
330
605
100
AcDbEntity
  8
Ebene 1
370
    13
  0
POLYLINE
  5
609
330
59E
100
AcDbEntity
  8
Ebene 1
 62
   179
420
  1709851
370
    13
100
AcDb2dPolyline
 66
     1
 10
0.0
 20
0.0
 30
0.0
  0
VERTEX
  5
60A
330
609
100
AcDbEntity
  8
Ebene 1
 62
   179
420
  1709851
370
    13
100
AcDbVertex
100
AcDb2dVertex
 10
196.0913899249355
 20
-187.8576117151884
 30
0.0
  0
VERTEX
  5
60B
330
609
100
AcDbEntity
  8
Ebene 1
 62
   179
420
  1709851
370
    13
100
AcDbVertex
100
AcDb2dVertex
 10
196.0913899249355
 20
-186.8626681390482
 30
0.0
  0
SEQEND
  5
60C
330
609
100
AcDbEntity
  8
Ebene 1
370
    13
  0
POLYLINE
  5
60D
330
59E
100
AcDbEntity
  8
Ebene 1
 62
   179
420
  1709851
370
    13
100
AcDb2dPolyline
 66
     1
 10
0.0
 20
0.0
 30
0.0
  0
VERTEX
  5
60E
330
60D
100
AcDbEntity
  8
Ebene 1
 62
   179
420
  1709851
370
    13
100
AcDbVertex
100
AcDb2dVertex
 10
196.0913899249355
 20
-189.1701930950686
 30
0.0
  0
VERTEX
  5
60F
330
60D
100
AcDbEntity
  8
Ebene 1
 62
   179
420
  1709851
370
    13
100
AcDbVertex
100
AcDb2dVertex
 10
196.0913899249355
 20
-189.1701930950686
 30
0.0
  0
VERTEX
  5
610
330
60D
100
AcDbEntity
  8
Ebene 1
 62
   179
420
  1709851
370
    13
100
AcDbVertex
100
AcDb2dVertex
 10
196.0913899249355
 20
-188.8525552913285
 30
0.0
  0
SEQEND
  5
611
330
60D
100
AcDbEntity
  8
Ebene 1
370
    13
  0
POLYLINE
  5
612
330
59E
100
AcDbEntity
  8
Ebene 1
 62
   179
420
  1709851
370
    13
100
AcDb2dPolyline
 66
     1
 10
0.0
 20
0.0
 30
0.0
  0
VERTEX
  5
613
330
612
100
AcDbEntity
  8
Ebene 1
 62
   179
420
  1709851
370
    13
100
AcDbVertex
100
AcDb2dVertex
 10
28.11284043350999
 20
-151.1763020455393
 30
0.0
  0
VERTEX
  5
614
330
612
100
AcDbEntity
  8
Ebene 1
 62
   179
420
  1709851
370
    13
100
AcDbVertex
100
AcDb2dVertex
 10
33.10822888712225
 20
-167.1780815554277
 30
0.0
  0
VERTEX
  5
615
330
612
100
AcDbEntity
  8
Ebene 1
 62
   179
420
  1709851
370
    13
100
AcDbVertex
100
AcDb2dVertex
 10
38.10344508596025
 20
-151.1763020455393
 30
0.0
  0
VERTEX
  5
616
330
612
100
AcDbEntity
  8
Ebene 1
 62
   179
420
  1709851
370
    13
100
AcDbVertex
100
AcDb2dVertex
 10
43.09883353957252
 20
-167.1780815554277
 30
0.0
  0
VERTEX
  5
617
330
612
100
AcDbEntity
  8
Ebene 1
 62
   179
420
  1709851
370
    13
100
AcDbVertex
100
AcDb2dVertex
 10
48.09422199318478
 20
-151.1763020455393
 30
0.0
  0
VERTEX
  5
618
330
612
100
AcDbEntity
  8
Ebene 1
 62
   179
420
  1709851
370
    13
100
AcDbVertex
100
AcDb2dVertex
 10
53.11062552925707
 20
-167.1780815554277
 30
0.0
  0
VERTEX
  5
619
330
612
100
AcDbEntity
  8
Ebene 1
 62
   179
420
  1709851
370
    13
100
AcDbVertex
100
AcDb2dVertex
 10
58.10601398286934
 20
-151.1763020455393
 30
0.0
  0
VERTEX
  5
61A
330
612
100
AcDbEntity
  8
Ebene 1
 62
   179
420
  1709851
370
    13
100
AcDbVertex
100
AcDb2dVertex
 10
63.1014024364816
 20
-167.1780815554277
 30
0.0
  0
VERTEX
  5
61B
330
612
100
AcDbEntity
  8
Ebene 1
 62
   179
420
  1709851
370
    13
100
AcDbVertex
100
AcDb2dVertex
 10
68.0966186353196
 20
-151.1763020455393
 30
0.0
  0
VERTEX
  5
61C
330
612
100
AcDbEntity
  8
Ebene 1
 62
   179
420
  1709851
370
    13
100
AcDbVertex
100
AcDb2dVertex
 10
73.09200708893187
 20
-167.1780815554277
 30
0.0
  0
VERTEX
  5
61D
330
612
100
AcDbEntity
  8
Ebene 1
 62
   179
420
  1709851
370
    13
100
AcDbVertex
100
AcDb2dVertex
 10
78.10858287977841
 20
-151.1763020455393
 30
0.0
  0
VERTEX
  5
61E
330
612
100
AcDbEntity
  8
Ebene 1
 62
   179
420
  1709851
370
    13
100
AcDbVertex
100
AcDb2dVertex
 10
83.10379907861642
 20
-167.1780815554277
 30
0.0
  0
VERTEX
  5
61F
330
612
100
AcDbEntity
  8
Ebene 1
 62
   179
420
  1709851
370
    13
100
AcDbVertex
100
AcDb2dVertex
 10
88.09918753222868
 20
-151.1763020455393
 30
0.0
  0
VERTEX
  5
620
330
612
100
AcDbEntity
  8
Ebene 1
 62
   179
420
  1709851
370
    13
100
AcDbVertex
100
AcDb2dVertex
 10
93.09457598584095
 20
-167.1780815554277
 30
0.0
  0
VERTEX
  5
621
330
612
100
AcDbEntity
  8
Ebene 1
 62
   179
420
  1709851
370
    13
100
AcDbVertex
100
AcDb2dVertex
 10
98.08979218467894
 20
-151.1763020455393
 30
0.0
  0
VERTEX
  5
622
330
612
100
AcDbEntity
  8
Ebene 1
 62
   179
420
  1709851
370
    13
100
AcDbVertex
100
AcDb2dVertex
 10
103.1063679755255
 20
-167.1780815554277
 30
0.0
  0
VERTEX
  5
623
330
612
100
AcDbEntity
  8
Ebene 1
 62
   179
420
  1709851
370
    13
100
AcDbVertex
100
AcDb2dVertex
 10
108.1015841743635
 20
-151.1763020455393
 30
0.0
  0
SEQEND
  5
624
330
612
100
AcDbEntity
  8
Ebene 1
370
    13
  0
POLYLINE
  5
625
330
59E
100
AcDbEntity
  8
Ebene 1
 62
   179
420
  1709851
370
    13
100
AcDb2dPolyline
 66
     1
 10
0.0
 20
0.0
 30
0.0
  0
VERTEX
  5
626
330
625
100
AcDbEntity
  8
Ebene 1
 62
   179
420
  1709851
370
    13
100
AcDbVertex
100
AcDb2dVertex
 10
108.1015841743635
 20
-151.1763020455393
 30
0.0
  0
VERTEX
  5
627
330
625
100
AcDbEntity
  8
Ebene 1
 62
   179
420
  1709851
370
    13
100
AcDbVertex
100
AcDb2dVertex
 10
113.0966281184272
 20
-167.1780815554277
 30
0.0
  0
VERTEX
  5
628
330
625
100
AcDbEntity
  8
Ebene 1
 62
   179
420
  1709851
370
    13
100
AcDbVertex
100
AcDb2dVertex
 10
116.4835014899763
 20
-156.3618597699373
 30
0.0
  0
SEQEND
  5
629
330
625
100
AcDbEntity
  8
Ebene 1
370
    13
  0
POLYLINE
  5
62A
330
59E
100
AcDbEntity
  8
Ebene 1
 62
   179
420
  1709851
370
    13
100
AcDb2dPolyline
 66
     1
 10
0.0
 20
0.0
 30
0.0
  0
VERTEX
  5
62B
330
62A
100
AcDbEntity
  8
Ebene 1
 62
   179
420
  1709851
370
    13
100
AcDbVertex
100
AcDb2dVertex
 10
28.11284043350999
 20
-167.1780815554277
 30
0.0
  0
VERTEX
  5
62C
330
62A
100
AcDbEntity
  8
Ebene 1
 62
   179
420
  1709851
370
    13
100
AcDbVertex
100
AcDb2dVertex
 10
115.8699299840534
 20
-167.1780815554277
 30
0.0
  0
SEQEND
  5
62D
330
62A
100
AcDbEntity
  8
Ebene 1
370
    13
  0
POLYLINE
  5
62E
330
59E
100
AcDbEntity
  8
Ebene 1
370
     0
100
AcDb2dPolyline
 66
     1
 10
0.0
 20
0.0
 30
0.0
  0
VERTEX
  5
62F
330
62E
100
AcDbEntity
  8
Ebene 1
370
     0
100
AcDbVertex
100
AcDb2dVertex
 10
27.86944443747709
 20
-213.7447482104527
 30
0.0
  0
VERTEX
  5
630
330
62E
100
AcDbEntity
  8
Ebene 1
370
     0
100
AcDbVertex
100
AcDb2dVertex
 10
196.3349581757427
 20
-213.7447482104527
 30
0.0
  0
VERTEX
  5
631
330
62E
100
AcDbEntity
  8
Ebene 1
370
     0
100
AcDbVertex
100
AcDb2dVertex
 10
196.3349581757427
 20
-87.0832288736285
 30
0.0
  0
VERTEX
  5
632
330
62E
100
AcDbEntity
  8
Ebene 1
370
     0
100
AcDbVertex
100
AcDb2dVertex
 10
27.86944443747709
 20
-87.0832288736285
 30
0.0
  0
VERTEX
  5
633
330
62E
100
AcDbEntity
  8
Ebene 1
370
     0
100
AcDbVertex
100
AcDb2dVertex
 10
27.86944443747709
 20
-213.7447482104527
 30
0.0
  0
SEQEND
  5
634
330
62E
100
AcDbEntity
  8
Ebene 1
370
     0
  0
ENDBLK
  5
5A1
330
59E
100
AcDbEntity
  8
0
100
AcDbBlockEnd
  0
ENDSEC
  0
SECTION
  2
ENTITIES
  0
INSERT
  5
3D
330
1F
100
AcDbEntity
  8
Ebene 1
100
AcDbBlockReference
  2
block 2
 10
0.0
 20
0.0
 30
0.0
  0
POLYLINE
  5
C7
330
1F
100
AcDbEntity
  8
Ebene 1
370
     0
100
AcDb2dPolyline
 66
     1
 10
0.0
 20
0.0
 30
0.0
  0
VERTEX
  5
C8
330
C7
100
AcDbEntity
  8
Ebene 1
370
     0
100
AcDbVertex
100
AcDb2dVertex
 10
122.1775553079973
 20
-174.3741970050176
 30
0.0
  0
VERTEX
  5
C9
330
C7
100
AcDbEntity
  8
Ebene 1
370
     0
100
AcDbVertex
100
AcDb2dVertex
 10
110.1758761660324
 20
-173.7609700086431
 30
0.0
  0
VERTEX
  5
CA
330
C7
100
AcDbEntity
  8
Ebene 1
370
     0
100
AcDbVertex
100
AcDb2dVertex
 10
110.1758761660324
 20
-174.3741970050176
 30
0.0
  0
VERTEX
  5
CB
330
C7
100
AcDbEntity
  8
Ebene 1
370
     0
100
AcDbVertex
100
AcDb2dVertex
 10
122.1775553079973
 20
-174.3741970050176
 30
0.0
  0
SEQEND
  5
CC
330
C7
100
AcDbEntity
  8
Ebene 1
370
     0
  0
HATCH
  5
CD
330
1F
100
AcDbEntity
  8
Ebene 1
 62
   179
420
  1709851
100
AcDbHatch
 10
0.0
 20
0.0
 30
0.0
210
0.0
220
0.0
230
1.0
  2
SOLID
 70
     1
 71
     0
 91
        1
 92
        1
 93
        3
 72
     1
 10
122.1775553079973
 20
-174.3741970050176
 11
110.1758761660324
 21
-173.7609700086431
 72
     1
 10
110.1758761660324
 20
-173.7609700086431
 11
110.1758761660324
 21
-174.3741970050176
 72
     1
 10
110.1758761660324
 20
-174.3741970050176
 11
122.1775553079973
 21
-174.3741970050176
 97
        0
 75
     2
 76
     1
 98
        0
  0
POLYLINE
  5
CE
330
1F
100
AcDbEntity
  8
Ebene 1
370
     0
100
AcDb2dPolyline
 66
     1
 10
0.0
 20
0.0
 30
0.0
  0
VERTEX
  5
CF
330
CE
100
AcDbEntity
  8
Ebene 1
370
     0
100
AcDbVertex
100
AcDb2dVertex
 10
110.176220675581
 20
-173.7609700086431
 30
0.0
  0
VERTEX
  5
D0
330
CE
100
AcDbEntity
  8
Ebene 1
370
     0
100
AcDbVertex
100
AcDb2dVertex
 10
122.1775553079973
 20
-174.3741970050176
 30
0.0
  0
VERTEX
  5
D1
330
CE
100
AcDbEntity
  8
Ebene 1
370
     0
100
AcDbVertex
100
AcDb2dVertex
 10
115.8699299840534
 20
-173.7609700086431
 30
0.0
  0
VERTEX
  5
D2
330
CE
100
AcDbEntity
  8
Ebene 1
370
     0
100
AcDbVertex
100
AcDb2dVertex
 10
110.176220675581
 20
-173.7609700086431
 30
0.0
  0
SEQEND
  5
D3
330
CE
100
AcDbEntity
  8
Ebene 1
370
     0
  0
HATCH
  5
D4
330
1F
100
AcDbEntity
  8
Ebene 1
 62
   179
420
  1709851
100
AcDbHatch
 10
0.0
 20
0.0
 30
0.0
210
0.0
220
0.0
230
1.0
  2
SOLID
 70
     1
 71
     0
 91
        1
 92
        1
 93
        3
 72
     1
 10
110.176220675581
 20
-173.7609700086431
 11
122.1775553079973
 21
-174.3741970050176
 72
     1
 10
122.1775553079973
 20
-174.3741970050176
 11
115.8699299840534
 21
-173.7609700086431
 72
     1
 10
115.8699299840534
 20
-173.7609700086431
 11
110.176220675581
 21
-173.7609700086431
 97
        0
 75
     2
 76
     1
 98
        0
  0
POLYLINE
  5
D5
330
1F
100
AcDbEntity
  8
Ebene 1
370
     0
100
AcDb2dPolyline
 66
     1
 10
0.0
 20
0.0
 30
0.0
  0
VERTEX
  5
D6
330
D5
100
AcDbEntity
  8
Ebene 1
370
     0
100
AcDbVertex
100
AcDb2dVertex
 10
115.8695854745048
 20
-173.7609700086431
 30
0.0
  0
VERTEX
  5
D7
330
D5
100
AcDbEntity
  8
Ebene 1
370
     0
100
AcDbVertex
100
AcDb2dVertex
 10
122.1775553079973
 20
-174.3741970050176
 30
0.0
  0
VERTEX
  5
D8
330
D5
100
AcDbEntity
  8
Ebene 1
370
     0
100
AcDbVertex
100
AcDb2dVertex
 10
116.4835014899763
 20
-173.7609700086431
 30
0.0
  0
VERTEX
  5
D9
330
D5
100
AcDbEntity
  8
Ebene 1
370
     0
100
AcDbVertex
100
AcDb2dVertex
 10
115.8695854745048
 20
-173.7609700086431
 30
0.0
  0
SEQEND
  5
DA
330
D5
100
AcDbEntity
  8
Ebene 1
370
     0
  0
HATCH
  5
DB
330
1F
100
AcDbEntity
  8
Ebene 1
 62
   179
420
  1709851
100
AcDbHatch
 10
0.0
 20
0.0
 30
0.0
210
0.0
220
0.0
230
1.0
  2
SOLID
 70
     1
 71
     0
 91
        1
 92
        1
 93
        3
 72
     1
 10
115.8695854745048
 20
-173.7609700086431
 11
122.1775553079973
 21
-174.3741970050176
 72
     1
 10
122.1775553079973
 20
-174.3741970050176
 11
116.4835014899763
 21
-173.7609700086431
 72
     1
 10
116.4835014899763
 20
-173.7609700086431
 11
115.8695854745048
 21
-173.7609700086431
 97
        0
 75
     2
 76
     1
 98
        0
  0
POLYLINE
  5
DC
330
1F
100
AcDbEntity
  8
Ebene 1
370
     0
100
AcDb2dPolyline
 66
     1
 10
0.0
 20
0.0
 30
0.0
  0
VERTEX
  5
DD
330
DC
100
AcDbEntity
  8
Ebene 1
370
     0
100
AcDbVertex
100
AcDb2dVertex
 10
115.8695854745048
 20
-173.7609700086431
 30
0.0
  0
VERTEX
  5
DE
330
DC
100
AcDbEntity
  8
Ebene 1
370
     0
100
AcDbVertex
100
AcDb2dVertex
 10
116.4835014899763
 20
-173.7609700086431
 30
0.0
  0
VERTEX
  5
DF
330
DC
100
AcDbEntity
  8
Ebene 1
370
     0
100
AcDbVertex
100
AcDb2dVertex
 10
115.8695854745048
 20
-164.3627495248815
 30
0.0
  0
VERTEX
  5
E0
330
DC
100
AcDbEntity
  8
Ebene 1
370
     0
100
AcDbVertex
100
AcDb2dVertex
 10
115.8695854745048
 20
-173.7609700086431
 30
0.0
  0
SEQEND
  5
E1
330
DC
100
AcDbEntity
  8
Ebene 1
370
     0
  0
HATCH
  5
E2
330
1F
100
AcDbEntity
  8
Ebene 1
 62
   179
420
  1709851
100
AcDbHatch
 10
0.0
 20
0.0
 30
0.0
210
0.0
220
0.0
230
1.0
  2
SOLID
 70
     1
 71
     0
 91
        1
 92
        1
 93
        3
 72
     1
 10
115.8695854745048
 20
-173.7609700086431
 11
116.4835014899763
 21
-173.7609700086431
 72
     1
 10
116.4835014899763
 20
-173.7609700086431
 11
115.8695854745048
 21
-164.3627495248815
 72
     1
 10
115.8695854745048
 20
-164.3627495248815
 11
115.8695854745048
 21
-173.7609700086431
 97
        0
 75
     2
 76
     1
 98
        0
  0
POLYLINE
  5
E3
330
1F
100
AcDbEntity
  8
Ebene 1
370
     0
100
AcDb2dPolyline
 66
     1
 10
0.0
 20
0.0
 30
0.0
  0
VERTEX
  5
E4
330
E3
100
AcDbEntity
  8
Ebene 1
370
     0
100
AcDbVertex
100
AcDb2dVertex
 10
116.4835014899763
 20
-173.7609700086431
 30
0.0
  0
VERTEX
  5
E5
330
E3
100
AcDbEntity
  8
Ebene 1
370
     0
100
AcDbVertex
100
AcDb2dVertex
 10
122.1775553079973
 20
-174.3741970050176
 30
0.0
  0
VERTEX
  5
E6
330
E3
100
AcDbEntity
  8
Ebene 1
370
     0
100
AcDbVertex
100
AcDb2dVertex
 10
122.1775553079973
 20
-173.7609700086431
 30
0.0
  0
VERTEX
  5
E7
330
E3
100
AcDbEntity
  8
Ebene 1
370
     0
100
AcDbVertex
100
AcDb2dVertex
 10
116.4835014899763
 20
-173.7609700086431
 30
0.0
  0
SEQEND
  5
E8
330
E3
100
AcDbEntity
  8
Ebene 1
370
     0
  0
HATCH
  5
E9
330
1F
100
AcDbEntity
  8
Ebene 1
 62
   179
420
  1709851
100
AcDbHatch
 10
0.0
 20
0.0
 30
0.0
210
0.0
220
0.0
230
1.0
  2
SOLID
 70
     1
 71
     0
 91
        1
 92
        1
 93
        3
 72
     1
 10
116.4835014899763
 20
-173.7609700086431
 11
122.1775553079973
 21
-174.3741970050176
 72
     1
 10
122.1775553079973
 20
-174.3741970050176
 11
122.1775553079973
 21
-173.7609700086431
 72
     1
 10
122.1775553079973
 20
-173.7609700086431
 11
116.4835014899763
 21
-173.7609700086431
 97
        0
 75
     2
 76
     1
 98
        0
  0
POLYLINE
  5
EA
330
1F
100
AcDbEntity
  8
Ebene 1
370
     0
100
AcDb2dPolyline
 66
     1
 10
0.0
 20
0.0
 30
0.0
  0
VERTEX
  5
EB
330
EA
100
AcDbEntity
  8
Ebene 1
370
     0
100
AcDbVertex
100
AcDb2dVertex
 10
116.4835014899763
 20
-164.3627495248815
 30
0.0
  0
VERTEX
  5
EC
330
EA
100
AcDbEntity
  8
Ebene 1
370
     0
100
AcDbVertex
100
AcDb2dVertex
 10
115.8699299840534
 20
-164.3627495248815
 30
0.0
  0
VERTEX
  5
ED
330
EA
100
AcDbEntity
  8
Ebene 1
370
     0
100
AcDbVertex
100
AcDb2dVertex
 10
116.4835014899763
 20
-173.7609700086431
 30
0.0
  0
VERTEX
  5
EE
330
EA
100
AcDbEntity
  8
Ebene 1
370
     0
100
AcDbVertex
100
AcDb2dVertex
 10
116.4835014899763
 20
-164.3627495248815
 30
0.0
  0
SEQEND
  5
EF
330
EA
100
AcDbEntity
  8
Ebene 1
370
     0
  0
HATCH
  5
F0
330
1F
100
AcDbEntity
  8
Ebene 1
 62
   179
420
  1709851
100
AcDbHatch
 10
0.0
 20
0.0
 30
0.0
210
0.0
220
0.0
230
1.0
  2
SOLID
 70
     1
 71
     0
 91
        1
 92
        1
 93
        3
 72
     1
 10
116.4835014899763
 20
-164.3627495248815
 11
115.8699299840534
 21
-164.3627495248815
 72
     1
 10
115.8699299840534
 20
-164.3627495248815
 11
116.4835014899763
 21
-173.7609700086431
 72
     1
 10
116.4835014899763
 20
-173.7609700086431
 11
116.4835014899763
 21
-164.3627495248815
 97
        0
 75
     2
 76
     1
 98
        0
  0
POLYLINE
  5
F1
330
1F
100
AcDbEntity
  8
Ebene 1
370
     0
100
AcDb2dPolyline
 66
     1
 10
0.0
 20
0.0
 30
0.0
  0
VERTEX
  5
F2
330
F1
100
AcDbEntity
  8
Ebene 1
370
     0
100
AcDbVertex
100
AcDb2dVertex
 10
28.11301268828425
 20
-183.0737521243705
 30
0.0
  0
VERTEX
  5
F3
330
F1
100
AcDbEntity
  8
Ebene 1
370
     0
100
AcDbVertex
100
AcDb2dVertex
 10
41.1728529085436
 20
-183.0737521243705
 30
0.0
  0
VERTEX
  5
F4
330
F1
100
AcDbEntity
  8
Ebene 1
370
     0
100
AcDbVertex
100
AcDb2dVertex
 10
28.11301268828425
 20
-180.957085458233
 30
0.0
  0
VERTEX
  5
F5
330
F1
100
AcDbEntity
  8
Ebene 1
370
     0
100
AcDbVertex
100
AcDb2dVertex
 10
28.11301268828425
 20
-183.0737521243705
 30
0.0
  0
SEQEND
  5
F6
330
F1
100
AcDbEntity
  8
Ebene 1
370
     0
  0
HATCH
  5
F7
330
1F
100
AcDbEntity
  8
Ebene 1
 62
   254
420
 14803683
100
AcDbHatch
 10
0.0
 20
0.0
 30
0.0
210
0.0
220
0.0
230
1.0
  2
SOLID
 70
     1
 71
     0
 91
        1
 92
        1
 93
        3
 72
     1
 10
28.11301268828425
 20
-183.0737521243705
 11
41.1728529085436
 21
-183.0737521243705
 72
     1
 10
41.1728529085436
 20
-183.0737521243705
 11
28.11301268828425
 21
-180.957085458233
 72
     1
 10
28.11301268828425
 20
-180.957085458233
 11
28.11301268828425
 21
-183.0737521243705
 97
        0
 75
     2
 76
     1
 98
        0
  0
POLYLINE
  5
F8
330
1F
100
AcDbEntity
  8
Ebene 1
370
     0
100
AcDb2dPolyline
 66
     1
 10
0.0
 20
0.0
 30
0.0
  0
VERTEX
  5
F9
330
F8
100
AcDbEntity
  8
Ebene 1
370
     0
100
AcDbVertex
100
AcDb2dVertex
 10
28.11301268828425
 20
-180.957085458233
 30
0.0
  0
VERTEX
  5
FA
330
F8
100
AcDbEntity
  8
Ebene 1
370
     0
100
AcDbVertex
100
AcDb2dVertex
 10
41.1728529085436
 20
-183.0737521243705
 30
0.0
  0
VERTEX
  5
FB
330
F8
100
AcDbEntity
  8
Ebene 1
370
     0
100
AcDbVertex
100
AcDb2dVertex
 10
41.1728529085436
 20
-180.957085458233
 30
0.0
  0
VERTEX
  5
FC
330
F8
100
AcDbEntity
  8
Ebene 1
370
     0
100
AcDbVertex
100
AcDb2dVertex
 10
28.11301268828425
 20
-180.957085458233
 30
0.0
  0
SEQEND
  5
FD
330
F8
100
AcDbEntity
  8
Ebene 1
370
     0
  0
HATCH
  5
FE
330
1F
100
AcDbEntity
  8
Ebene 1
 62
   254
420
 14803683
100
AcDbHatch
 10
0.0
 20
0.0
 30
0.0
210
0.0
220
0.0
230
1.0
  2
SOLID
 70
     1
 71
     0
 91
        1
 92
        1
 93
        3
 72
     1
 10
28.11301268828425
 20
-180.957085458233
 11
41.1728529085436
 21
-183.0737521243705
 72
     1
 10
41.1728529085436
 20
-183.0737521243705
 11
41.1728529085436
 21
-180.957085458233
 72
     1
 10
41.1728529085436
 20
-180.957085458233
 11
28.11301268828425
 21
-180.957085458233
 97
        0
 75
     2
 76
     1
 98
        0
  0
POLYLINE
  5
FF
330
1F
100
AcDbEntity
  8
Ebene 1
370
     0
100
AcDb2dPolyline
 66
     1
 10
0.0
 20
0.0
 30
0.0
  0
VERTEX
  5
100
330
FF
100
AcDbEntity
  8
Ebene 1
370
     0
100
AcDbVertex
100
AcDb2dVertex
 10
161.1663899336667
 20
-183.0737521243705
 30
0.0
  0
VERTEX
  5
101
330
FF
100
AcDbEntity
  8
Ebene 1
370
     0
100
AcDbVertex
100
AcDb2dVertex
 10
42.78136799060675
 20
-180.957085458233
 30
0.0
  0
VERTEX
  5
102
330
FF
100
AcDbEntity
  8
Ebene 1
370
     0
100
AcDbVertex
100
AcDb2dVertex
 10
42.78136799060675
 20
-183.0737521243705
 30
0.0
  0
VERTEX
  5
103
330
FF
100
AcDbEntity
  8
Ebene 1
370
     0
100
AcDbVertex
100
AcDb2dVertex
 10
161.1663899336667
 20
-183.0737521243705
 30
0.0
  0
SEQEND
  5
104
330
FF
100
AcDbEntity
  8
Ebene 1
370
     0
  0
HATCH
  5
105
330
1F
100
AcDbEntity
  8
Ebene 1
 62
   254
420
 14803683
100
AcDbHatch
 10
0.0
 20
0.0
 30
0.0
210
0.0
220
0.0
230
1.0
  2
SOLID
 70
     1
 71
     0
 91
        1
 92
        1
 93
        3
 72
     1
 10
161.1663899336667
 20
-183.0737521243705
 11
42.78136799060675
 21
-180.957085458233
 72
     1
 10
42.78136799060675
 20
-180.957085458233
 11
42.78136799060675
 21
-183.0737521243705
 72
     1
 10
42.78136799060675
 20
-183.0737521243705
 11
161.1663899336667
 21
-183.0737521243705
 97
        0
 75
     2
 76
     1
 98
        0
  0
POLYLINE
  5
106
330
1F
100
AcDbEntity
  8
Ebene 1
370
     0
100
AcDb2dPolyline
 66
     1
 10
0.0
 20
0.0
 30
0.0
  0
VERTEX
  5
107
330
106
100
AcDbEntity
  8
Ebene 1
370
     0
100
AcDbVertex
100
AcDb2dVertex
 10
42.78136799060675
 20
-180.957085458233
 30
0.0
  0
VERTEX
  5
108
330
106
100
AcDbEntity
  8
Ebene 1
370
     0
100
AcDbVertex
100
AcDb2dVertex
 10
161.1663899336667
 20
-183.0737521243705
 30
0.0
  0
VERTEX
  5
109
330
106
100
AcDbEntity
  8
Ebene 1
370
     0
100
AcDbVertex
100
AcDb2dVertex
 10
161.1663899336667
 20
-180.957085458233
 30
0.0
  0
VERTEX
  5
10A
330
106
100
AcDbEntity
  8
Ebene 1
370
     0
100
AcDbVertex
100
AcDb2dVertex
 10
42.78136799060675
 20
-180.957085458233
 30
0.0
  0
SEQEND
  5
10B
330
106
100
AcDbEntity
  8
Ebene 1
370
     0
  0
HATCH
  5
10C
330
1F
100
AcDbEntity
  8
Ebene 1
 62
   254
420
 14803683
100
AcDbHatch
 10
0.0
 20
0.0
 30
0.0
210
0.0
220
0.0
230
1.0
  2
SOLID
 70
     1
 71
     0
 91
        1
 92
        1
 93
        3
 72
     1
 10
42.78136799060675
 20
-180.957085458233
 11
161.1663899336667
 21
-183.0737521243705
 72
     1
 10
161.1663899336667
 20
-183.0737521243705
 11
161.1663899336667
 21
-180.957085458233
 72
     1
 10
161.1663899336667
 20
-180.957085458233
 11
42.78136799060675
 21
-180.957085458233
 97
        0
 75
     2
 76
     1
 98
        0
  0
POLYLINE
  5
10D
330
1F
100
AcDbEntity
  8
Ebene 1
370
     0
100
AcDb2dPolyline
 66
     1
 10
0.0
 20
0.0
 30
0.0
  0
VERTEX
  5
10E
330
10D
100
AcDbEntity
  8
Ebene 1
370
     0
100
AcDbVertex
100
AcDb2dVertex
 10
196.0913899249355
 20
-183.0737521243705
 30
0.0
  0
VERTEX
  5
10F
330
10D
100
AcDbEntity
  8
Ebene 1
370
     0
100
AcDbVertex
100
AcDb2dVertex
 10
162.7752495252784
 20
-180.957085458233
 30
0.0
  0
VERTEX
  5
110
330
10D
100
AcDbEntity
  8
Ebene 1
370
     0
100
AcDbVertex
100
AcDb2dVertex
 10
162.7752495252784
 20
-183.0737521243705
 30
0.0
  0
VERTEX
  5
111
330
10D
100
AcDbEntity
  8
Ebene 1
370
     0
100
AcDbVertex
100
AcDb2dVertex
 10
196.0913899249355
 20
-183.0737521243705
 30
0.0
  0
SEQEND
  5
112
330
10D
100
AcDbEntity
  8
Ebene 1
370
     0
  0
HATCH
  5
113
330
1F
100
AcDbEntity
  8
Ebene 1
 62
   254
420
 14803683
100
AcDbHatch
 10
0.0
 20
0.0
 30
0.0
210
0.0
220
0.0
230
1.0
  2
SOLID
 70
     1
 71
     0
 91
        1
 92
        1
 93
        3
 72
     1
 10
196.0913899249355
 20
-183.0737521243705
 11
162.7752495252784
 21
-180.957085458233
 72
     1
 10
162.7752495252784
 20
-180.957085458233
 11
162.7752495252784
 21
-183.0737521243705
 72
     1
 10
162.7752495252784
 20
-183.0737521243705
 11
196.0913899249355
 21
-183.0737521243705
 97
        0
 75
     2
 76
     1
 98
        0
  0
POLYLINE
  5
114
330
1F
100
AcDbEntity
  8
Ebene 1
370
     0
100
AcDb2dPolyline
 66
     1
 10
0.0
 20
0.0
 30
0.0
  0
VERTEX
  5
115
330
114
100
AcDbEntity
  8
Ebene 1
370
     0
100
AcDbVertex
100
AcDb2dVertex
 10
162.7752495252784
 20
-180.957085458233
 30
0.0
  0
VERTEX
  5
116
330
114
100
AcDbEntity
  8
Ebene 1
370
     0
100
AcDbVertex
100
AcDb2dVertex
 10
196.0913899249355
 20
-183.0737521243705
 30
0.0
  0
VERTEX
  5
117
330
114
100
AcDbEntity
  8
Ebene 1
370
     0
100
AcDbVertex
100
AcDb2dVertex
 10
196.0913899249355
 20
-180.957085458233
 30
0.0
  0
VERTEX
  5
118
330
114
100
AcDbEntity
  8
Ebene 1
370
     0
100
AcDbVertex
100
AcDb2dVertex
 10
162.7752495252784
 20
-180.957085458233
 30
0.0
  0
SEQEND
  5
119
330
114
100
AcDbEntity
  8
Ebene 1
370
     0
  0
HATCH
  5
11A
330
1F
100
AcDbEntity
  8
Ebene 1
 62
   254
420
 14803683
100
AcDbHatch
 10
0.0
 20
0.0
 30
0.0
210
0.0
220
0.0
230
1.0
  2
SOLID
 70
     1
 71
     0
 91
        1
 92
        1
 93
        3
 72
     1
 10
162.7752495252784
 20
-180.957085458233
 11
196.0913899249355
 21
-183.0737521243705
 72
     1
 10
196.0913899249355
 20
-183.0737521243705
 11
196.0913899249355
 21
-180.957085458233
 72
     1
 10
196.0913899249355
 20
-180.957085458233
 11
162.7752495252784
 21
-180.957085458233
 97
        0
 75
     2
 76
     1
 98
        0
  0
POLYLINE
  5
11B
330
1F
100
AcDbEntity
  8
Ebene 1
 62
   179
420
  1709851
370
    35
100
AcDb2dPolyline
 66
     1
 10
0.0
 20
0.0
 30
0.0
  0
VERTEX
  5
11C
330
11B
100
AcDbEntity
  8
Ebene 1
 62
   179
420
  1709851
370
    35
100
AcDbVertex
100
AcDb2dVertex
 10
112.5678059614414
 20
-135.8513115437281
 30
0.0
  0
VERTEX
  5
11D
330
11B
100
AcDbEntity
  8
Ebene 1
 62
   179
420
  1709851
370
    35
100
AcDbVertex
100
AcDb2dVertex
 10
112.5678059614414
 20
-131.1735608938559
 30
0.0
  0
SEQEND
  5
11E
330
11B
100
AcDbEntity
  8
Ebene 1
370
    35
  0
POLYLINE
  5
11F
330
1F
100
AcDbEntity
  8
Ebene 1
 62
   179
420
  1709851
370
    35
100
AcDb2dPolyline
 66
     1
 10
0.0
 20
0.0
 30
0.0
  0
VERTEX
  5
120
330
11F
100
AcDbEntity
  8
Ebene 1
 62
   179
420
  1709851
370
    35
100
AcDbVertex
100
AcDb2dVertex
 10
112.5678059614414
 20
-137.8622137784685
 30
0.0
  0
VERTEX
  5
121
330
11F
100
AcDbEntity
  8
Ebene 1
 62
   179
420
  1709851
370
    35
100
AcDbVertex
100
AcDb2dVertex
 10
112.5678059614414
 20
-136.8672702023283
 30
0.0
  0
SEQEND
  5
122
330
11F
100
AcDbEntity
  8
Ebene 1
370
    35
  0
POLYLINE
  5
123
330
1F
100
AcDbEntity
  8
Ebene 1
 62
   179
420
  1709851
370
    35
100
AcDb2dPolyline
 66
     1
 10
0.0
 20
0.0
 30
0.0
  0
VERTEX
  5
124
330
123
100
AcDbEntity
  8
Ebene 1
 62
   179
420
  1709851
370
    35
100
AcDbVertex
100
AcDb2dVertex
 10
112.5678059614414
 20
-145.8631035334127
 30
0.0
  0
VERTEX
  5
125
330
123
100
AcDbEntity
  8
Ebene 1
 62
   179
420
  1709851
370
    35
100
AcDbVertex
100
AcDb2dVertex
 10
112.5678059614414
 20
-138.8568128450601
 30
0.0
  0
SEQEND
  5
126
330
123
100
AcDbEntity
  8
Ebene 1
370
    35
  0
POLYLINE
  5
127
330
1F
100
AcDbEntity
  8
Ebene 1
 62
   179
420
  1709851
370
    35
100
AcDb2dPolyline
 66
     1
 10
0.0
 20
0.0
 30
0.0
  0
VERTEX
  5
128
330
127
100
AcDbEntity
  8
Ebene 1
 62
   179
420
  1709851
370
    35
100
AcDbVertex
100
AcDb2dVertex
 10
112.5678059614414
 20
-147.8526461761445
 30
0.0
  0
VERTEX
  5
129
330
127
100
AcDbEntity
  8
Ebene 1
 62
   179
420
  1709851
370
    35
100
AcDbVertex
100
AcDb2dVertex
 10
112.5678059614414
 20
-146.8580471095528
 30
0.0
  0
SEQEND
  5
12A
330
127
100
AcDbEntity
  8
Ebene 1
370
    35
  0
POLYLINE
  5
12B
330
1F
100
AcDbEntity
  8
Ebene 1
 62
   179
420
  1709851
370
    35
100
AcDb2dPolyline
 66
     1
 10
0.0
 20
0.0
 30
0.0
  0
VERTEX
  5
12C
330
12B
100
AcDbEntity
  8
Ebene 1
 62
   179
420
  1709851
370
    35
100
AcDbVertex
100
AcDb2dVertex
 10
112.5678059614414
 20
-154.7743597703342
 30
0.0
  0
VERTEX
  5
12D
330
12B
100
AcDbEntity
  8
Ebene 1
 62
   179
420
  1709851
370
    35
100
AcDbVertex
100
AcDb2dVertex
 10
112.5678059614414
 20
-148.8475897522846
 30
0.0
  0
SEQEND
  5
12E
330
12B
100
AcDbEntity
  8
Ebene 1
370
    35
  0
POLYLINE
  5
12F
330
1F
100
AcDbEntity
  8
Ebene 1
 62
   179
420
  1709851
370
    18
100
AcDb2dPolyline
 66
     1
 10
0.0
 20
0.0
 30
0.0
  0
VERTEX
  5
130
330
12F
100
AcDbEntity
  8
Ebene 1
 62
   179
420
  1709851
370
    18
100
AcDbVertex
100
AcDb2dVertex
 10
108.9697482366465
 20
-152.1705566025824
 30
0.0
  0
VERTEX
  5
131
330
12F
100
AcDbEntity
  8
Ebene 1
 62
   179
420
  1709851
370
    18
100
AcDbVertex
100
AcDb2dVertex
 10
108.9697482366465
 20
-151.1763020455393
 30
0.0
  0
SEQEND
  5
132
330
12F
100
AcDbEntity
  8
Ebene 1
370
    18
  0
POLYLINE
  5
133
330
1F
100
AcDbEntity
  8
Ebene 1
 62
   179
420
  1709851
370
    18
100
AcDb2dPolyline
 66
     1
 10
0.0
 20
0.0
 30
0.0
  0
VERTEX
  5
134
330
133
100
AcDbEntity
  8
Ebene 1
 62
   179
420
  1709851
370
    18
100
AcDbVertex
100
AcDb2dVertex
 10
108.9697482366465
 20
-152.1705566025824
 30
0.0
  0
VERTEX
  5
135
330
133
100
AcDbEntity
  8
Ebene 1
 62
   179
420
  1709851
370
    18
100
AcDbVertex
100
AcDb2dVertex
 10
108.9697482366465
 20
-152.7638020451424
 30
0.0
  0
VERTEX
  5
136
330
133
100
AcDbEntity
  8
Ebene 1
 62
   179
420
  1709851
370
    18
100
AcDbVertex
100
AcDb2dVertex
 10
116.4838459995249
 20
-152.7638020451424
 30
0.0
  0
SEQEND
  5
137
330
133
100
AcDbEntity
  8
Ebene 1
370
    18
  0
INSERT
  5
139
330
1F
100
AcDbEntity
  8
Ebene 1
100
AcDbBlockReference
  2
block 3
 10
0.0
 20
0.0
 30
0.0
  0
POLYLINE
  5
383
330
1F
100
AcDbEntity
  8
Ebene 1
 62
   179
420
  1709851
370
    13
100
AcDb2dPolyline
 66
     1
 10
0.0
 20
0.0
 30
0.0
  0
VERTEX
  5
384
330
383
100
AcDbEntity
  8
Ebene 1
 62
   179
420
  1709851
370
    13
100
AcDbVertex
100
AcDb2dVertex
 10
66.67827282404224
 20
-182.3116970030332
 30
0.0
  0
VERTEX
  5
385
330
383
100
AcDbEntity
  8
Ebene 1
 62
   179
420
  1709851
370
    13
100
AcDbVertex
100
AcDb2dVertex
 10
66.72064749851081
 20
-182.3544161870503
 30
0.0
  0
VERTEX
  5
386
330
383
100
AcDbEntity
  8
Ebene 1
 62
   179
420
  1709851
370
    13
100
AcDbVertex
100
AcDb2dVertex
 10
66.7418348357451
 20
-182.3757757790588
 30
0.0
  0
SEQEND
  5
387
330
383
100
AcDbEntity
  8
Ebene 1
370
    13
  0
POLYLINE
  5
388
330
1F
100
AcDbEntity
  8
Ebene 1
 62
   179
420
  1709851
370
    13
100
AcDb2dPolyline
 66
     1
 10
0.0
 20
0.0
 30
0.0
  0
VERTEX
  5
389
330
388
100
AcDbEntity
  8
Ebene 1
 62
   179
420
  1709851
370
    13
100
AcDbVertex
100
AcDb2dVertex
 10
68.4139119295111
 20
-182.3757757790588
 30
0.0
  0
VERTEX
  5
38A
330
388
100
AcDbEntity
  8
Ebene 1
 62
   179
420
  1709851
370
    13
100
AcDbVertex
100
AcDb2dVertex
 10
68.47747394121397
 20
-182.3330565950417
 30
0.0
  0
VERTEX
  5
38B
330
388
100
AcDbEntity
  8
Ebene 1
 62
   179
420
  1709851
370
    13
100
AcDbVertex
100
AcDb2dVertex
 10
68.47747394121397
 20
-182.3116970030332
 30
0.0
  0
SEQEND
  5
38C
330
388
100
AcDbEntity
  8
Ebene 1
370
    13
  0
POLYLINE
  5
38D
330
1F
100
AcDbEntity
  8
Ebene 1
 62
   179
420
  1709851
370
    13
100
AcDb2dPolyline
 66
     1
 10
0.0
 20
0.0
 30
0.0
  0
VERTEX
  5
38E
330
38D
100
AcDbEntity
  8
Ebene 1
 62
   179
420
  1709851
370
    13
100
AcDbVertex
100
AcDb2dVertex
 10
67.37676593367665
 20
-182.2483072461046
 30
0.0
  0
VERTEX
  5
38F
330
38D
100
AcDbEntity
  8
Ebene 1
 62
   179
420
  1709851
370
    13
100
AcDbVertex
100
AcDb2dVertex
 10
67.77898083157956
 20
-182.2483072461046
 30
0.0
  0
SEQEND
  5
390
330
38D
100
AcDbEntity
  8
Ebene 1
370
    13
  0
POLYLINE
  5
391
330
1F
100
AcDbEntity
  8
Ebene 1
 62
   179
420
  1709851
370
    13
100
AcDb2dPolyline
 66
     1
 10
0.0
 20
0.0
 30
0.0
  0
VERTEX
  5
392
330
391
100
AcDbEntity
  8
Ebene 1
 62
   179
420
  1709851
370
    13
100
AcDbVertex
100
AcDb2dVertex
 10
67.37676593367665
 20
-182.142887324256
 30
0.0
  0
VERTEX
  5
393
330
391
100
AcDbEntity
  8
Ebene 1
 62
   179
420
  1709851
370
    13
100
AcDbVertex
100
AcDb2dVertex
 10
67.77898083157956
 20
-182.142887324256
 30
0.0
  0
SEQEND
  5
394
330
391
100
AcDbEntity
  8
Ebene 1
370
    13
  0
POLYLINE
  5
395
330
1F
100
AcDbEntity
  8
Ebene 1
 62
   179
420
  1709851
370
    13
100
AcDb2dPolyline
 66
     1
 10
0.0
 20
0.0
 30
0.0
  0
VERTEX
  5
396
330
395
100
AcDbEntity
  8
Ebene 1
 62
   179
420
  1709851
370
    13
100
AcDbVertex
100
AcDb2dVertex
 10
67.37676593367665
 20
-182.0794975673274
 30
0.0
  0
VERTEX
  5
397
330
395
100
AcDbEntity
  8
Ebene 1
 62
   179
420
  1709851
370
    13
100
AcDbVertex
100
AcDb2dVertex
 10
67.77898083157956
 20
-182.1215277322474
 30
0.0
  0
SEQEND
  5
398
330
395
100
AcDbEntity
  8
Ebene 1
370
    13
  0
POLYLINE
  5
399
330
1F
100
AcDbEntity
  8
Ebene 1
 62
   179
420
  1709851
370
    13
100
AcDb2dPolyline
 66
     1
 10
0.0
 20
0.0
 30
0.0
  0
VERTEX
  5
39A
330
399
100
AcDbEntity
  8
Ebene 1
 62
   179
420
  1709851
370
    13
100
AcDbVertex
100
AcDb2dVertex
 10
67.37676593367665
 20
-181.9733886263816
 30
0.0
  0
VERTEX
  5
39B
330
399
100
AcDbEntity
  8
Ebene 1
 62
   179
420
  1709851
370
    13
100
AcDbVertex
100
AcDb2dVertex
 10
67.77898083157956
 20
-182.0161078103988
 30
0.0
  0
SEQEND
  5
39C
330
399
100
AcDbEntity
  8
Ebene 1
370
    13
  0
POLYLINE
  5
39D
330
1F
100
AcDbEntity
  8
Ebene 1
 62
   179
420
  1709851
370
    13
100
AcDb2dPolyline
 66
     1
 10
0.0
 20
0.0
 30
0.0
  0
VERTEX
  5
39E
330
39D
100
AcDbEntity
  8
Ebene 1
 62
   179
420
  1709851
370
    13
100
AcDbVertex
100
AcDb2dVertex
 10
67.37676593367665
 20
-181.867279685436
 30
0.0
  0
VERTEX
  5
39F
330
39D
100
AcDbEntity
  8
Ebene 1
 62
   179
420
  1709851
370
    13
100
AcDbVertex
100
AcDb2dVertex
 10
67.77898083157956
 20
-181.9099988694531
 30
0.0
  0
SEQEND
  5
3A0
330
39D
100
AcDbEntity
  8
Ebene 1
370
    13
  0
POLYLINE
  5
3A1
330
1F
100
AcDbEntity
  8
Ebene 1
 62
   179
420
  1709851
370
    13
100
AcDb2dPolyline
 66
     1
 10
0.0
 20
0.0
 30
0.0
  0
VERTEX
  5
3A2
330
3A1
100
AcDbEntity
  8
Ebene 1
 62
   179
420
  1709851
370
    13
100
AcDbVertex
100
AcDb2dVertex
 10
67.37676593367665
 20
-181.7618597635873
 30
0.0
  0
VERTEX
  5
3A3
330
3A1
100
AcDbEntity
  8
Ebene 1
 62
   179
420
  1709851
370
    13
100
AcDbVertex
100
AcDb2dVertex
 10
67.77898083157956
 20
-181.8038899285074
 30
0.0
  0
SEQEND
  5
3A4
330
3A1
100
AcDbEntity
  8
Ebene 1
370
    13
  0
POLYLINE
  5
3A5
330
1F
100
AcDbEntity
  8
Ebene 1
 62
   179
420
  1709851
370
    13
100
AcDb2dPolyline
 66
     1
 10
0.0
 20
0.0
 30
0.0
  0
VERTEX
  5
3A6
330
3A5
100
AcDbEntity
  8
Ebene 1
 62
   179
420
  1709851
370
    13
100
AcDbVertex
100
AcDb2dVertex
 10
67.37676593367665
 20
-181.6557508226416
 30
0.0
  0
VERTEX
  5
3A7
330
3A5
100
AcDbEntity
  8
Ebene 1
 62
   179
420
  1709851
370
    13
100
AcDbVertex
100
AcDb2dVertex
 10
67.77898083157956
 20
-181.6984700066587
 30
0.0
  0
SEQEND
  5
3A8
330
3A5
100
AcDbEntity
  8
Ebene 1
370
    13
  0
POLYLINE
  5
3A9
330
1F
100
AcDbEntity
  8
Ebene 1
 62
   179
420
  1709851
370
    13
100
AcDb2dPolyline
 66
     1
 10
0.0
 20
0.0
 30
0.0
  0
VERTEX
  5
3AA
330
3A9
100
AcDbEntity
  8
Ebene 1
 62
   179
420
  1709851
370
    13
100
AcDbVertex
100
AcDb2dVertex
 10
67.37676593367665
 20
-181.550330900793
 30
0.0
  0
VERTEX
  5
3AB
330
3A9
100
AcDbEntity
  8
Ebene 1
 62
   179
420
  1709851
370
    13
100
AcDbVertex
100
AcDb2dVertex
 10
67.77898083157956
 20
-181.592361065713
 30
0.0
  0
SEQEND
  5
3AC
330
3A9
100
AcDbEntity
  8
Ebene 1
370
    13
  0
POLYLINE
  5
3AD
330
1F
100
AcDbEntity
  8
Ebene 1
 62
   179
420
  1709851
370
    13
100
AcDb2dPolyline
 66
     1
 10
0.0
 20
0.0
 30
0.0
  0
VERTEX
  5
3AE
330
3AD
100
AcDbEntity
  8
Ebene 1
 62
   179
420
  1709851
370
    13
100
AcDbVertex
100
AcDb2dVertex
 10
67.37676593367665
 20
-181.4442219598473
 30
0.0
  0
VERTEX
  5
3AF
330
3AD
100
AcDbEntity
  8
Ebene 1
 62
   179
420
  1709851
370
    13
100
AcDbVertex
100
AcDb2dVertex
 10
67.77898083157956
 20
-181.4869411438644
 30
0.0
  0
SEQEND
  5
3B0
330
3AD
100
AcDbEntity
  8
Ebene 1
370
    13
  0
POLYLINE
  5
3B1
330
1F
100
AcDbEntity
  8
Ebene 1
 62
   179
420
  1709851
370
    13
100
AcDb2dPolyline
 66
     1
 10
0.0
 20
0.0
 30
0.0
  0
VERTEX
  5
3B2
330
3B1
100
AcDbEntity
  8
Ebene 1
 62
   179
420
  1709851
370
    13
100
AcDbVertex
100
AcDb2dVertex
 10
67.37676593367665
 20
-181.3381130189016
 30
0.0
  0
VERTEX
  5
3B3
330
3B1
100
AcDbEntity
  8
Ebene 1
 62
   179
420
  1709851
370
    13
100
AcDbVertex
100
AcDb2dVertex
 10
67.77898083157956
 20
-181.3808322029187
 30
0.0
  0
SEQEND
  5
3B4
330
3B1
100
AcDbEntity
  8
Ebene 1
370
    13
  0
POLYLINE
  5
3B5
330
1F
100
AcDbEntity
  8
Ebene 1
 62
   179
420
  1709851
370
    13
100
AcDb2dPolyline
 66
     1
 10
0.0
 20
0.0
 30
0.0
  0
VERTEX
  5
3B6
330
3B5
100
AcDbEntity
  8
Ebene 1
 62
   179
420
  1709851
370
    13
100
AcDbVertex
100
AcDb2dVertex
 10
67.37676593367665
 20
-181.232693097053
 30
0.0
  0
VERTEX
  5
3B7
330
3B5
100
AcDbEntity
  8
Ebene 1
 62
   179
420
  1709851
370
    13
100
AcDbVertex
100
AcDb2dVertex
 10
67.77898083157956
 20
-181.274723261973
 30
0.0
  0
SEQEND
  5
3B8
330
3B5
100
AcDbEntity
  8
Ebene 1
370
    13
  0
POLYLINE
  5
3B9
330
1F
100
AcDbEntity
  8
Ebene 1
 62
   179
420
  1709851
370
    13
100
AcDb2dPolyline
 66
     1
 10
0.0
 20
0.0
 30
0.0
  0
VERTEX
  5
3BA
330
3B9
100
AcDbEntity
  8
Ebene 1
 62
   179
420
  1709851
370
    13
100
AcDbVertex
100
AcDb2dVertex
 10
67.37676593367665
 20
-181.1265841561072
 30
0.0
  0
VERTEX
  5
3BB
330
3B9
100
AcDbEntity
  8
Ebene 1
 62
   179
420
  1709851
370
    13
100
AcDbVertex
100
AcDb2dVertex
 10
67.77898083157956
 20
-181.1693033401243
 30
0.0
  0
SEQEND
  5
3BC
330
3B9
100
AcDbEntity
  8
Ebene 1
370
    13
  0
POLYLINE
  5
3BD
330
1F
100
AcDbEntity
  8
Ebene 1
 62
   179
420
  1709851
370
    13
100
AcDb2dPolyline
 66
     1
 10
0.0
 20
0.0
 30
0.0
  0
VERTEX
  5
3BE
330
3BD
100
AcDbEntity
  8
Ebene 1
 62
   179
420
  1709851
370
    13
100
AcDbVertex
100
AcDb2dVertex
 10
67.37676593367665
 20
-181.0211642342586
 30
0.0
  0
VERTEX
  5
3BF
330
3BD
100
AcDbEntity
  8
Ebene 1
 62
   179
420
  1709851
370
    13
100
AcDbVertex
100
AcDb2dVertex
 10
67.77898083157956
 20
-181.0631943991787
 30
0.0
  0
SEQEND
  5
3C0
330
3BD
100
AcDbEntity
  8
Ebene 1
370
    13
  0
POLYLINE
  5
3C1
330
1F
100
AcDbEntity
  8
Ebene 1
 62
   179
420
  1709851
370
    13
100
AcDb2dPolyline
 66
     1
 10
0.0
 20
0.0
 30
0.0
  0
VERTEX
  5
3C2
330
3C1
100
AcDbEntity
  8
Ebene 1
 62
   179
420
  1709851
370
    13
100
AcDbVertex
100
AcDb2dVertex
 10
67.37676593367665
 20
-180.95777447733
 30
0.0
  0
VERTEX
  5
3C3
330
3C1
100
AcDbEntity
  8
Ebene 1
 62
   179
420
  1709851
370
    13
100
AcDbVertex
100
AcDb2dVertex
 10
67.37676593367665
 20
-182.3757757790588
 30
0.0
  0
SEQEND
  5
3C4
330
3C1
100
AcDbEntity
  8
Ebene 1
370
    13
  0
POLYLINE
  5
3C5
330
1F
100
AcDbEntity
  8
Ebene 1
 62
   179
420
  1709851
370
    13
100
AcDb2dPolyline
 66
     1
 10
0.0
 20
0.0
 30
0.0
  0
VERTEX
  5
3C6
330
3C5
100
AcDbEntity
  8
Ebene 1
 62
   179
420
  1709851
370
    13
100
AcDbVertex
100
AcDb2dVertex
 10
67.77898083157956
 20
-180.95777447733
 30
0.0
  0
VERTEX
  5
3C7
330
3C5
100
AcDbEntity
  8
Ebene 1
 62
   179
420
  1709851
370
    13
100
AcDbVertex
100
AcDb2dVertex
 10
67.77898083157956
 20
-182.3757757790588
 30
0.0
  0
SEQEND
  5
3C8
330
3C5
100
AcDbEntity
  8
Ebene 1
370
    13
  0
POLYLINE
  5
3C9
330
1F
100
AcDbEntity
  8
Ebene 1
 62
   179
420
  1709851
370
    13
100
AcDb2dPolyline
 66
     1
 10
0.0
 20
0.0
 30
0.0
  0
VERTEX
  5
3CA
330
3C9
100
AcDbEntity
  8
Ebene 1
 62
   179
420
  1709851
370
    13
100
AcDbVertex
100
AcDb2dVertex
 10
68.28696016087966
 20
-182.0161078103988
 30
0.0
  0
VERTEX
  5
3CB
330
3C9
100
AcDbEntity
  8
Ebene 1
 62
   179
420
  1709851
370
    13
100
AcDbVertex
100
AcDb2dVertex
 10
68.28696016087966
 20
-180.95777447733
 30
0.0
  0
SEQEND
  5
3CC
330
3C9
100
AcDbEntity
  8
Ebene 1
370
    13
  0
POLYLINE
  5
3CD
330
1F
100
AcDbEntity
  8
Ebene 1
 62
   179
420
  1709851
370
    13
100
AcDb2dPolyline
 66
     1
 10
0.0
 20
0.0
 30
0.0
  0
VERTEX
  5
3CE
330
3CD
100
AcDbEntity
  8
Ebene 1
 62
   179
420
  1709851
370
    13
100
AcDbVertex
100
AcDb2dVertex
 10
67.37676593367665
 20
-182.0161078103988
 30
0.0
  0
VERTEX
  5
3CF
330
3CD
100
AcDbEntity
  8
Ebene 1
 62
   179
420
  1709851
370
    13
100
AcDbVertex
100
AcDb2dVertex
 10
66.88997394161085
 20
-182.0161078103988
 30
0.0
  0
SEQEND
  5
3D0
330
3CD
100
AcDbEntity
  8
Ebene 1
370
    13
  0
POLYLINE
  5
3D1
330
1F
100
AcDbEntity
  8
Ebene 1
 62
   179
420
  1709851
370
    13
100
AcDb2dPolyline
 66
     1
 10
0.0
 20
0.0
 30
0.0
  0
VERTEX
  5
3D2
330
3D1
100
AcDbEntity
  8
Ebene 1
 62
   179
420
  1709851
370
    13
100
AcDbVertex
100
AcDb2dVertex
 10
68.28696016087966
 20
-182.0161078103988
 30
0.0
  0
VERTEX
  5
3D3
330
3D1
100
AcDbEntity
  8
Ebene 1
 62
   179
420
  1709851
370
    13
100
AcDbVertex
100
AcDb2dVertex
 10
67.77898083157956
 20
-182.0161078103988
 30
0.0
  0
SEQEND
  5
3D4
330
3D1
100
AcDbEntity
  8
Ebene 1
370
    13
  0
POLYLINE
  5
3D5
330
1F
100
AcDbEntity
  8
Ebene 1
 62
   179
420
  1709851
370
    13
100
AcDb2dPolyline
 66
     1
 10
0.0
 20
0.0
 30
0.0
  0
VERTEX
  5
3D6
330
3D5
100
AcDbEntity
  8
Ebene 1
 62
   179
420
  1709851
370
    13
100
AcDbVertex
100
AcDb2dVertex
 10
68.28696016087966
 20
-182.0161078103988
 30
0.0
  0
VERTEX
  5
3D7
330
3D5
100
AcDbEntity
  8
Ebene 1
 62
   179
420
  1709851
370
    13
100
AcDbVertex
100
AcDb2dVertex
 10
68.47747394121397
 20
-182.2062770811845
 30
0.0
  0
VERTEX
  5
3D8
330
3D5
100
AcDbEntity
  8
Ebene 1
 62
   179
420
  1709851
370
    13
100
AcDbVertex
100
AcDb2dVertex
 10
68.47747394121397
 20
-182.3123860221303
 30
0.0
  0
SEQEND
  5
3D9
330
3D5
100
AcDbEntity
  8
Ebene 1
370
    13
  0
POLYLINE
  5
3DA
330
1F
100
AcDbEntity
  8
Ebene 1
 62
   179
420
  1709851
370
    13
100
AcDb2dPolyline
 66
     1
 10
0.0
 20
0.0
 30
0.0
  0
VERTEX
  5
3DB
330
3DA
100
AcDbEntity
  8
Ebene 1
 62
   179
420
  1709851
370
    13
100
AcDbVertex
100
AcDb2dVertex
 10
67.77898083157956
 20
-182.2062770811845
 30
0.0
  0
VERTEX
  5
3DC
330
3DA
100
AcDbEntity
  8
Ebene 1
 62
   179
420
  1709851
370
    13
100
AcDbVertex
100
AcDb2dVertex
 10
68.47747394121397
 20
-182.2062770811845
 30
0.0
  0
SEQEND
  5
3DD
330
3DA
100
AcDbEntity
  8
Ebene 1
370
    13
  0
POLYLINE
  5
3DE
330
1F
100
AcDbEntity
  8
Ebene 1
 62
   179
420
  1709851
370
    13
100
AcDb2dPolyline
 66
     1
 10
0.0
 20
0.0
 30
0.0
  0
VERTEX
  5
3DF
330
3DE
100
AcDbEntity
  8
Ebene 1
 62
   179
420
  1709851
370
    13
100
AcDbVertex
100
AcDb2dVertex
 10
66.67827282404224
 20
-182.2062770811845
 30
0.0
  0
VERTEX
  5
3E0
330
3DE
100
AcDbEntity
  8
Ebene 1
 62
   179
420
  1709851
370
    13
100
AcDbVertex
100
AcDb2dVertex
 10
67.37676593367665
 20
-182.2062770811845
 30
0.0
  0
SEQEND
  5
3E1
330
3DE
100
AcDbEntity
  8
Ebene 1
370
    13
  0
POLYLINE
  5
3E2
330
1F
100
AcDbEntity
  8
Ebene 1
 62
   179
420
  1709851
370
    13
100
AcDb2dPolyline
 66
     1
 10
0.0
 20
0.0
 30
0.0
  0
VERTEX
  5
3E3
330
3E2
100
AcDbEntity
  8
Ebene 1
 62
   179
420
  1709851
370
    13
100
AcDbVertex
100
AcDb2dVertex
 10
66.7418348357451
 20
-182.3757757790588
 30
0.0
  0
VERTEX
  5
3E4
330
3E2
100
AcDbEntity
  8
Ebene 1
 62
   179
420
  1709851
370
    13
100
AcDbVertex
100
AcDb2dVertex
 10
68.4139119295111
 20
-182.3757757790588
 30
0.0
  0
SEQEND
  5
3E5
330
3E2
100
AcDbEntity
  8
Ebene 1
370
    13
  0
POLYLINE
  5
3E6
330
1F
100
AcDbEntity
  8
Ebene 1
 62
   179
420
  1709851
370
    13
100
AcDb2dPolyline
 66
     1
 10
0.0
 20
0.0
 30
0.0
  0
VERTEX
  5
3E7
330
3E6
100
AcDbEntity
  8
Ebene 1
 62
   179
420
  1709851
370
    13
100
AcDbVertex
100
AcDb2dVertex
 10
66.88997394161085
 20
-182.0161078103988
 30
0.0
  0
VERTEX
  5
3E8
330
3E6
100
AcDbEntity
  8
Ebene 1
 62
   179
420
  1709851
370
    13
100
AcDbVertex
100
AcDb2dVertex
 10
66.67827282404224
 20
-182.2062770811845
 30
0.0
  0
VERTEX
  5
3E9
330
3E6
100
AcDbEntity
  8
Ebene 1
 62
   179
420
  1709851
370
    13
100
AcDbVertex
100
AcDb2dVertex
 10
66.67827282404224
 20
-182.3123860221303
 30
0.0
  0
SEQEND
  5
3EA
330
3E6
100
AcDbEntity
  8
Ebene 1
370
    13
  0
POLYLINE
  5
3EB
330
1F
100
AcDbEntity
  8
Ebene 1
 62
   179
420
  1709851
370
    13
100
AcDb2dPolyline
 66
     1
 10
0.0
 20
0.0
 30
0.0
  0
VERTEX
  5
3EC
330
3EB
100
AcDbEntity
  8
Ebene 1
 62
   179
420
  1709851
370
    13
100
AcDbVertex
100
AcDb2dVertex
 10
67.37676593367665
 20
-181.7618597635873
 30
0.0
  0
VERTEX
  5
3ED
330
3EB
100
AcDbEntity
  8
Ebene 1
 62
   179
420
  1709851
370
    13
100
AcDbVertex
100
AcDb2dVertex
 10
67.37676593367665
 20
-181.7618597635873
 30
0.0
  0
VERTEX
  5
3EE
330
3EB
100
AcDbEntity
  8
Ebene 1
 62
   179
420
  1709851
370
    13
100
AcDbVertex
100
AcDb2dVertex
 10
67.77898083157956
 20
-181.8038899285074
 30
0.0
  0
SEQEND
  5
3EF
330
3EB
100
AcDbEntity
  8
Ebene 1
370
    13
  0
POLYLINE
  5
3F0
330
1F
100
AcDbEntity
  8
Ebene 1
 62
   179
420
  1709851
370
    13
100
AcDb2dPolyline
 66
     1
 10
0.0
 20
0.0
 30
0.0
  0
VERTEX
  5
3F1
330
3F0
100
AcDbEntity
  8
Ebene 1
 62
   179
420
  1709851
370
    13
100
AcDbVertex
100
AcDb2dVertex
 10
67.37676593367665
 20
-181.6557508226416
 30
0.0
  0
VERTEX
  5
3F2
330
3F0
100
AcDbEntity
  8
Ebene 1
 62
   179
420
  1709851
370
    13
100
AcDbVertex
100
AcDb2dVertex
 10
67.37676593367665
 20
-181.6557508226416
 30
0.0
  0
VERTEX
  5
3F3
330
3F0
100
AcDbEntity
  8
Ebene 1
 62
   179
420
  1709851
370
    13
100
AcDbVertex
100
AcDb2dVertex
 10
67.77898083157956
 20
-181.6984700066587
 30
0.0
  0
SEQEND
  5
3F4
330
3F0
100
AcDbEntity
  8
Ebene 1
370
    13
  0
POLYLINE
  5
3F5
330
1F
100
AcDbEntity
  8
Ebene 1
 62
   179
420
  1709851
370
    13
100
AcDb2dPolyline
 66
     1
 10
0.0
 20
0.0
 30
0.0
  0
VERTEX
  5
3F6
330
3F5
100
AcDbEntity
  8
Ebene 1
 62
   179
420
  1709851
370
    13
100
AcDbVertex
100
AcDb2dVertex
 10
67.37676593367665
 20
-181.550330900793
 30
0.0
  0
VERTEX
  5
3F7
330
3F5
100
AcDbEntity
  8
Ebene 1
 62
   179
420
  1709851
370
    13
100
AcDbVertex
100
AcDb2dVertex
 10
67.37676593367665
 20
-181.550330900793
 30
0.0
  0
VERTEX
  5
3F8
330
3F5
100
AcDbEntity
  8
Ebene 1
 62
   179
420
  1709851
370
    13
100
AcDbVertex
100
AcDb2dVertex
 10
67.77898083157956
 20
-181.592361065713
 30
0.0
  0
SEQEND
  5
3F9
330
3F5
100
AcDbEntity
  8
Ebene 1
370
    13
  0
POLYLINE
  5
3FA
330
1F
100
AcDbEntity
  8
Ebene 1
 62
   179
420
  1709851
370
    13
100
AcDb2dPolyline
 66
     1
 10
0.0
 20
0.0
 30
0.0
  0
VERTEX
  5
3FB
330
3FA
100
AcDbEntity
  8
Ebene 1
 62
   179
420
  1709851
370
    13
100
AcDbVertex
100
AcDb2dVertex
 10
67.37676593367665
 20
-181.9733886263816
 30
0.0
  0
VERTEX
  5
3FC
330
3FA
100
AcDbEntity
  8
Ebene 1
 62
   179
420
  1709851
370
    13
100
AcDbVertex
100
AcDb2dVertex
 10
67.37676593367665
 20
-181.9733886263816
 30
0.0
  0
VERTEX
  5
3FD
330
3FA
100
AcDbEntity
  8
Ebene 1
 62
   179
420
  1709851
370
    13
100
AcDbVertex
100
AcDb2dVertex
 10
67.77898083157956
 20
-182.0161078103988
 30
0.0
  0
SEQEND
  5
3FE
330
3FA
100
AcDbEntity
  8
Ebene 1
370
    13
  0
POLYLINE
  5
3FF
330
1F
100
AcDbEntity
  8
Ebene 1
 62
   179
420
  1709851
370
    13
100
AcDb2dPolyline
 66
     1
 10
0.0
 20
0.0
 30
0.0
  0
VERTEX
  5
400
330
3FF
100
AcDbEntity
  8
Ebene 1
 62
   179
420
  1709851
370
    13
100
AcDbVertex
100
AcDb2dVertex
 10
67.37676593367665
 20
-181.867279685436
 30
0.0
  0
VERTEX
  5
401
330
3FF
100
AcDbEntity
  8
Ebene 1
 62
   179
420
  1709851
370
    13
100
AcDbVertex
100
AcDb2dVertex
 10
67.37676593367665
 20
-181.867279685436
 30
0.0
  0
VERTEX
  5
402
330
3FF
100
AcDbEntity
  8
Ebene 1
 62
   179
420
  1709851
370
    13
100
AcDbVertex
100
AcDb2dVertex
 10
67.77898083157956
 20
-181.9099988694531
 30
0.0
  0
SEQEND
  5
403
330
3FF
100
AcDbEntity
  8
Ebene 1
370
    13
  0
POLYLINE
  5
404
330
1F
100
AcDbEntity
  8
Ebene 1
 62
   179
420
  1709851
370
    13
100
AcDb2dPolyline
 66
     1
 10
0.0
 20
0.0
 30
0.0
  0
VERTEX
  5
405
330
404
100
AcDbEntity
  8
Ebene 1
 62
   179
420
  1709851
370
    13
100
AcDbVertex
100
AcDb2dVertex
 10
67.37676593367665
 20
-181.4442219598473
 30
0.0
  0
VERTEX
  5
406
330
404
100
AcDbEntity
  8
Ebene 1
 62
   179
420
  1709851
370
    13
100
AcDbVertex
100
AcDb2dVertex
 10
67.37676593367665
 20
-181.4442219598473
 30
0.0
  0
VERTEX
  5
407
330
404
100
AcDbEntity
  8
Ebene 1
 62
   179
420
  1709851
370
    13
100
AcDbVertex
100
AcDb2dVertex
 10
67.77898083157956
 20
-181.4869411438644
 30
0.0
  0
SEQEND
  5
408
330
404
100
AcDbEntity
  8
Ebene 1
370
    13
  0
POLYLINE
  5
409
330
1F
100
AcDbEntity
  8
Ebene 1
 62
   179
420
  1709851
370
    13
100
AcDb2dPolyline
 66
     1
 10
0.0
 20
0.0
 30
0.0
  0
VERTEX
  5
40A
330
409
100
AcDbEntity
  8
Ebene 1
 62
   179
420
  1709851
370
    13
100
AcDbVertex
100
AcDb2dVertex
 10
67.37676593367665
 20
-181.3381130189016
 30
0.0
  0
VERTEX
  5
40B
330
409
100
AcDbEntity
  8
Ebene 1
 62
   179
420
  1709851
370
    13
100
AcDbVertex
100
AcDb2dVertex
 10
67.37676593367665
 20
-181.3381130189016
 30
0.0
  0
VERTEX
  5
40C
330
409
100
AcDbEntity
  8
Ebene 1
 62
   179
420
  1709851
370
    13
100
AcDbVertex
100
AcDb2dVertex
 10
67.77898083157956
 20
-181.3808322029187
 30
0.0
  0
SEQEND
  5
40D
330
409
100
AcDbEntity
  8
Ebene 1
370
    13
  0
POLYLINE
  5
40E
330
1F
100
AcDbEntity
  8
Ebene 1
 62
   179
420
  1709851
370
    13
100
AcDb2dPolyline
 66
     1
 10
0.0
 20
0.0
 30
0.0
  0
VERTEX
  5
40F
330
40E
100
AcDbEntity
  8
Ebene 1
 62
   179
420
  1709851
370
    13
100
AcDbVertex
100
AcDb2dVertex
 10
67.37676593367665
 20
-181.232693097053
 30
0.0
  0
VERTEX
  5
410
330
40E
100
AcDbEntity
  8
Ebene 1
 62
   179
420
  1709851
370
    13
100
AcDbVertex
100
AcDb2dVertex
 10
67.37676593367665
 20
-181.232693097053
 30
0.0
  0
VERTEX
  5
411
330
40E
100
AcDbEntity
  8
Ebene 1
 62
   179
420
  1709851
370
    13
100
AcDbVertex
100
AcDb2dVertex
 10
67.77898083157956
 20
-181.274723261973
 30
0.0
  0
SEQEND
  5
412
330
40E
100
AcDbEntity
  8
Ebene 1
370
    13
  0
POLYLINE
  5
413
330
1F
100
AcDbEntity
  8
Ebene 1
 62
   179
420
  1709851
370
    13
100
AcDb2dPolyline
 66
     1
 10
0.0
 20
0.0
 30
0.0
  0
VERTEX
  5
414
330
413
100
AcDbEntity
  8
Ebene 1
 62
   179
420
  1709851
370
    13
100
AcDbVertex
100
AcDb2dVertex
 10
67.37676593367665
 20
-181.1265841561072
 30
0.0
  0
VERTEX
  5
415
330
413
100
AcDbEntity
  8
Ebene 1
 62
   179
420
  1709851
370
    13
100
AcDbVertex
100
AcDb2dVertex
 10
67.37676593367665
 20
-181.1265841561072
 30
0.0
  0
VERTEX
  5
416
330
413
100
AcDbEntity
  8
Ebene 1
 62
   179
420
  1709851
370
    13
100
AcDbVertex
100
AcDb2dVertex
 10
67.77898083157956
 20
-181.1693033401243
 30
0.0
  0
SEQEND
  5
417
330
413
100
AcDbEntity
  8
Ebene 1
370
    13
  0
POLYLINE
  5
418
330
1F
100
AcDbEntity
  8
Ebene 1
 62
   179
420
  1709851
370
    13
100
AcDb2dPolyline
 66
     1
 10
0.0
 20
0.0
 30
0.0
  0
VERTEX
  5
419
330
418
100
AcDbEntity
  8
Ebene 1
 62
   179
420
  1709851
370
    13
100
AcDbVertex
100
AcDb2dVertex
 10
67.37676593367665
 20
-181.0211642342586
 30
0.0
  0
VERTEX
  5
41A
330
418
100
AcDbEntity
  8
Ebene 1
 62
   179
420
  1709851
370
    13
100
AcDbVertex
100
AcDb2dVertex
 10
67.37676593367665
 20
-181.0211642342586
 30
0.0
  0
VERTEX
  5
41B
330
418
100
AcDbEntity
  8
Ebene 1
 62
   179
420
  1709851
370
    13
100
AcDbVertex
100
AcDb2dVertex
 10
67.77898083157956
 20
-181.0631943991787
 30
0.0
  0
SEQEND
  5
41C
330
418
100
AcDbEntity
  8
Ebene 1
370
    13
  0
POLYLINE
  5
41D
330
1F
100
AcDbEntity
  8
Ebene 1
 62
   179
420
  1709851
370
    13
100
AcDb2dPolyline
 66
     1
 10
0.0
 20
0.0
 30
0.0
  0
VERTEX
  5
41E
330
41D
100
AcDbEntity
  8
Ebene 1
 62
   179
420
  1709851
370
    13
100
AcDbVertex
100
AcDb2dVertex
 10
67.50388995708236
 20
-182.1001681402388
 30
0.0
  0
VERTEX
  5
41F
330
41D
100
AcDbEntity
  8
Ebene 1
 62
   179
420
  1709851
370
    13
100
AcDbVertex
100
AcDb2dVertex
 10
67.77898083157956
 20
-182.1215277322474
 30
0.0
  0
SEQEND
  5
420
330
41D
100
AcDbEntity
  8
Ebene 1
370
    13
  0
POLYLINE
  5
421
330
1F
100
AcDbEntity
  8
Ebene 1
 62
   179
420
  1709851
370
    13
100
AcDb2dPolyline
 66
     1
 10
0.0
 20
0.0
 30
0.0
  0
VERTEX
  5
422
330
421
100
AcDbEntity
  8
Ebene 1
 62
   179
420
  1709851
370
    13
100
AcDbVertex
100
AcDb2dVertex
 10
67.37676593367665
 20
-182.2483072461046
 30
0.0
  0
VERTEX
  5
423
330
421
100
AcDbEntity
  8
Ebene 1
 62
   179
420
  1709851
370
    13
100
AcDbVertex
100
AcDb2dVertex
 10
67.37676593367665
 20
-182.2483072461046
 30
0.0
  0
VERTEX
  5
424
330
421
100
AcDbEntity
  8
Ebene 1
 62
   179
420
  1709851
370
    13
100
AcDbVertex
100
AcDb2dVertex
 10
67.77898083157956
 20
-182.2483072461046
 30
0.0
  0
SEQEND
  5
425
330
421
100
AcDbEntity
  8
Ebene 1
370
    13
  0
POLYLINE
  5
426
330
1F
100
AcDbEntity
  8
Ebene 1
 62
   179
420
  1709851
370
    13
100
AcDb2dPolyline
 66
     1
 10
0.0
 20
0.0
 30
0.0
  0
VERTEX
  5
427
330
426
100
AcDbEntity
  8
Ebene 1
 62
   179
420
  1709851
370
    13
100
AcDbVertex
100
AcDb2dVertex
 10
67.37676593367665
 20
-182.142887324256
 30
0.0
  0
VERTEX
  5
428
330
426
100
AcDbEntity
  8
Ebene 1
 62
   179
420
  1709851
370
    13
100
AcDbVertex
100
AcDb2dVertex
 10
67.37676593367665
 20
-182.142887324256
 30
0.0
  0
VERTEX
  5
429
330
426
100
AcDbEntity
  8
Ebene 1
 62
   179
420
  1709851
370
    13
100
AcDbVertex
100
AcDb2dVertex
 10
67.77898083157956
 20
-182.142887324256
 30
0.0
  0
SEQEND
  5
42A
330
426
100
AcDbEntity
  8
Ebene 1
370
    13
  0
POLYLINE
  5
42B
330
1F
100
AcDbEntity
  8
Ebene 1
 62
   179
420
  1709851
370
    13
100
AcDb2dPolyline
 66
     1
 10
0.0
 20
0.0
 30
0.0
  0
VERTEX
  5
42C
330
42B
100
AcDbEntity
  8
Ebene 1
 62
   179
420
  1709851
370
    13
100
AcDbVertex
100
AcDb2dVertex
 10
135.4701117282852
 20
-182.3116970030332
 30
0.0
  0
VERTEX
  5
42D
330
42B
100
AcDbEntity
  8
Ebene 1
 62
   179
420
  1709851
370
    13
100
AcDbVertex
100
AcDb2dVertex
 10
135.5121418932053
 20
-182.3544161870503
 30
0.0
  0
VERTEX
  5
42E
330
42B
100
AcDbEntity
  8
Ebene 1
 62
   179
420
  1709851
370
    13
100
AcDbVertex
100
AcDb2dVertex
 10
135.5338459947624
 20
-182.3757757790588
 30
0.0
  0
SEQEND
  5
42F
330
42B
100
AcDbEntity
  8
Ebene 1
370
    13
  0
POLYLINE
  5
430
330
1F
100
AcDbEntity
  8
Ebene 1
 62
   179
420
  1709851
370
    13
100
AcDb2dPolyline
 66
     1
 10
0.0
 20
0.0
 30
0.0
  0
VERTEX
  5
431
330
430
100
AcDbEntity
  8
Ebene 1
 62
   179
420
  1709851
370
    13
100
AcDbVertex
100
AcDb2dVertex
 10
137.2060953433026
 20
-182.3757757790588
 30
0.0
  0
VERTEX
  5
432
330
430
100
AcDbEntity
  8
Ebene 1
 62
   179
420
  1709851
370
    13
100
AcDbVertex
100
AcDb2dVertex
 10
137.2691405906827
 20
-182.3330565950417
 30
0.0
  0
VERTEX
  5
433
330
430
100
AcDbEntity
  8
Ebene 1
 62
   179
420
  1709851
370
    13
100
AcDbVertex
100
AcDb2dVertex
 10
137.2691405906827
 20
-182.3116970030332
 30
0.0
  0
SEQEND
  5
434
330
430
100
AcDbEntity
  8
Ebene 1
370
    13
  0
POLYLINE
  5
435
330
1F
100
AcDbEntity
  8
Ebene 1
 62
   179
420
  1709851
370
    13
100
AcDb2dPolyline
 66
     1
 10
0.0
 20
0.0
 30
0.0
  0
VERTEX
  5
436
330
435
100
AcDbEntity
  8
Ebene 1
 62
   179
420
  1709851
370
    13
100
AcDbVertex
100
AcDb2dVertex
 10
136.1684325831454
 20
-182.2483072461046
 30
0.0
  0
VERTEX
  5
437
330
435
100
AcDbEntity
  8
Ebene 1
 62
   179
420
  1709851
370
    13
100
AcDbVertex
100
AcDb2dVertex
 10
136.5704752262741
 20
-182.2483072461046
 30
0.0
  0
SEQEND
  5
438
330
435
100
AcDbEntity
  8
Ebene 1
370
    13
  0
POLYLINE
  5
439
330
1F
100
AcDbEntity
  8
Ebene 1
 62
   179
420
  1709851
370
    13
100
AcDb2dPolyline
 66
     1
 10
0.0
 20
0.0
 30
0.0
  0
VERTEX
  5
43A
330
439
100
AcDbEntity
  8
Ebene 1
 62
   179
420
  1709851
370
    13
100
AcDbVertex
100
AcDb2dVertex
 10
136.1684325831454
 20
-182.142887324256
 30
0.0
  0
VERTEX
  5
43B
330
439
100
AcDbEntity
  8
Ebene 1
 62
   179
420
  1709851
370
    13
100
AcDbVertex
100
AcDb2dVertex
 10
136.5704752262741
 20
-182.142887324256
 30
0.0
  0
SEQEND
  5
43C
330
439
100
AcDbEntity
  8
Ebene 1
370
    13
  0
POLYLINE
  5
43D
330
1F
100
AcDbEntity
  8
Ebene 1
 62
   179
420
  1709851
370
    13
100
AcDb2dPolyline
 66
     1
 10
0.0
 20
0.0
 30
0.0
  0
VERTEX
  5
43E
330
43D
100
AcDbEntity
  8
Ebene 1
 62
   179
420
  1709851
370
    13
100
AcDbVertex
100
AcDb2dVertex
 10
136.1684325831454
 20
-182.0794975673274
 30
0.0
  0
VERTEX
  5
43F
330
43D
100
AcDbEntity
  8
Ebene 1
 62
   179
420
  1709851
370
    13
100
AcDbVertex
100
AcDb2dVertex
 10
136.5704752262741
 20
-182.1215277322474
 30
0.0
  0
SEQEND
  5
440
330
43D
100
AcDbEntity
  8
Ebene 1
370
    13
  0
POLYLINE
  5
441
330
1F
100
AcDbEntity
  8
Ebene 1
 62
   179
420
  1709851
370
    13
100
AcDb2dPolyline
 66
     1
 10
0.0
 20
0.0
 30
0.0
  0
VERTEX
  5
442
330
441
100
AcDbEntity
  8
Ebene 1
 62
   179
420
  1709851
370
    13
100
AcDbVertex
100
AcDb2dVertex
 10
136.1684325831454
 20
-181.9733886263816
 30
0.0
  0
VERTEX
  5
443
330
441
100
AcDbEntity
  8
Ebene 1
 62
   179
420
  1709851
370
    13
100
AcDbVertex
100
AcDb2dVertex
 10
136.5704752262741
 20
-182.0161078103988
 30
0.0
  0
SEQEND
  5
444
330
441
100
AcDbEntity
  8
Ebene 1
370
    13
  0
POLYLINE
  5
445
330
1F
100
AcDbEntity
  8
Ebene 1
 62
   179
420
  1709851
370
    13
100
AcDb2dPolyline
 66
     1
 10
0.0
 20
0.0
 30
0.0
  0
VERTEX
  5
446
330
445
100
AcDbEntity
  8
Ebene 1
 62
   179
420
  1709851
370
    13
100
AcDbVertex
100
AcDb2dVertex
 10
136.1684325831454
 20
-181.867279685436
 30
0.0
  0
VERTEX
  5
447
330
445
100
AcDbEntity
  8
Ebene 1
 62
   179
420
  1709851
370
    13
100
AcDbVertex
100
AcDb2dVertex
 10
136.5704752262741
 20
-181.9099988694531
 30
0.0
  0
SEQEND
  5
448
330
445
100
AcDbEntity
  8
Ebene 1
370
    13
  0
POLYLINE
  5
449
330
1F
100
AcDbEntity
  8
Ebene 1
 62
   179
420
  1709851
370
    13
100
AcDb2dPolyline
 66
     1
 10
0.0
 20
0.0
 30
0.0
  0
VERTEX
  5
44A
330
449
100
AcDbEntity
  8
Ebene 1
 62
   179
420
  1709851
370
    13
100
AcDbVertex
100
AcDb2dVertex
 10
136.1684325831454
 20
-181.7618597635873
 30
0.0
  0
VERTEX
  5
44B
330
449
100
AcDbEntity
  8
Ebene 1
 62
   179
420
  1709851
370
    13
100
AcDbVertex
100
AcDb2dVertex
 10
136.5704752262741
 20
-181.8038899285074
 30
0.0
  0
SEQEND
  5
44C
330
449
100
AcDbEntity
  8
Ebene 1
370
    13
  0
POLYLINE
  5
44D
330
1F
100
AcDbEntity
  8
Ebene 1
 62
   179
420
  1709851
370
    13
100
AcDb2dPolyline
 66
     1
 10
0.0
 20
0.0
 30
0.0
  0
VERTEX
  5
44E
330
44D
100
AcDbEntity
  8
Ebene 1
 62
   179
420
  1709851
370
    13
100
AcDbVertex
100
AcDb2dVertex
 10
136.1684325831454
 20
-181.6557508226416
 30
0.0
  0
VERTEX
  5
44F
330
44D
100
AcDbEntity
  8
Ebene 1
 62
   179
420
  1709851
370
    13
100
AcDbVertex
100
AcDb2dVertex
 10
136.5704752262741
 20
-181.6984700066587
 30
0.0
  0
SEQEND
  5
450
330
44D
100
AcDbEntity
  8
Ebene 1
370
    13
  0
POLYLINE
  5
451
330
1F
100
AcDbEntity
  8
Ebene 1
 62
   179
420
  1709851
370
    13
100
AcDb2dPolyline
 66
     1
 10
0.0
 20
0.0
 30
0.0
  0
VERTEX
  5
452
330
451
100
AcDbEntity
  8
Ebene 1
 62
   179
420
  1709851
370
    13
100
AcDbVertex
100
AcDb2dVertex
 10
136.1684325831454
 20
-181.550330900793
 30
0.0
  0
VERTEX
  5
453
330
451
100
AcDbEntity
  8
Ebene 1
 62
   179
420
  1709851
370
    13
100
AcDbVertex
100
AcDb2dVertex
 10
136.5704752262741
 20
-181.592361065713
 30
0.0
  0
SEQEND
  5
454
330
451
100
AcDbEntity
  8
Ebene 1
370
    13
  0
POLYLINE
  5
455
330
1F
100
AcDbEntity
  8
Ebene 1
 62
   179
420
  1709851
370
    13
100
AcDb2dPolyline
 66
     1
 10
0.0
 20
0.0
 30
0.0
  0
VERTEX
  5
456
330
455
100
AcDbEntity
  8
Ebene 1
 62
   179
420
  1709851
370
    13
100
AcDbVertex
100
AcDb2dVertex
 10
136.1684325831454
 20
-181.4442219598473
 30
0.0
  0
VERTEX
  5
457
330
455
100
AcDbEntity
  8
Ebene 1
 62
   179
420
  1709851
370
    13
100
AcDbVertex
100
AcDb2dVertex
 10
136.5704752262741
 20
-181.4869411438644
 30
0.0
  0
SEQEND
  5
458
330
455
100
AcDbEntity
  8
Ebene 1
370
    13
  0
POLYLINE
  5
459
330
1F
100
AcDbEntity
  8
Ebene 1
 62
   179
420
  1709851
370
    13
100
AcDb2dPolyline
 66
     1
 10
0.0
 20
0.0
 30
0.0
  0
VERTEX
  5
45A
330
459
100
AcDbEntity
  8
Ebene 1
 62
   179
420
  1709851
370
    13
100
AcDbVertex
100
AcDb2dVertex
 10
136.1684325831454
 20
-181.3381130189016
 30
0.0
  0
VERTEX
  5
45B
330
459
100
AcDbEntity
  8
Ebene 1
 62
   179
420
  1709851
370
    13
100
AcDbVertex
100
AcDb2dVertex
 10
136.5704752262741
 20
-181.3808322029187
 30
0.0
  0
SEQEND
  5
45C
330
459
100
AcDbEntity
  8
Ebene 1
370
    13
  0
POLYLINE
  5
45D
330
1F
100
AcDbEntity
  8
Ebene 1
 62
   179
420
  1709851
370
    13
100
AcDb2dPolyline
 66
     1
 10
0.0
 20
0.0
 30
0.0
  0
VERTEX
  5
45E
330
45D
100
AcDbEntity
  8
Ebene 1
 62
   179
420
  1709851
370
    13
100
AcDbVertex
100
AcDb2dVertex
 10
136.1684325831454
 20
-181.232693097053
 30
0.0
  0
VERTEX
  5
45F
330
45D
100
AcDbEntity
  8
Ebene 1
 62
   179
420
  1709851
370
    13
100
AcDbVertex
100
AcDb2dVertex
 10
136.5704752262741
 20
-181.274723261973
 30
0.0
  0
SEQEND
  5
460
330
45D
100
AcDbEntity
  8
Ebene 1
370
    13
  0
POLYLINE
  5
461
330
1F
100
AcDbEntity
  8
Ebene 1
 62
   179
420
  1709851
370
    13
100
AcDb2dPolyline
 66
     1
 10
0.0
 20
0.0
 30
0.0
  0
VERTEX
  5
462
330
461
100
AcDbEntity
  8
Ebene 1
 62
   179
420
  1709851
370
    13
100
AcDbVertex
100
AcDb2dVertex
 10
136.1684325831454
 20
-181.1265841561072
 30
0.0
  0
VERTEX
  5
463
330
461
100
AcDbEntity
  8
Ebene 1
 62
   179
420
  1709851
370
    13
100
AcDbVertex
100
AcDb2dVertex
 10
136.5704752262741
 20
-181.1693033401243
 30
0.0
  0
SEQEND
  5
464
330
461
100
AcDbEntity
  8
Ebene 1
370
    13
  0
POLYLINE
  5
465
330
1F
100
AcDbEntity
  8
Ebene 1
 62
   179
420
  1709851
370
    13
100
AcDb2dPolyline
 66
     1
 10
0.0
 20
0.0
 30
0.0
  0
VERTEX
  5
466
330
465
100
AcDbEntity
  8
Ebene 1
 62
   179
420
  1709851
370
    13
100
AcDbVertex
100
AcDb2dVertex
 10
136.1684325831454
 20
-180.95777447733
 30
0.0
  0
VERTEX
  5
467
330
465
100
AcDbEntity
  8
Ebene 1
 62
   179
420
  1709851
370
    13
100
AcDbVertex
100
AcDb2dVertex
 10
136.1684325831454
 20
-182.3757757790588
 30
0.0
  0
SEQEND
  5
468
330
465
100
AcDbEntity
  8
Ebene 1
370
    13
  0
POLYLINE
  5
469
330
1F
100
AcDbEntity
  8
Ebene 1
 62
   179
420
  1709851
370
    13
100
AcDb2dPolyline
 66
     1
 10
0.0
 20
0.0
 30
0.0
  0
VERTEX
  5
46A
330
469
100
AcDbEntity
  8
Ebene 1
 62
   179
420
  1709851
370
    13
100
AcDbVertex
100
AcDb2dVertex
 10
136.5704752262741
 20
-180.95777447733
 30
0.0
  0
VERTEX
  5
46B
330
469
100
AcDbEntity
  8
Ebene 1
 62
   179
420
  1709851
370
    13
100
AcDbVertex
100
AcDb2dVertex
 10
136.5704752262741
 20
-182.3757757790588
 30
0.0
  0
SEQEND
  5
46C
330
469
100
AcDbEntity
  8
Ebene 1
370
    13
  0
POLYLINE
  5
46D
330
1F
100
AcDbEntity
  8
Ebene 1
 62
   179
420
  1709851
370
    13
100
AcDb2dPolyline
 66
     1
 10
0.0
 20
0.0
 30
0.0
  0
VERTEX
  5
46E
330
46D
100
AcDbEntity
  8
Ebene 1
 62
   179
420
  1709851
370
    13
100
AcDbVertex
100
AcDb2dVertex
 10
137.0786268103484
 20
-182.0161078103988
 30
0.0
  0
VERTEX
  5
46F
330
46D
100
AcDbEntity
  8
Ebene 1
 62
   179
420
  1709851
370
    13
100
AcDbVertex
100
AcDb2dVertex
 10
137.0786268103484
 20
-180.95777447733
 30
0.0
  0
SEQEND
  5
470
330
46D
100
AcDbEntity
  8
Ebene 1
370
    13
  0
POLYLINE
  5
471
330
1F
100
AcDbEntity
  8
Ebene 1
 62
   179
420
  1709851
370
    13
100
AcDb2dPolyline
 66
     1
 10
0.0
 20
0.0
 30
0.0
  0
VERTEX
  5
472
330
471
100
AcDbEntity
  8
Ebene 1
 62
   179
420
  1709851
370
    13
100
AcDbVertex
100
AcDb2dVertex
 10
136.1684325831454
 20
-182.0161078103988
 30
0.0
  0
VERTEX
  5
473
330
471
100
AcDbEntity
  8
Ebene 1
 62
   179
420
  1709851
370
    13
100
AcDbVertex
100
AcDb2dVertex
 10
135.6816405910796
 20
-182.0161078103988
 30
0.0
  0
SEQEND
  5
474
330
471
100
AcDbEntity
  8
Ebene 1
370
    13
  0
POLYLINE
  5
475
330
1F
100
AcDbEntity
  8
Ebene 1
 62
   179
420
  1709851
370
    13
100
AcDb2dPolyline
 66
     1
 10
0.0
 20
0.0
 30
0.0
  0
VERTEX
  5
476
330
475
100
AcDbEntity
  8
Ebene 1
 62
   179
420
  1709851
370
    13
100
AcDbVertex
100
AcDb2dVertex
 10
137.0786268103484
 20
-182.0161078103988
 30
0.0
  0
VERTEX
  5
477
330
475
100
AcDbEntity
  8
Ebene 1
 62
   179
420
  1709851
370
    13
100
AcDbVertex
100
AcDb2dVertex
 10
136.5704752262741
 20
-182.0161078103988
 30
0.0
  0
SEQEND
  5
478
330
475
100
AcDbEntity
  8
Ebene 1
370
    13
  0
POLYLINE
  5
479
330
1F
100
AcDbEntity
  8
Ebene 1
 62
   179
420
  1709851
370
    13
100
AcDb2dPolyline
 66
     1
 10
0.0
 20
0.0
 30
0.0
  0
VERTEX
  5
47A
330
479
100
AcDbEntity
  8
Ebene 1
 62
   179
420
  1709851
370
    13
100
AcDbVertex
100
AcDb2dVertex
 10
137.0786268103484
 20
-182.0161078103988
 30
0.0
  0
VERTEX
  5
47B
330
479
100
AcDbEntity
  8
Ebene 1
 62
   179
420
  1709851
370
    13
100
AcDbVertex
100
AcDb2dVertex
 10
137.2691405906827
 20
-182.2062770811845
 30
0.0
  0
VERTEX
  5
47C
330
479
100
AcDbEntity
  8
Ebene 1
 62
   179
420
  1709851
370
    13
100
AcDbVertex
100
AcDb2dVertex
 10
137.2691405906827
 20
-182.3123860221303
 30
0.0
  0
SEQEND
  5
47D
330
479
100
AcDbEntity
  8
Ebene 1
370
    13
  0
POLYLINE
  5
47E
330
1F
100
AcDbEntity
  8
Ebene 1
 62
   179
420
  1709851
370
    13
100
AcDb2dPolyline
 66
     1
 10
0.0
 20
0.0
 30
0.0
  0
VERTEX
  5
47F
330
47E
100
AcDbEntity
  8
Ebene 1
 62
   179
420
  1709851
370
    13
100
AcDbVertex
100
AcDb2dVertex
 10
136.5704752262741
 20
-182.2062770811845
 30
0.0
  0
VERTEX
  5
480
330
47E
100
AcDbEntity
  8
Ebene 1
 62
   179
420
  1709851
370
    13
100
AcDbVertex
100
AcDb2dVertex
 10
137.2691405906827
 20
-182.2062770811845
 30
0.0
  0
SEQEND
  5
481
330
47E
100
AcDbEntity
  8
Ebene 1
370
    13
  0
POLYLINE
  5
482
330
1F
100
AcDbEntity
  8
Ebene 1
 62
   179
420
  1709851
370
    13
100
AcDb2dPolyline
 66
     1
 10
0.0
 20
0.0
 30
0.0
  0
VERTEX
  5
483
330
482
100
AcDbEntity
  8
Ebene 1
 62
   179
420
  1709851
370
    13
100
AcDbVertex
100
AcDb2dVertex
 10
135.4701117282852
 20
-182.2062770811845
 30
0.0
  0
VERTEX
  5
484
330
482
100
AcDbEntity
  8
Ebene 1
 62
   179
420
  1709851
370
    13
100
AcDbVertex
100
AcDb2dVertex
 10
136.1684325831454
 20
-182.2062770811845
 30
0.0
  0
SEQEND
  5
485
330
482
100
AcDbEntity
  8
Ebene 1
370
    13
  0
POLYLINE
  5
486
330
1F
100
AcDbEntity
  8
Ebene 1
 62
   179
420
  1709851
370
    13
100
AcDb2dPolyline
 66
     1
 10
0.0
 20
0.0
 30
0.0
  0
VERTEX
  5
487
330
486
100
AcDbEntity
  8
Ebene 1
 62
   179
420
  1709851
370
    13
100
AcDbVertex
100
AcDb2dVertex
 10
135.5338459947624
 20
-182.3757757790588
 30
0.0
  0
VERTEX
  5
488
330
486
100
AcDbEntity
  8
Ebene 1
 62
   179
420
  1709851
370
    13
100
AcDbVertex
100
AcDb2dVertex
 10
137.2060953433026
 20
-182.3757757790588
 30
0.0
  0
SEQEND
  5
489
330
486
100
AcDbEntity
  8
Ebene 1
370
    13
  0
POLYLINE
  5
48A
330
1F
100
AcDbEntity
  8
Ebene 1
 62
   179
420
  1709851
370
    13
100
AcDb2dPolyline
 66
     1
 10
0.0
 20
0.0
 30
0.0
  0
VERTEX
  5
48B
330
48A
100
AcDbEntity
  8
Ebene 1
 62
   179
420
  1709851
370
    13
100
AcDbVertex
100
AcDb2dVertex
 10
135.6816405910796
 20
-180.95777447733
 30
0.0
  0
VERTEX
  5
48C
330
48A
100
AcDbEntity
  8
Ebene 1
 62
   179
420
  1709851
370
    13
100
AcDbVertex
100
AcDb2dVertex
 10
135.6816405910796
 20
-182.0161078103988
 30
0.0
  0
VERTEX
  5
48D
330
48A
100
AcDbEntity
  8
Ebene 1
 62
   179
420
  1709851
370
    13
100
AcDbVertex
100
AcDb2dVertex
 10
135.4701117282852
 20
-182.2062770811845
 30
0.0
  0
VERTEX
  5
48E
330
48A
100
AcDbEntity
  8
Ebene 1
 62
   179
420
  1709851
370
    13
100
AcDbVertex
100
AcDb2dVertex
 10
135.4701117282852
 20
-182.3123860221303
 30
0.0
  0
SEQEND
  5
48F
330
48A
100
AcDbEntity
  8
Ebene 1
370
    13
  0
POLYLINE
  5
490
330
1F
100
AcDbEntity
  8
Ebene 1
 62
   179
420
  1709851
370
    13
100
AcDb2dPolyline
 66
     1
 10
0.0
 20
0.0
 30
0.0
  0
VERTEX
  5
491
330
490
100
AcDbEntity
  8
Ebene 1
 62
   179
420
  1709851
370
    13
100
AcDbVertex
100
AcDb2dVertex
 10
136.1684325831454
 20
-181.7618597635873
 30
0.0
  0
VERTEX
  5
492
330
490
100
AcDbEntity
  8
Ebene 1
 62
   179
420
  1709851
370
    13
100
AcDbVertex
100
AcDb2dVertex
 10
136.1684325831454
 20
-181.7618597635873
 30
0.0
  0
VERTEX
  5
493
330
490
100
AcDbEntity
  8
Ebene 1
 62
   179
420
  1709851
370
    13
100
AcDbVertex
100
AcDb2dVertex
 10
136.5704752262741
 20
-181.8038899285074
 30
0.0
  0
SEQEND
  5
494
330
490
100
AcDbEntity
  8
Ebene 1
370
    13
  0
POLYLINE
  5
495
330
1F
100
AcDbEntity
  8
Ebene 1
 62
   179
420
  1709851
370
    13
100
AcDb2dPolyline
 66
     1
 10
0.0
 20
0.0
 30
0.0
  0
VERTEX
  5
496
330
495
100
AcDbEntity
  8
Ebene 1
 62
   179
420
  1709851
370
    13
100
AcDbVertex
100
AcDb2dVertex
 10
136.1684325831454
 20
-181.6557508226416
 30
0.0
  0
VERTEX
  5
497
330
495
100
AcDbEntity
  8
Ebene 1
 62
   179
420
  1709851
370
    13
100
AcDbVertex
100
AcDb2dVertex
 10
136.1684325831454
 20
-181.6557508226416
 30
0.0
  0
VERTEX
  5
498
330
495
100
AcDbEntity
  8
Ebene 1
 62
   179
420
  1709851
370
    13
100
AcDbVertex
100
AcDb2dVertex
 10
136.5704752262741
 20
-181.6984700066587
 30
0.0
  0
SEQEND
  5
499
330
495
100
AcDbEntity
  8
Ebene 1
370
    13
  0
POLYLINE
  5
49A
330
1F
100
AcDbEntity
  8
Ebene 1
 62
   179
420
  1709851
370
    13
100
AcDb2dPolyline
 66
     1
 10
0.0
 20
0.0
 30
0.0
  0
VERTEX
  5
49B
330
49A
100
AcDbEntity
  8
Ebene 1
 62
   179
420
  1709851
370
    13
100
AcDbVertex
100
AcDb2dVertex
 10
136.1684325831454
 20
-181.550330900793
 30
0.0
  0
VERTEX
  5
49C
330
49A
100
AcDbEntity
  8
Ebene 1
 62
   179
420
  1709851
370
    13
100
AcDbVertex
100
AcDb2dVertex
 10
136.1684325831454
 20
-181.550330900793
 30
0.0
  0
VERTEX
  5
49D
330
49A
100
AcDbEntity
  8
Ebene 1
 62
   179
420
  1709851
370
    13
100
AcDbVertex
100
AcDb2dVertex
 10
136.5704752262741
 20
-181.592361065713
 30
0.0
  0
SEQEND
  5
49E
330
49A
100
AcDbEntity
  8
Ebene 1
370
    13
  0
POLYLINE
  5
49F
330
1F
100
AcDbEntity
  8
Ebene 1
 62
   179
420
  1709851
370
    13
100
AcDb2dPolyline
 66
     1
 10
0.0
 20
0.0
 30
0.0
  0
VERTEX
  5
4A0
330
49F
100
AcDbEntity
  8
Ebene 1
 62
   179
420
  1709851
370
    13
100
AcDbVertex
100
AcDb2dVertex
 10
136.1684325831454
 20
-181.9733886263816
 30
0.0
  0
VERTEX
  5
4A1
330
49F
100
AcDbEntity
  8
Ebene 1
 62
   179
420
  1709851
370
    13
100
AcDbVertex
100
AcDb2dVertex
 10
136.1684325831454
 20
-181.9733886263816
 30
0.0
  0
VERTEX
  5
4A2
330
49F
100
AcDbEntity
  8
Ebene 1
 62
   179
420
  1709851
370
    13
100
AcDbVertex
100
AcDb2dVertex
 10
136.5704752262741
 20
-182.0161078103988
 30
0.0
  0
SEQEND
  5
4A3
330
49F
100
AcDbEntity
  8
Ebene 1
370
    13
  0
POLYLINE
  5
4A4
330
1F
100
AcDbEntity
  8
Ebene 1
 62
   179
420
  1709851
370
    13
100
AcDb2dPolyline
 66
     1
 10
0.0
 20
0.0
 30
0.0
  0
VERTEX
  5
4A5
330
4A4
100
AcDbEntity
  8
Ebene 1
 62
   179
420
  1709851
370
    13
100
AcDbVertex
100
AcDb2dVertex
 10
136.1684325831454
 20
-181.867279685436
 30
0.0
  0
VERTEX
  5
4A6
330
4A4
100
AcDbEntity
  8
Ebene 1
 62
   179
420
  1709851
370
    13
100
AcDbVertex
100
AcDb2dVertex
 10
136.1684325831454
 20
-181.867279685436
 30
0.0
  0
VERTEX
  5
4A7
330
4A4
100
AcDbEntity
  8
Ebene 1
 62
   179
420
  1709851
370
    13
100
AcDbVertex
100
AcDb2dVertex
 10
136.5704752262741
 20
-181.9099988694531
 30
0.0
  0
SEQEND
  5
4A8
330
4A4
100
AcDbEntity
  8
Ebene 1
370
    13
  0
POLYLINE
  5
4A9
330
1F
100
AcDbEntity
  8
Ebene 1
 62
   179
420
  1709851
370
    13
100
AcDb2dPolyline
 66
     1
 10
0.0
 20
0.0
 30
0.0
  0
VERTEX
  5
4AA
330
4A9
100
AcDbEntity
  8
Ebene 1
 62
   179
420
  1709851
370
    13
100
AcDbVertex
100
AcDb2dVertex
 10
136.1684325831454
 20
-181.4442219598473
 30
0.0
  0
VERTEX
  5
4AB
330
4A9
100
AcDbEntity
  8
Ebene 1
 62
   179
420
  1709851
370
    13
100
AcDbVertex
100
AcDb2dVertex
 10
136.1684325831454
 20
-181.4442219598473
 30
0.0
  0
VERTEX
  5
4AC
330
4A9
100
AcDbEntity
  8
Ebene 1
 62
   179
420
  1709851
370
    13
100
AcDbVertex
100
AcDb2dVertex
 10
136.5704752262741
 20
-181.4869411438644
 30
0.0
  0
SEQEND
  5
4AD
330
4A9
100
AcDbEntity
  8
Ebene 1
370
    13
  0
POLYLINE
  5
4AE
330
1F
100
AcDbEntity
  8
Ebene 1
 62
   179
420
  1709851
370
    13
100
AcDb2dPolyline
 66
     1
 10
0.0
 20
0.0
 30
0.0
  0
VERTEX
  5
4AF
330
4AE
100
AcDbEntity
  8
Ebene 1
 62
   179
420
  1709851
370
    13
100
AcDbVertex
100
AcDb2dVertex
 10
136.1684325831454
 20
-181.3381130189016
 30
0.0
  0
VERTEX
  5
4B0
330
4AE
100
AcDbEntity
  8
Ebene 1
 62
   179
420
  1709851
370
    13
100
AcDbVertex
100
AcDb2dVertex
 10
136.1684325831454
 20
-181.3381130189016
 30
0.0
  0
VERTEX
  5
4B1
330
4AE
100
AcDbEntity
  8
Ebene 1
 62
   179
420
  1709851
370
    13
100
AcDbVertex
100
AcDb2dVertex
 10
136.5704752262741
 20
-181.3808322029187
 30
0.0
  0
SEQEND
  5
4B2
330
4AE
100
AcDbEntity
  8
Ebene 1
370
    13
  0
POLYLINE
  5
4B3
330
1F
100
AcDbEntity
  8
Ebene 1
 62
   179
420
  1709851
370
    13
100
AcDb2dPolyline
 66
     1
 10
0.0
 20
0.0
 30
0.0
  0
VERTEX
  5
4B4
330
4B3
100
AcDbEntity
  8
Ebene 1
 62
   179
420
  1709851
370
    13
100
AcDbVertex
100
AcDb2dVertex
 10
136.1897921751539
 20
-181.232693097053
 30
0.0
  0
VERTEX
  5
4B5
330
4B3
100
AcDbEntity
  8
Ebene 1
 62
   179
420
  1709851
370
    13
100
AcDbVertex
100
AcDb2dVertex
 10
136.5704752262741
 20
-181.274723261973
 30
0.0
  0
SEQEND
  5
4B6
330
4B3
100
AcDbEntity
  8
Ebene 1
370
    13
  0
POLYLINE
  5
4B7
330
1F
100
AcDbEntity
  8
Ebene 1
 62
   179
420
  1709851
370
    13
100
AcDb2dPolyline
 66
     1
 10
0.0
 20
0.0
 30
0.0
  0
VERTEX
  5
4B8
330
4B7
100
AcDbEntity
  8
Ebene 1
 62
   179
420
  1709851
370
    13
100
AcDbVertex
100
AcDb2dVertex
 10
136.1897921751539
 20
-181.1265841561072
 30
0.0
  0
VERTEX
  5
4B9
330
4B7
100
AcDbEntity
  8
Ebene 1
 62
   179
420
  1709851
370
    13
100
AcDbVertex
100
AcDb2dVertex
 10
136.5704752262741
 20
-181.1693033401243
 30
0.0
  0
SEQEND
  5
4BA
330
4B7
100
AcDbEntity
  8
Ebene 1
370
    13
  0
POLYLINE
  5
4BB
330
1F
100
AcDbEntity
  8
Ebene 1
 62
   179
420
  1709851
370
    13
100
AcDb2dPolyline
 66
     1
 10
0.0
 20
0.0
 30
0.0
  0
VERTEX
  5
4BC
330
4BB
100
AcDbEntity
  8
Ebene 1
 62
   179
420
  1709851
370
    13
100
AcDbVertex
100
AcDb2dVertex
 10
136.1684325831454
 20
-182.2483072461046
 30
0.0
  0
VERTEX
  5
4BD
330
4BB
100
AcDbEntity
  8
Ebene 1
 62
   179
420
  1709851
370
    13
100
AcDbVertex
100
AcDb2dVertex
 10
136.1684325831454
 20
-182.2483072461046
 30
0.0
  0
VERTEX
  5
4BE
330
4BB
100
AcDbEntity
  8
Ebene 1
 62
   179
420
  1709851
370
    13
100
AcDbVertex
100
AcDb2dVertex
 10
136.5704752262741
 20
-182.2483072461046
 30
0.0
  0
SEQEND
  5
4BF
330
4BB
100
AcDbEntity
  8
Ebene 1
370
    13
  0
POLYLINE
  5
4C0
330
1F
100
AcDbEntity
  8
Ebene 1
 62
   179
420
  1709851
370
    13
100
AcDb2dPolyline
 66
     1
 10
0.0
 20
0.0
 30
0.0
  0
VERTEX
  5
4C1
330
4C0
100
AcDbEntity
  8
Ebene 1
 62
   179
420
  1709851
370
    13
100
AcDbVertex
100
AcDb2dVertex
 10
136.1684325831454
 20
-182.142887324256
 30
0.0
  0
VERTEX
  5
4C2
330
4C0
100
AcDbEntity
  8
Ebene 1
 62
   179
420
  1709851
370
    13
100
AcDbVertex
100
AcDb2dVertex
 10
136.1684325831454
 20
-182.142887324256
 30
0.0
  0
VERTEX
  5
4C3
330
4C0
100
AcDbEntity
  8
Ebene 1
 62
   179
420
  1709851
370
    13
100
AcDbVertex
100
AcDb2dVertex
 10
136.5704752262741
 20
-182.142887324256
 30
0.0
  0
SEQEND
  5
4C4
330
4C0
100
AcDbEntity
  8
Ebene 1
370
    13
  0
POLYLINE
  5
4C5
330
1F
100
AcDbEntity
  8
Ebene 1
 62
   179
420
  1709851
370
    18
100
AcDb2dPolyline
 66
     1
 10
0.0
 20
0.0
 30
0.0
  0
VERTEX
  5
4C6
330
4C5
100
AcDbEntity
  8
Ebene 1
 62
   179
420
  1709851
370
    18
100
AcDbVertex
100
AcDb2dVertex
 10
71.1868692855887
 20
-180.7669161874472
 30
0.0
  0
VERTEX
  5
4C7
330
4C5
100
AcDbEntity
  8
Ebene 1
 62
   179
420
  1709851
370
    18
100
AcDbVertex
100
AcDb2dVertex
 10
71.1868692855887
 20
-180.957085458233
 30
0.0
  0
SEQEND
  5
4C8
330
4C5
100
AcDbEntity
  8
Ebene 1
370
    18
  0
POLYLINE
  5
4C9
330
1F
100
AcDbEntity
  8
Ebene 1
 62
   179
420
  1709851
370
    18
100
AcDb2dPolyline
 66
     1
 10
0.0
 20
0.0
 30
0.0
  0
VERTEX
  5
4CA
330
4C9
100
AcDbEntity
  8
Ebene 1
 62
   179
420
  1709851
370
    18
100
AcDbVertex
100
AcDb2dVertex
 10
63.99023707167606
 20
-180.957085458233
 30
0.0
  0
VERTEX
  5
4CB
330
4C9
100
AcDbEntity
  8
Ebene 1
 62
   179
420
  1709851
370
    18
100
AcDbVertex
100
AcDb2dVertex
 10
63.99023707167606
 20
-180.7669161874472
 30
0.0
  0
SEQEND
  5
4CC
330
4C9
100
AcDbEntity
  8
Ebene 1
370
    18
  0
POLYLINE
  5
4CD
330
1F
100
AcDbEntity
  8
Ebene 1
 62
   179
420
  1709851
370
    13
100
AcDb2dPolyline
 66
     1
 10
0.0
 20
0.0
 30
0.0
  0
VERTEX
  5
4CE
330
4CD
100
AcDbEntity
  8
Ebene 1
 62
   179
420
  1709851
370
    13
100
AcDbVertex
100
AcDb2dVertex
 10
186.6724988682624
 20
-182.3116970030332
 30
0.0
  0
VERTEX
  5
4CF
330
4CD
100
AcDbEntity
  8
Ebene 1
 62
   179
420
  1709851
370
    13
100
AcDbVertex
100
AcDb2dVertex
 10
186.7145290331825
 20
-182.3544161870503
 30
0.0
  0
VERTEX
  5
4D0
330
4CD
100
AcDbEntity
  8
Ebene 1
 62
   179
420
  1709851
370
    13
100
AcDbVertex
100
AcDb2dVertex
 10
186.735888625191
 20
-182.3757757790588
 30
0.0
  0
SEQEND
  5
4D1
330
4CD
100
AcDbEntity
  8
Ebene 1
370
    13
  0
POLYLINE
  5
4D2
330
1F
100
AcDbEntity
  8
Ebene 1
 62
   179
420
  1709851
370
    13
100
AcDb2dPolyline
 66
     1
 10
0.0
 20
0.0
 30
0.0
  0
VERTEX
  5
4D3
330
4D2
100
AcDbEntity
  8
Ebene 1
 62
   179
420
  1709851
370
    13
100
AcDbVertex
100
AcDb2dVertex
 10
188.4081379737313
 20
-182.3757757790588
 30
0.0
  0
VERTEX
  5
4D4
330
4D2
100
AcDbEntity
  8
Ebene 1
 62
   179
420
  1709851
370
    13
100
AcDbVertex
100
AcDb2dVertex
 10
188.4715277306599
 20
-182.3330565950417
 30
0.0
  0
VERTEX
  5
4D5
330
4D2
100
AcDbEntity
  8
Ebene 1
 62
   179
420
  1709851
370
    13
100
AcDbVertex
100
AcDb2dVertex
 10
188.4715277306599
 20
-182.3116970030332
 30
0.0
  0
SEQEND
  5
4D6
330
4D2
100
AcDbEntity
  8
Ebene 1
370
    13
  0
POLYLINE
  5
4D7
330
1F
100
AcDbEntity
  8
Ebene 1
 62
   179
420
  1709851
370
    13
100
AcDb2dPolyline
 66
     1
 10
0.0
 20
0.0
 30
0.0
  0
VERTEX
  5
4D8
330
4D7
100
AcDbEntity
  8
Ebene 1
 62
   179
420
  1709851
370
    13
100
AcDbVertex
100
AcDb2dVertex
 10
187.3704752135741
 20
-182.2483072461046
 30
0.0
  0
VERTEX
  5
4D9
330
4D7
100
AcDbEntity
  8
Ebene 1
 62
   179
420
  1709851
370
    13
100
AcDbVertex
100
AcDb2dVertex
 10
187.7728623662512
 20
-182.2483072461046
 30
0.0
  0
SEQEND
  5
4DA
330
4D7
100
AcDbEntity
  8
Ebene 1
370
    13
  0
POLYLINE
  5
4DB
330
1F
100
AcDbEntity
  8
Ebene 1
 62
   179
420
  1709851
370
    13
100
AcDb2dPolyline
 66
     1
 10
0.0
 20
0.0
 30
0.0
  0
VERTEX
  5
4DC
330
4DB
100
AcDbEntity
  8
Ebene 1
 62
   179
420
  1709851
370
    13
100
AcDbVertex
100
AcDb2dVertex
 10
187.3704752135741
 20
-182.142887324256
 30
0.0
  0
VERTEX
  5
4DD
330
4DB
100
AcDbEntity
  8
Ebene 1
 62
   179
420
  1709851
370
    13
100
AcDbVertex
100
AcDb2dVertex
 10
187.7728623662512
 20
-182.142887324256
 30
0.0
  0
SEQEND
  5
4DE
330
4DB
100
AcDbEntity
  8
Ebene 1
370
    13
  0
POLYLINE
  5
4DF
330
1F
100
AcDbEntity
  8
Ebene 1
 62
   179
420
  1709851
370
    13
100
AcDb2dPolyline
 66
     1
 10
0.0
 20
0.0
 30
0.0
  0
VERTEX
  5
4E0
330
4DF
100
AcDbEntity
  8
Ebene 1
 62
   179
420
  1709851
370
    13
100
AcDbVertex
100
AcDb2dVertex
 10
187.3704752135741
 20
-182.0794975673274
 30
0.0
  0
VERTEX
  5
4E1
330
4DF
100
AcDbEntity
  8
Ebene 1
 62
   179
420
  1709851
370
    13
100
AcDbVertex
100
AcDb2dVertex
 10
187.7728623662512
 20
-182.1215277322474
 30
0.0
  0
SEQEND
  5
4E2
330
4DF
100
AcDbEntity
  8
Ebene 1
370
    13
  0
POLYLINE
  5
4E3
330
1F
100
AcDbEntity
  8
Ebene 1
 62
   179
420
  1709851
370
    13
100
AcDb2dPolyline
 66
     1
 10
0.0
 20
0.0
 30
0.0
  0
VERTEX
  5
4E4
330
4E3
100
AcDbEntity
  8
Ebene 1
 62
   179
420
  1709851
370
    13
100
AcDbVertex
100
AcDb2dVertex
 10
187.3704752135741
 20
-181.9733886263816
 30
0.0
  0
VERTEX
  5
4E5
330
4E3
100
AcDbEntity
  8
Ebene 1
 62
   179
420
  1709851
370
    13
100
AcDbVertex
100
AcDb2dVertex
 10
187.7728623662512
 20
-182.0161078103988
 30
0.0
  0
SEQEND
  5
4E6
330
4E3
100
AcDbEntity
  8
Ebene 1
370
    13
  0
POLYLINE
  5
4E7
330
1F
100
AcDbEntity
  8
Ebene 1
 62
   179
420
  1709851
370
    13
100
AcDb2dPolyline
 66
     1
 10
0.0
 20
0.0
 30
0.0
  0
VERTEX
  5
4E8
330
4E7
100
AcDbEntity
  8
Ebene 1
 62
   179
420
  1709851
370
    13
100
AcDbVertex
100
AcDb2dVertex
 10
187.3704752135741
 20
-181.867279685436
 30
0.0
  0
VERTEX
  5
4E9
330
4E7
100
AcDbEntity
  8
Ebene 1
 62
   179
420
  1709851
370
    13
100
AcDbVertex
100
AcDb2dVertex
 10
187.7728623662512
 20
-181.9099988694531
 30
0.0
  0
SEQEND
  5
4EA
330
4E7
100
AcDbEntity
  8
Ebene 1
370
    13
  0
POLYLINE
  5
4EB
330
1F
100
AcDbEntity
  8
Ebene 1
 62
   179
420
  1709851
370
    13
100
AcDb2dPolyline
 66
     1
 10
0.0
 20
0.0
 30
0.0
  0
VERTEX
  5
4EC
330
4EB
100
AcDbEntity
  8
Ebene 1
 62
   179
420
  1709851
370
    13
100
AcDbVertex
100
AcDb2dVertex
 10
187.3704752135741
 20
-181.7618597635873
 30
0.0
  0
VERTEX
  5
4ED
330
4EB
100
AcDbEntity
  8
Ebene 1
 62
   179
420
  1709851
370
    13
100
AcDbVertex
100
AcDb2dVertex
 10
187.7728623662512
 20
-181.8038899285074
 30
0.0
  0
SEQEND
  5
4EE
330
4EB
100
AcDbEntity
  8
Ebene 1
370
    13
  0
POLYLINE
  5
4EF
330
1F
100
AcDbEntity
  8
Ebene 1
 62
   179
420
  1709851
370
    13
100
AcDb2dPolyline
 66
     1
 10
0.0
 20
0.0
 30
0.0
  0
VERTEX
  5
4F0
330
4EF
100
AcDbEntity
  8
Ebene 1
 62
   179
420
  1709851
370
    13
100
AcDbVertex
100
AcDb2dVertex
 10
187.3704752135741
 20
-181.6557508226416
 30
0.0
  0
VERTEX
  5
4F1
330
4EF
100
AcDbEntity
  8
Ebene 1
 62
   179
420
  1709851
370
    13
100
AcDbVertex
100
AcDb2dVertex
 10
187.7728623662512
 20
-181.6984700066587
 30
0.0
  0
SEQEND
  5
4F2
330
4EF
100
AcDbEntity
  8
Ebene 1
370
    13
  0
POLYLINE
  5
4F3
330
1F
100
AcDbEntity
  8
Ebene 1
 62
   179
420
  1709851
370
    13
100
AcDb2dPolyline
 66
     1
 10
0.0
 20
0.0
 30
0.0
  0
VERTEX
  5
4F4
330
4F3
100
AcDbEntity
  8
Ebene 1
 62
   179
420
  1709851
370
    13
100
AcDbVertex
100
AcDb2dVertex
 10
187.3704752135741
 20
-181.550330900793
 30
0.0
  0
VERTEX
  5
4F5
330
4F3
100
AcDbEntity
  8
Ebene 1
 62
   179
420
  1709851
370
    13
100
AcDbVertex
100
AcDb2dVertex
 10
187.7728623662512
 20
-181.592361065713
 30
0.0
  0
SEQEND
  5
4F6
330
4F3
100
AcDbEntity
  8
Ebene 1
370
    13
  0
POLYLINE
  5
4F7
330
1F
100
AcDbEntity
  8
Ebene 1
 62
   179
420
  1709851
370
    13
100
AcDb2dPolyline
 66
     1
 10
0.0
 20
0.0
 30
0.0
  0
VERTEX
  5
4F8
330
4F7
100
AcDbEntity
  8
Ebene 1
 62
   179
420
  1709851
370
    13
100
AcDbVertex
100
AcDb2dVertex
 10
187.3704752135741
 20
-181.4442219598473
 30
0.0
  0
VERTEX
  5
4F9
330
4F7
100
AcDbEntity
  8
Ebene 1
 62
   179
420
  1709851
370
    13
100
AcDbVertex
100
AcDb2dVertex
 10
187.7728623662512
 20
-181.4869411438644
 30
0.0
  0
SEQEND
  5
4FA
330
4F7
100
AcDbEntity
  8
Ebene 1
370
    13
  0
POLYLINE
  5
4FB
330
1F
100
AcDbEntity
  8
Ebene 1
 62
   179
420
  1709851
370
    13
100
AcDb2dPolyline
 66
     1
 10
0.0
 20
0.0
 30
0.0
  0
VERTEX
  5
4FC
330
4FB
100
AcDbEntity
  8
Ebene 1
 62
   179
420
  1709851
370
    13
100
AcDbVertex
100
AcDb2dVertex
 10
187.3704752135741
 20
-181.3381130189016
 30
0.0
  0
VERTEX
  5
4FD
330
4FB
100
AcDbEntity
  8
Ebene 1
 62
   179
420
  1709851
370
    13
100
AcDbVertex
100
AcDb2dVertex
 10
187.7728623662512
 20
-181.3808322029187
 30
0.0
  0
SEQEND
  5
4FE
330
4FB
100
AcDbEntity
  8
Ebene 1
370
    13
  0
POLYLINE
  5
4FF
330
1F
100
AcDbEntity
  8
Ebene 1
 62
   179
420
  1709851
370
    13
100
AcDb2dPolyline
 66
     1
 10
0.0
 20
0.0
 30
0.0
  0
VERTEX
  5
500
330
4FF
100
AcDbEntity
  8
Ebene 1
 62
   179
420
  1709851
370
    13
100
AcDbVertex
100
AcDb2dVertex
 10
187.3704752135741
 20
-181.232693097053
 30
0.0
  0
VERTEX
  5
501
330
4FF
100
AcDbEntity
  8
Ebene 1
 62
   179
420
  1709851
370
    13
100
AcDbVertex
100
AcDb2dVertex
 10
187.7728623662512
 20
-181.274723261973
 30
0.0
  0
SEQEND
  5
502
330
4FF
100
AcDbEntity
  8
Ebene 1
370
    13
  0
POLYLINE
  5
503
330
1F
100
AcDbEntity
  8
Ebene 1
 62
   179
420
  1709851
370
    13
100
AcDb2dPolyline
 66
     1
 10
0.0
 20
0.0
 30
0.0
  0
VERTEX
  5
504
330
503
100
AcDbEntity
  8
Ebene 1
 62
   179
420
  1709851
370
    13
100
AcDbVertex
100
AcDb2dVertex
 10
187.3704752135741
 20
-181.1265841561072
 30
0.0
  0
VERTEX
  5
505
330
503
100
AcDbEntity
  8
Ebene 1
 62
   179
420
  1709851
370
    13
100
AcDbVertex
100
AcDb2dVertex
 10
187.7728623662512
 20
-181.1693033401243
 30
0.0
  0
SEQEND
  5
506
330
503
100
AcDbEntity
  8
Ebene 1
370
    13
  0
POLYLINE
  5
507
330
1F
100
AcDbEntity
  8
Ebene 1
 62
   179
420
  1709851
370
    13
100
AcDb2dPolyline
 66
     1
 10
0.0
 20
0.0
 30
0.0
  0
VERTEX
  5
508
330
507
100
AcDbEntity
  8
Ebene 1
 62
   179
420
  1709851
370
    13
100
AcDbVertex
100
AcDb2dVertex
 10
187.3704752135741
 20
-181.0211642342586
 30
0.0
  0
VERTEX
  5
509
330
507
100
AcDbEntity
  8
Ebene 1
 62
   179
420
  1709851
370
    13
100
AcDbVertex
100
AcDb2dVertex
 10
187.7728623662512
 20
-181.0631943991787
 30
0.0
  0
SEQEND
  5
50A
330
507
100
AcDbEntity
  8
Ebene 1
370
    13
  0
POLYLINE
  5
50B
330
1F
100
AcDbEntity
  8
Ebene 1
 62
   179
420
  1709851
370
    13
100
AcDb2dPolyline
 66
     1
 10
0.0
 20
0.0
 30
0.0
  0
VERTEX
  5
50C
330
50B
100
AcDbEntity
  8
Ebene 1
 62
   179
420
  1709851
370
    13
100
AcDbVertex
100
AcDb2dVertex
 10
187.3704752135741
 20
-180.95777447733
 30
0.0
  0
VERTEX
  5
50D
330
50B
100
AcDbEntity
  8
Ebene 1
 62
   179
420
  1709851
370
    13
100
AcDbVertex
100
AcDb2dVertex
 10
187.3704752135741
 20
-182.3757757790588
 30
0.0
  0
SEQEND
  5
50E
330
50B
100
AcDbEntity
  8
Ebene 1
370
    13
  0
POLYLINE
  5
50F
330
1F
100
AcDbEntity
  8
Ebene 1
 62
   179
420
  1709851
370
    13
100
AcDb2dPolyline
 66
     1
 10
0.0
 20
0.0
 30
0.0
  0
VERTEX
  5
510
330
50F
100
AcDbEntity
  8
Ebene 1
 62
   179
420
  1709851
370
    13
100
AcDbVertex
100
AcDb2dVertex
 10
187.7728623662512
 20
-180.95777447733
 30
0.0
  0
VERTEX
  5
511
330
50F
100
AcDbEntity
  8
Ebene 1
 62
   179
420
  1709851
370
    13
100
AcDbVertex
100
AcDb2dVertex
 10
187.7728623662512
 20
-182.3757757790588
 30
0.0
  0
SEQEND
  5
512
330
50F
100
AcDbEntity
  8
Ebene 1
370
    13
  0
POLYLINE
  5
513
330
1F
100
AcDbEntity
  8
Ebene 1
 62
   179
420
  1709851
370
    13
100
AcDb2dPolyline
 66
     1
 10
0.0
 20
0.0
 30
0.0
  0
VERTEX
  5
514
330
513
100
AcDbEntity
  8
Ebene 1
 62
   179
420
  1709851
370
    13
100
AcDbVertex
100
AcDb2dVertex
 10
188.2810139503256
 20
-182.0161078103988
 30
0.0
  0
VERTEX
  5
515
330
513
100
AcDbEntity
  8
Ebene 1
 62
   179
420
  1709851
370
    13
100
AcDbVertex
100
AcDb2dVertex
 10
188.2810139503256
 20
-180.95777447733
 30
0.0
  0
SEQEND
  5
516
330
513
100
AcDbEntity
  8
Ebene 1
370
    13
  0
POLYLINE
  5
517
330
1F
100
AcDbEntity
  8
Ebene 1
 62
   179
420
  1709851
370
    13
100
AcDb2dPolyline
 66
     1
 10
0.0
 20
0.0
 30
0.0
  0
VERTEX
  5
518
330
517
100
AcDbEntity
  8
Ebene 1
 62
   179
420
  1709851
370
    13
100
AcDbVertex
100
AcDb2dVertex
 10
187.3704752135741
 20
-182.0161078103988
 30
0.0
  0
VERTEX
  5
519
330
517
100
AcDbEntity
  8
Ebene 1
 62
   179
420
  1709851
370
    13
100
AcDbVertex
100
AcDb2dVertex
 10
186.8630126485968
 20
-182.0161078103988
 30
0.0
  0
SEQEND
  5
51A
330
517
100
AcDbEntity
  8
Ebene 1
370
    13
  0
POLYLINE
  5
51B
330
1F
100
AcDbEntity
  8
Ebene 1
 62
   179
420
  1709851
370
    13
100
AcDb2dPolyline
 66
     1
 10
0.0
 20
0.0
 30
0.0
  0
VERTEX
  5
51C
330
51B
100
AcDbEntity
  8
Ebene 1
 62
   179
420
  1709851
370
    13
100
AcDbVertex
100
AcDb2dVertex
 10
188.2810139503256
 20
-182.0161078103988
 30
0.0
  0
VERTEX
  5
51D
330
51B
100
AcDbEntity
  8
Ebene 1
 62
   179
420
  1709851
370
    13
100
AcDbVertex
100
AcDb2dVertex
 10
187.7728623662512
 20
-182.0161078103988
 30
0.0
  0
SEQEND
  5
51E
330
51B
100
AcDbEntity
  8
Ebene 1
370
    13
  0
POLYLINE
  5
51F
330
1F
100
AcDbEntity
  8
Ebene 1
 62
   179
420
  1709851
370
    13
100
AcDb2dPolyline
 66
     1
 10
0.0
 20
0.0
 30
0.0
  0
VERTEX
  5
520
330
51F
100
AcDbEntity
  8
Ebene 1
 62
   179
420
  1709851
370
    13
100
AcDbVertex
100
AcDb2dVertex
 10
188.2810139503256
 20
-182.0161078103988
 30
0.0
  0
VERTEX
  5
521
330
51F
100
AcDbEntity
  8
Ebene 1
 62
   179
420
  1709851
370
    13
100
AcDbVertex
100
AcDb2dVertex
 10
188.4715277306599
 20
-182.2062770811845
 30
0.0
  0
VERTEX
  5
522
330
51F
100
AcDbEntity
  8
Ebene 1
 62
   179
420
  1709851
370
    13
100
AcDbVertex
100
AcDb2dVertex
 10
188.4715277306599
 20
-182.3123860221303
 30
0.0
  0
SEQEND
  5
523
330
51F
100
AcDbEntity
  8
Ebene 1
370
    13
  0
POLYLINE
  5
524
330
1F
100
AcDbEntity
  8
Ebene 1
 62
   179
420
  1709851
370
    13
100
AcDb2dPolyline
 66
     1
 10
0.0
 20
0.0
 30
0.0
  0
VERTEX
  5
525
330
524
100
AcDbEntity
  8
Ebene 1
 62
   179
420
  1709851
370
    13
100
AcDbVertex
100
AcDb2dVertex
 10
187.7728623662512
 20
-182.2062770811845
 30
0.0
  0
VERTEX
  5
526
330
524
100
AcDbEntity
  8
Ebene 1
 62
   179
420
  1709851
370
    13
100
AcDbVertex
100
AcDb2dVertex
 10
188.4715277306599
 20
-182.2062770811845
 30
0.0
  0
SEQEND
  5
527
330
524
100
AcDbEntity
  8
Ebene 1
370
    13
  0
POLYLINE
  5
528
330
1F
100
AcDbEntity
  8
Ebene 1
 62
   179
420
  1709851
370
    13
100
AcDb2dPolyline
 66
     1
 10
0.0
 20
0.0
 30
0.0
  0
VERTEX
  5
529
330
528
100
AcDbEntity
  8
Ebene 1
 62
   179
420
  1709851
370
    13
100
AcDbVertex
100
AcDb2dVertex
 10
186.6724988682624
 20
-182.2062770811845
 30
0.0
  0
VERTEX
  5
52A
330
528
100
AcDbEntity
  8
Ebene 1
 62
   179
420
  1709851
370
    13
100
AcDbVertex
100
AcDb2dVertex
 10
187.3704752135741
 20
-182.2062770811845
 30
0.0
  0
SEQEND
  5
52B
330
528
100
AcDbEntity
  8
Ebene 1
370
    13
  0
POLYLINE
  5
52C
330
1F
100
AcDbEntity
  8
Ebene 1
 62
   179
420
  1709851
370
    13
100
AcDb2dPolyline
 66
     1
 10
0.0
 20
0.0
 30
0.0
  0
VERTEX
  5
52D
330
52C
100
AcDbEntity
  8
Ebene 1
 62
   179
420
  1709851
370
    13
100
AcDbVertex
100
AcDb2dVertex
 10
186.735888625191
 20
-182.3757757790588
 30
0.0
  0
VERTEX
  5
52E
330
52C
100
AcDbEntity
  8
Ebene 1
 62
   179
420
  1709851
370
    13
100
AcDbVertex
100
AcDb2dVertex
 10
188.4081379737313
 20
-182.3757757790588
 30
0.0
  0
SEQEND
  5
52F
330
52C
100
AcDbEntity
  8
Ebene 1
370
    13
  0
POLYLINE
  5
530
330
1F
100
AcDbEntity
  8
Ebene 1
 62
   179
420
  1709851
370
    13
100
AcDb2dPolyline
 66
     1
 10
0.0
 20
0.0
 30
0.0
  0
VERTEX
  5
531
330
530
100
AcDbEntity
  8
Ebene 1
 62
   179
420
  1709851
370
    13
100
AcDbVertex
100
AcDb2dVertex
 10
186.8630126485968
 20
-182.0161078103988
 30
0.0
  0
VERTEX
  5
532
330
530
100
AcDbEntity
  8
Ebene 1
 62
   179
420
  1709851
370
    13
100
AcDbVertex
100
AcDb2dVertex
 10
186.6724988682624
 20
-182.2062770811845
 30
0.0
  0
VERTEX
  5
533
330
530
100
AcDbEntity
  8
Ebene 1
 62
   179
420
  1709851
370
    13
100
AcDbVertex
100
AcDb2dVertex
 10
186.6724988682624
 20
-182.3123860221303
 30
0.0
  0
SEQEND
  5
534
330
530
100
AcDbEntity
  8
Ebene 1
370
    13
  0
POLYLINE
  5
535
330
1F
100
AcDbEntity
  8
Ebene 1
 62
   179
420
  1709851
370
    13
100
AcDb2dPolyline
 66
     1
 10
0.0
 20
0.0
 30
0.0
  0
VERTEX
  5
536
330
535
100
AcDbEntity
  8
Ebene 1
 62
   179
420
  1709851
370
    13
100
AcDbVertex
100
AcDb2dVertex
 10
186.6724988682624
 20
-180.95777447733
 30
0.0
  0
VERTEX
  5
537
330
535
100
AcDbEntity
  8
Ebene 1
 62
   179
420
  1709851
370
    13
100
AcDbVertex
100
AcDb2dVertex
 10
188.4715277306599
 20
-180.95777447733
 30
0.0
  0
SEQEND
  5
538
330
535
100
AcDbEntity
  8
Ebene 1
370
    13
  0
POLYLINE
  5
539
330
1F
100
AcDbEntity
  8
Ebene 1
 62
   179
420
  1709851
370
    13
100
AcDb2dPolyline
 66
     1
 10
0.0
 20
0.0
 30
0.0
  0
VERTEX
  5
53A
330
539
100
AcDbEntity
  8
Ebene 1
 62
   179
420
  1709851
370
    13
100
AcDbVertex
100
AcDb2dVertex
 10
187.3704752135741
 20
-181.7618597635873
 30
0.0
  0
VERTEX
  5
53B
330
539
100
AcDbEntity
  8
Ebene 1
 62
   179
420
  1709851
370
    13
100
AcDbVertex
100
AcDb2dVertex
 10
187.3704752135741
 20
-181.7618597635873
 30
0.0
  0
VERTEX
  5
53C
330
539
100
AcDbEntity
  8
Ebene 1
 62
   179
420
  1709851
370
    13
100
AcDbVertex
100
AcDb2dVertex
 10
187.7728623662512
 20
-181.8038899285074
 30
0.0
  0
SEQEND
  5
53D
330
539
100
AcDbEntity
  8
Ebene 1
370
    13
  0
POLYLINE
  5
53E
330
1F
100
AcDbEntity
  8
Ebene 1
 62
   179
420
  1709851
370
    13
100
AcDb2dPolyline
 66
     1
 10
0.0
 20
0.0
 30
0.0
  0
VERTEX
  5
53F
330
53E
100
AcDbEntity
  8
Ebene 1
 62
   179
420
  1709851
370
    13
100
AcDbVertex
100
AcDb2dVertex
 10
187.3704752135741
 20
-181.6557508226416
 30
0.0
  0
VERTEX
  5
540
330
53E
100
AcDbEntity
  8
Ebene 1
 62
   179
420
  1709851
370
    13
100
AcDbVertex
100
AcDb2dVertex
 10
187.3704752135741
 20
-181.6557508226416
 30
0.0
  0
VERTEX
  5
541
330
53E
100
AcDbEntity
  8
Ebene 1
 62
   179
420
  1709851
370
    13
100
AcDbVertex
100
AcDb2dVertex
 10
187.7728623662512
 20
-181.6984700066587
 30
0.0
  0
SEQEND
  5
542
330
53E
100
AcDbEntity
  8
Ebene 1
370
    13
  0
POLYLINE
  5
543
330
1F
100
AcDbEntity
  8
Ebene 1
 62
   179
420
  1709851
370
    13
100
AcDb2dPolyline
 66
     1
 10
0.0
 20
0.0
 30
0.0
  0
VERTEX
  5
544
330
543
100
AcDbEntity
  8
Ebene 1
 62
   179
420
  1709851
370
    13
100
AcDbVertex
100
AcDb2dVertex
 10
187.3704752135741
 20
-181.550330900793
 30
0.0
  0
VERTEX
  5
545
330
543
100
AcDbEntity
  8
Ebene 1
 62
   179
420
  1709851
370
    13
100
AcDbVertex
100
AcDb2dVertex
 10
187.3704752135741
 20
-181.550330900793
 30
0.0
  0
VERTEX
  5
546
330
543
100
AcDbEntity
  8
Ebene 1
 62
   179
420
  1709851
370
    13
100
AcDbVertex
100
AcDb2dVertex
 10
187.7728623662512
 20
-181.592361065713
 30
0.0
  0
SEQEND
  5
547
330
543
100
AcDbEntity
  8
Ebene 1
370
    13
  0
POLYLINE
  5
548
330
1F
100
AcDbEntity
  8
Ebene 1
 62
   179
420
  1709851
370
    13
100
AcDb2dPolyline
 66
     1
 10
0.0
 20
0.0
 30
0.0
  0
VERTEX
  5
549
330
548
100
AcDbEntity
  8
Ebene 1
 62
   179
420
  1709851
370
    13
100
AcDbVertex
100
AcDb2dVertex
 10
187.3704752135741
 20
-181.9733886263816
 30
0.0
  0
VERTEX
  5
54A
330
548
100
AcDbEntity
  8
Ebene 1
 62
   179
420
  1709851
370
    13
100
AcDbVertex
100
AcDb2dVertex
 10
187.3704752135741
 20
-181.9733886263816
 30
0.0
  0
VERTEX
  5
54B
330
548
100
AcDbEntity
  8
Ebene 1
 62
   179
420
  1709851
370
    13
100
AcDbVertex
100
AcDb2dVertex
 10
187.7728623662512
 20
-182.0161078103988
 30
0.0
  0
SEQEND
  5
54C
330
548
100
AcDbEntity
  8
Ebene 1
370
    13
  0
POLYLINE
  5
54D
330
1F
100
AcDbEntity
  8
Ebene 1
 62
   179
420
  1709851
370
    13
100
AcDb2dPolyline
 66
     1
 10
0.0
 20
0.0
 30
0.0
  0
VERTEX
  5
54E
330
54D
100
AcDbEntity
  8
Ebene 1
 62
   179
420
  1709851
370
    13
100
AcDbVertex
100
AcDb2dVertex
 10
187.3704752135741
 20
-181.867279685436
 30
0.0
  0
VERTEX
  5
54F
330
54D
100
AcDbEntity
  8
Ebene 1
 62
   179
420
  1709851
370
    13
100
AcDbVertex
100
AcDb2dVertex
 10
187.3704752135741
 20
-181.867279685436
 30
0.0
  0
VERTEX
  5
550
330
54D
100
AcDbEntity
  8
Ebene 1
 62
   179
420
  1709851
370
    13
100
AcDbVertex
100
AcDb2dVertex
 10
187.7728623662512
 20
-181.9099988694531
 30
0.0
  0
SEQEND
  5
551
330
54D
100
AcDbEntity
  8
Ebene 1
370
    13
  0
POLYLINE
  5
552
330
1F
100
AcDbEntity
  8
Ebene 1
 62
   179
420
  1709851
370
    13
100
AcDb2dPolyline
 66
     1
 10
0.0
 20
0.0
 30
0.0
  0
VERTEX
  5
553
330
552
100
AcDbEntity
  8
Ebene 1
 62
   179
420
  1709851
370
    13
100
AcDbVertex
100
AcDb2dVertex
 10
187.3704752135741
 20
-181.4442219598473
 30
0.0
  0
VERTEX
  5
554
330
552
100
AcDbEntity
  8
Ebene 1
 62
   179
420
  1709851
370
    13
100
AcDbVertex
100
AcDb2dVertex
 10
187.3704752135741
 20
-181.4442219598473
 30
0.0
  0
VERTEX
  5
555
330
552
100
AcDbEntity
  8
Ebene 1
 62
   179
420
  1709851
370
    13
100
AcDbVertex
100
AcDb2dVertex
 10
187.7728623662512
 20
-181.4869411438644
 30
0.0
  0
SEQEND
  5
556
330
552
100
AcDbEntity
  8
Ebene 1
370
    13
  0
POLYLINE
  5
557
330
1F
100
AcDbEntity
  8
Ebene 1
 62
   179
420
  1709851
370
    13
100
AcDb2dPolyline
 66
     1
 10
0.0
 20
0.0
 30
0.0
  0
VERTEX
  5
558
330
557
100
AcDbEntity
  8
Ebene 1
 62
   179
420
  1709851
370
    13
100
AcDbVertex
100
AcDb2dVertex
 10
187.3704752135741
 20
-181.3381130189016
 30
0.0
  0
VERTEX
  5
559
330
557
100
AcDbEntity
  8
Ebene 1
 62
   179
420
  1709851
370
    13
100
AcDbVertex
100
AcDb2dVertex
 10
187.3704752135741
 20
-181.3381130189016
 30
0.0
  0
VERTEX
  5
55A
330
557
100
AcDbEntity
  8
Ebene 1
 62
   179
420
  1709851
370
    13
100
AcDbVertex
100
AcDb2dVertex
 10
187.7728623662512
 20
-181.3808322029187
 30
0.0
  0
SEQEND
  5
55B
330
557
100
AcDbEntity
  8
Ebene 1
370
    13
  0
POLYLINE
  5
55C
330
1F
100
AcDbEntity
  8
Ebene 1
 62
   179
420
  1709851
370
    13
100
AcDb2dPolyline
 66
     1
 10
0.0
 20
0.0
 30
0.0
  0
VERTEX
  5
55D
330
55C
100
AcDbEntity
  8
Ebene 1
 62
   179
420
  1709851
370
    13
100
AcDbVertex
100
AcDb2dVertex
 10
187.3704752135741
 20
-181.232693097053
 30
0.0
  0
VERTEX
  5
55E
330
55C
100
AcDbEntity
  8
Ebene 1
 62
   179
420
  1709851
370
    13
100
AcDbVertex
100
AcDb2dVertex
 10
187.3704752135741
 20
-181.232693097053
 30
0.0
  0
VERTEX
  5
55F
330
55C
100
AcDbEntity
  8
Ebene 1
 62
   179
420
  1709851
370
    13
100
AcDbVertex
100
AcDb2dVertex
 10
187.7728623662512
 20
-181.274723261973
 30
0.0
  0
SEQEND
  5
560
330
55C
100
AcDbEntity
  8
Ebene 1
370
    13
  0
POLYLINE
  5
561
330
1F
100
AcDbEntity
  8
Ebene 1
 62
   179
420
  1709851
370
    13
100
AcDb2dPolyline
 66
     1
 10
0.0
 20
0.0
 30
0.0
  0
VERTEX
  5
562
330
561
100
AcDbEntity
  8
Ebene 1
 62
   179
420
  1709851
370
    13
100
AcDbVertex
100
AcDb2dVertex
 10
187.3921793151311
 20
-181.1265841561072
 30
0.0
  0
VERTEX
  5
563
330
561
100
AcDbEntity
  8
Ebene 1
 62
   179
420
  1709851
370
    13
100
AcDbVertex
100
AcDb2dVertex
 10
187.7728623662512
 20
-181.1693033401243
 30
0.0
  0
SEQEND
  5
564
330
561
100
AcDbEntity
  8
Ebene 1
370
    13
  0
POLYLINE
  5
565
330
1F
100
AcDbEntity
  8
Ebene 1
 62
   179
420
  1709851
370
    13
100
AcDb2dPolyline
 66
     1
 10
0.0
 20
0.0
 30
0.0
  0
VERTEX
  5
566
330
565
100
AcDbEntity
  8
Ebene 1
 62
   179
420
  1709851
370
    13
100
AcDbVertex
100
AcDb2dVertex
 10
187.3921793151311
 20
-181.0211642342586
 30
0.0
  0
VERTEX
  5
567
330
565
100
AcDbEntity
  8
Ebene 1
 62
   179
420
  1709851
370
    13
100
AcDbVertex
100
AcDb2dVertex
 10
187.7728623662512
 20
-181.0631943991787
 30
0.0
  0
SEQEND
  5
568
330
565
100
AcDbEntity
  8
Ebene 1
370
    13
  0
POLYLINE
  5
569
330
1F
100
AcDbEntity
  8
Ebene 1
 62
   179
420
  1709851
370
    13
100
AcDb2dPolyline
 66
     1
 10
0.0
 20
0.0
 30
0.0
  0
VERTEX
  5
56A
330
569
100
AcDbEntity
  8
Ebene 1
 62
   179
420
  1709851
370
    13
100
AcDbVertex
100
AcDb2dVertex
 10
187.3704752135741
 20
-182.2483072461046
 30
0.0
  0
VERTEX
  5
56B
330
569
100
AcDbEntity
  8
Ebene 1
 62
   179
420
  1709851
370
    13
100
AcDbVertex
100
AcDb2dVertex
 10
187.3704752135741
 20
-182.2483072461046
 30
0.0
  0
VERTEX
  5
56C
330
569
100
AcDbEntity
  8
Ebene 1
 62
   179
420
  1709851
370
    13
100
AcDbVertex
100
AcDb2dVertex
 10
187.7728623662512
 20
-182.2483072461046
 30
0.0
  0
SEQEND
  5
56D
330
569
100
AcDbEntity
  8
Ebene 1
370
    13
  0
POLYLINE
  5
56E
330
1F
100
AcDbEntity
  8
Ebene 1
 62
   179
420
  1709851
370
    13
100
AcDb2dPolyline
 66
     1
 10
0.0
 20
0.0
 30
0.0
  0
VERTEX
  5
56F
330
56E
100
AcDbEntity
  8
Ebene 1
 62
   179
420
  1709851
370
    13
100
AcDbVertex
100
AcDb2dVertex
 10
187.3704752135741
 20
-182.142887324256
 30
0.0
  0
VERTEX
  5
570
330
56E
100
AcDbEntity
  8
Ebene 1
 62
   179
420
  1709851
370
    13
100
AcDbVertex
100
AcDb2dVertex
 10
187.3704752135741
 20
-182.142887324256
 30
0.0
  0
VERTEX
  5
571
330
56E
100
AcDbEntity
  8
Ebene 1
 62
   179
420
  1709851
370
    13
100
AcDbVertex
100
AcDb2dVertex
 10
187.7728623662512
 20
-182.142887324256
 30
0.0
  0
SEQEND
  5
572
330
56E
100
AcDbEntity
  8
Ebene 1
370
    13
  0
POLYLINE
  5
573
330
1F
100
AcDbEntity
  8
Ebene 1
 62
   179
420
  1709851
370
    35
100
AcDb2dPolyline
 66
     1
 10
0.0
 20
0.0
 30
0.0
  0
VERTEX
  5
574
330
573
100
AcDbEntity
  8
Ebene 1
 62
   179
420
  1709851
370
    35
100
AcDbVertex
100
AcDb2dVertex
 10
64.58296574991328
 20
-180.957085458233
 30
0.0
  0
VERTEX
  5
575
330
573
100
AcDbEntity
  8
Ebene 1
 62
   179
420
  1709851
370
    35
100
AcDbVertex
100
AcDb2dVertex
 10
70.57312552489144
 20
-180.957085458233
 30
0.0
  0
SEQEND
  5
576
330
573
100
AcDbEntity
  8
Ebene 1
370
    35
  0
POLYLINE
  5
577
330
1F
100
AcDbEntity
  8
Ebene 1
 62
   179
420
  1709851
370
    25
100
AcDb2dPolyline
 66
     1
 10
0.0
 20
0.0
 30
0.0
  0
VERTEX
  5
578
330
577
100
AcDbEntity
  8
Ebene 1
 62
   179
420
  1709851
370
    25
100
AcDbVertex
100
AcDb2dVertex
 10
42.78136799060675
 20
-180.957085458233
 30
0.0
  0
VERTEX
  5
579
330
577
100
AcDbEntity
  8
Ebene 1
 62
   179
420
  1709851
370
    25
100
AcDbVertex
100
AcDb2dVertex
 10
161.1663899336667
 20
-180.957085458233
 30
0.0
  0
SEQEND
  5
57A
330
577
100
AcDbEntity
  8
Ebene 1
370
    25
  0
POLYLINE
  5
57B
330
1F
100
AcDbEntity
  8
Ebene 1
 62
   179
420
  1709851
370
    13
100
AcDb2dPolyline
 66
     1
 10
0.0
 20
0.0
 30
0.0
  0
VERTEX
  5
57C
330
57B
100
AcDbEntity
  8
Ebene 1
 62
   179
420
  1709851
370
    13
100
AcDbVertex
100
AcDb2dVertex
 10
66.8901461963851
 20
-180.957085458233
 30
0.0
  0
VERTEX
  5
57D
330
57B
100
AcDbEntity
  8
Ebene 1
 62
   179
420
  1709851
370
    13
100
AcDbVertex
100
AcDb2dVertex
 10
66.8901461963851
 20
-182.0154187913017
 30
0.0
  0
SEQEND
  5
57E
330
57B
100
AcDbEntity
  8
Ebene 1
370
    13
  0
POLYLINE
  5
57F
330
1F
100
AcDbEntity
  8
Ebene 1
 62
   179
420
  1709851
370
    18
100
AcDb2dPolyline
 66
     1
 10
0.0
 20
0.0
 30
0.0
  0
VERTEX
  5
580
330
57F
100
AcDbEntity
  8
Ebene 1
 62
   179
420
  1709851
370
    18
100
AcDbVertex
100
AcDb2dVertex
 10
139.9783636802832
 20
-180.7669161874472
 30
0.0
  0
VERTEX
  5
581
330
57F
100
AcDbEntity
  8
Ebene 1
 62
   179
420
  1709851
370
    18
100
AcDbVertex
100
AcDb2dVertex
 10
139.9783636802832
 20
-180.957085458233
 30
0.0
  0
SEQEND
  5
582
330
57F
100
AcDbEntity
  8
Ebene 1
370
    18
  0
POLYLINE
  5
583
330
1F
100
AcDbEntity
  8
Ebene 1
 62
   179
420
  1709851
370
    18
100
AcDb2dPolyline
 66
     1
 10
0.0
 20
0.0
 30
0.0
  0
VERTEX
  5
584
330
583
100
AcDbEntity
  8
Ebene 1
 62
   179
420
  1709851
370
    18
100
AcDbVertex
100
AcDb2dVertex
 10
132.7822482306933
 20
-180.957085458233
 30
0.0
  0
VERTEX
  5
585
330
583
100
AcDbEntity
  8
Ebene 1
 62
   179
420
  1709851
370
    18
100
AcDbVertex
100
AcDb2dVertex
 10
132.7822482306933
 20
-180.7669161874472
 30
0.0
  0
SEQEND
  5
586
330
583
100
AcDbEntity
  8
Ebene 1
370
    18
  0
INSERT
  5
588
330
1F
100
AcDbEntity
  8
Ebene 1
100
AcDbBlockReference
  2
block 4
 10
0.0
 20
0.0
 30
0.0
  0
POLYLINE
  5
596
330
1F
100
AcDbEntity
  8
Ebene 1
 62
   179
420
  1709851
370
    13
100
AcDb2dPolyline
 66
     1
 10
0.0
 20
0.0
 30
0.0
  0
VERTEX
  5
597
330
596
100
AcDbEntity
  8
Ebene 1
 62
   179
420
  1709851
370
    13
100
AcDbVertex
100
AcDb2dVertex
 10
186.8630126485968
 20
-180.957085458233
 30
0.0
  0
VERTEX
  5
598
330
596
100
AcDbEntity
  8
Ebene 1
 62
   179
420
  1709851
370
    13
100
AcDbVertex
100
AcDb2dVertex
 10
186.8630126485968
 20
-182.0154187913017
 30
0.0
  0
SEQEND
  5
599
330
596
100
AcDbEntity
  8
Ebene 1
370
    13
  0
POLYLINE
  5
59A
330
1F
100
AcDbEntity
  8
Ebene 1
 62
   179
420
  1709851
370
    18
100
AcDb2dPolyline
 66
     1
 10
0.0
 20
0.0
 30
0.0
  0
VERTEX
  5
59B
330
59A
100
AcDbEntity
  8
Ebene 1
 62
   179
420
  1709851
370
    18
100
AcDbVertex
100
AcDb2dVertex
 10
63.99023707167606
 20
-180.7669161874472
 30
0.0
  0
VERTEX
  5
59C
330
59A
100
AcDbEntity
  8
Ebene 1
 62
   179
420
  1709851
370
    18
100
AcDbVertex
100
AcDb2dVertex
 10
71.1868692855887
 20
-180.7669161874472
 30
0.0
  0
SEQEND
  5
59D
330
59A
100
AcDbEntity
  8
Ebene 1
370
    18
  0
INSERT
  5
59F
330
1F
100
AcDbEntity
  8
Ebene 1
100
AcDbBlockReference
  2
block 5
 10
0.0
 20
0.0
 30
0.0
  0
ENDSEC
  0
SECTION
  2
OBJECTS
  0
DICTIONARY
  5
C
330
0
100
AcDbDictionary
281
     1
  3
ACAD_GROUP
350
D
  3
ACAD_LAYOUT
350
1A
  3
ACAD_MLINESTYLE
350
17
  3
ACAD_PLOTSETTINGS
350
19
  3
ACAD_PLOTSTYLENAME
350
E
  3
ACAD_TABLESTYLE
350
635
  3
ACAD_VISUALSTYLE
350
2A
  0
DICTIONARY
  5
D
102
{ACAD_REACTORS
330
C
102
}
330
C
100
AcDbDictionary
281
     1
  0
DICTIONARY
  5
1A
102
{ACAD_REACTORS
330
C
102
}
330
C
100
AcDbDictionary
281
     1
  3
Layout1
350
1E
  3
Layout2
350
26
  3
Model
350
22
  0
DICTIONARY
  5
17
102
{ACAD_REACTORS
330
C
102
}
330
C
100
AcDbDictionary
281
     1
  3
Standard
350
18
  0
DICTIONARY
  5
19
102
{ACAD_REACTORS
330
C
102
}
330
C
100
AcDbDictionary
281
     1
  0
ACDBDICTIONARYWDFLT
  5
E
102
{ACAD_REACTORS
330
C
102
}
330
C
100
AcDbDictionary
281
     1
  3
Normal
350
F
100
AcDbDictionaryWithDefault
340
F
  0
DICTIONARY
  5
635
102
{ACAD_REACTORS
330
C
102
}
330
C
100
AcDbDictionary
281
     1
  0
DICTIONARY
  5
2A
102
{ACAD_REACTORS
330
C
102
}
330
C
100
AcDbDictionary
281
     1
  3
2dWireframe
350
2F
  3
3D Hidden
350
31
  3
3dWireframe
350
30
  3
Basic
350
32
  3
Brighten
350
36
  3
ColorChange
350
3A
  3
Conceptual
350
34
  3
Dim
350
35
  3
Facepattern
350
39
  3
Flat
350
2B
  3
FlatWithEdges
350
2C
  3
Gouraud
350
2D
  3
GouraudWithEdges
350
2E
  3
Linepattern
350
38
  3
Realistic
350
33
  3
Thicken
350
37
  0
LAYOUT
  5
1E
102
{ACAD_REACTORS
330
1A
102
}
330
1A
100
AcDbPlotSettings
  1

  2
none_device
  4

  6

 40
0.0
 41
0.0
 42
0.0
 43
0.0
 44
0.0
 45
0.0
 46
0.0
 47
0.0
 48
0.0
 49
0.0
140
0.0
141
0.0
142
1.0
143
1.0
 70
   688
 72
     0
 73
     0
 74
     5
  7

 75
    16
 76
     0
 77
     2
 78
   300
147
1.0
148
0.0
149
0.0
100
AcDbLayout
  1
Layout1
 70
     1
 71
     1
 10
0.0
 20
0.0
 11
12.0
 21
9.0
 12
0.0
 22
0.0
 32
0.0
 14
1.000000000000000E+20
 24
1.000000000000000E+20
 34
1.000000000000000E+20
 15
-1.000000000000000E+20
 25
-1.000000000000000E+20
 35
-1.000000000000000E+20
146
0.0
 13
0.0
 23
0.0
 33
0.0
 16
1.0
 26
0.0
 36
0.0
 17
0.0
 27
1.0
 37
0.0
 76
     0
330
1B
  0
LAYOUT
  5
26
102
{ACAD_REACTORS
330
1A
102
}
330
1A
100
AcDbPlotSettings
  1

  2
none_device
  4

  6

 40
0.0
 41
0.0
 42
0.0
 43
0.0
 44
0.0
 45
0.0
 46
0.0
 47
0.0
 48
0.0
 49
0.0
140
0.0
141
0.0
142
1.0
143
1.0
 70
   688
 72
     0
 73
     0
 74
     5
  7

 75
    16
 76
     0
 77
     2
 78
   300
147
1.0
148
0.0
149
0.0
100
AcDbLayout
  1
Layout2
 70
     1
 71
     2
 10
0.0
 20
0.0
 11
0.0
 21
0.0
 12
0.0
 22
0.0
 32
0.0
 14
0.0
 24
0.0
 34
0.0
 15
0.0
 25
0.0
 35
0.0
146
0.0
 13
0.0
 23
0.0
 33
0.0
 16
1.0
 26
0.0
 36
0.0
 17
0.0
 27
1.0
 37
0.0
 76
     0
330
23
  0
LAYOUT
  5
22
102
{ACAD_REACTORS
330
1A
102
}
330
1A
100
AcDbPlotSettings
  1

  2
none_device
  4

  6

 40
0.0
 41
0.0
 42
0.0
 43
0.0
 44
0.0
 45
0.0
 46
0.0
 47
0.0
 48
0.0
 49
0.0
140
0.0
141
0.0
142
1.0
143
1.0
 70
  1712
 72
     0
 73
     0
 74
     0
  7

 75
     0
 76
     0
 77
     2
 78
   300
147
1.0
148
0.0
149
0.0
100
AcDbLayout
  1
Model
 70
     1
 71
     0
 10
0.0
 20
0.0
 11
12.0
 21
9.0
 12
0.0
 22
0.0
 32
0.0
 14
1.000000000000000E+20
 24
1.000000000000000E+20
 34
1.000000000000000E+20
 15
-1.000000000000000E+20
 25
-1.000000000000000E+20
 35
-1.000000000000000E+20
146
0.0
 13
0.0
 23
0.0
 33
0.0
 16
1.0
 26
0.0
 36
0.0
 17
0.0
 27
1.0
 37
0.0
 76
     0
330
1F
331
29
  0
MLINESTYLE
  5
18
102
{ACAD_REACTORS
330
17
102
}
330
17
100
AcDbMlineStyle
  2
Standard
 70
     0
  3

 62
   256
 51
90.0
 52
90.0
 71
     2
 49
0.5
 62
   256
  6
BYLAYER
 49
-0.5
 62
   256
  6
BYLAYER
  0
ACDBPLACEHOLDER
  5
F
102
{ACAD_REACTORS
330
E
102
}
330
E
  0
VISUALSTYLE
  5
2F
102
{ACAD_REACTORS
330
2A
102
}
330
2A
100
AcDbVisualStyle
  2
2dWireframe
 70
     4
 71
     0
 72
     2
 73
     0
 90
        0
 40
-0.6
 41
-30.0
 62
     5
 63
     7
421
 16777215
 74
     1
 91
        4
 64
     7
 65
   257
 75
     1
175
     1
 42
1.0
 92
        0
 66
   257
 43
1.0
 76
     1
 77
     6
 78
     2
 67
     7
 79
     5
170
     0
171
     0
290
     0
174
     0
 93
        1
 44
0.0
173
     0
291
     0
 45
0.0
1001
ACAD
1000
AcDbSavedByObjectVersion
1070
     0
  0
VISUALSTYLE
  5
31
102
{ACAD_REACTORS
330
2A
102
}
330
2A
100
AcDbVisualStyle
  2
3D Hidden
 70
     6
 71
     1
 72
     2
 73
     2
 90
        0
 40
-0.6
 41
-30.0
 62
     5
 63
     7
421
 16777215
 74
     2
 91
        2
 64
     7
 65
   257
 75
     2
175
     1
 42
40.0
 92
        0
 66
   257
 43
1.0
 76
     1
 77
     6
 78
     2
 67
     7
 79
     3
170
     0
171
     0
290
     0
174
     0
 93
        1
 44
0.0
173
     0
291
     0
 45
0.0
1001
ACAD
1000
AcDbSavedByObjectVersion
1070
     0
  0
VISUALSTYLE
  5
30
102
{ACAD_REACTORS
330
2A
102
}
330
2A
100
AcDbVisualStyle
  2
3dWireframe
 70
     5
 71
     0
 72
     2
 73
     0
 90
        0
 40
-0.6
 41
-30.0
 62
     5
 63
     7
421
 16777215
 74
     1
 91
        4
 64
     7
 65
   257
 75
     1
175
     1
 42
1.0
 92
        0
 66
   257
 43
1.0
 76
     1
 77
     6
 78
     2
 67
     7
 79
     5
170
     0
171
     0
290
     0
174
     0
 93
        1
 44
0.0
173
     0
291
     0
 45
0.0
1001
ACAD
1000
AcDbSavedByObjectVersion
1070
     0
  0
VISUALSTYLE
  5
32
102
{ACAD_REACTORS
330
2A
102
}
330
2A
100
AcDbVisualStyle
  2
Basic
 70
     7
 71
     1
 72
     0
 73
     1
 90
        0
 40
-0.6
 41
-30.0
 62
     5
 63
     7
421
 16777215
 74
     0
 91
        4
 64
     7
 65
   257
 75
     1
175
     1
 42
1.0
 92
        8
 66
     7
 43
1.0
 76
     1
 77
     6
 78
     2
 67
     7
 79
     5
170
     0
171
     0
290
     0
174
     0
 93
        1
 44
0.0
173
     0
291
     1
 45
0.0
1001
ACAD
1000
AcDbSavedByObjectVersion
1070
     0
  0
VISUALSTYLE
  5
36
102
{ACAD_REACTORS
330
2A
102
}
330
2A
100
AcDbVisualStyle
  2
Brighten
 70
    12
 71
     2
 72
     2
 73
     0
 90
        0
 40
-0.6
 41
-30.0
 62
     5
 63
     7
421
 16777215
 74
     1
 91
        4
 64
     7
 65
   257
 75
     1
175
     1
 42
1.0
 92
        8
 66
     7
 43
1.0
 76
     1
 77
     6
 78
     2
 67
     7
 79
     5
170
     0
171
     0
290
     0
174
     0
 93
        1
 44
50.0
173
     0
291
     1
 45
0.0
1001
ACAD
1000
AcDbSavedByObjectVersion
1070
     0
  0
VISUALSTYLE
  5
3A
102
{ACAD_REACTORS
330
2A
102
}
330
2A
100
AcDbVisualStyle
  2
ColorChange
 70
    16
 71
     2
 72
     2
 73
     3
 90
        0
 40
-0.6
 41
-30.0
 62
     5
 63
     8
421
  8421504
 74
     1
 91
        4
 64
     7
 65
   257
 75
     1
175
     1
 42
1.0
 92
        8
 66
     8
424
  8421504
 43
1.0
 76
     1
 77
     6
 78
     2
 67
     7
 79
     5
170
     0
171
     0
290
     0
174
     0
 93
        1
 44
0.0
173
     0
291
     1
 45
0.0
1001
ACAD
1000
AcDbSavedByObjectVersion
1070
     0
  0
VISUALSTYLE
  5
34
102
{ACAD_REACTORS
330
2A
102
}
330
2A
100
AcDbVisualStyle
  2
Conceptual
 70
     9
 71
     3
 72
     2
 73
     0
 90
        0
 40
-0.6
 41
-30.0
 62
     5
 63
     7
421
 16777215
 74
     2
 91
        2
 64
     7
 65
   257
 75
     1
175
     1
 42
40.0
 92
        8
 66
     7
 43
1.0
 76
     1
 77
     6
 78
     2
 67
     7
 79
     3
170
     0
171
     0
290
     0
174
     0
 93
        1
 44
0.0
173
     0
291
     0
 45
0.0
1001
ACAD
1000
AcDbSavedByObjectVersion
1070
     0
  0
VISUALSTYLE
  5
35
102
{ACAD_REACTORS
330
2A
102
}
330
2A
100
AcDbVisualStyle
  2
Dim
 70
    11
 71
     2
 72
     2
 73
     0
 90
        0
 40
-0.6
 41
-30.0
 62
     5
 63
     7
421
 16777215
 74
     1
 91
        4
 64
     7
 65
   257
 75
     1
175
     1
 42
1.0
 92
        8
 66
     7
 43
1.0
 76
     1
 77
     6
 78
     2
 67
     7
 79
     5
170
     0
171
     0
290
     0
174
     0
 93
        1
 44
-50.0
173
     0
291
     1
 45
0.0
1001
ACAD
1000
AcDbSavedByObjectVersion
1070
     0
  0
VISUALSTYLE
  5
39
102
{ACAD_REACTORS
330
2A
102
}
330
2A
100
AcDbVisualStyle
  2
Facepattern
 70
    15
 71
     2
 72
     2
 73
     0
 90
        0
 40
-0.6
 41
-30.0
 62
     5
 63
     7
421
 16777215
 74
     1
 91
        4
 64
     7
 65
   257
 75
     1
175
     1
 42
1.0
 92
        8
 66
     7
 43
1.0
 76
     1
 77
     6
 78
     2
 67
     7
 79
     5
170
     0
171
     0
290
     0
174
     0
 93
        1
 44
0.0
173
     0
291
     1
 45
0.0
1001
ACAD
1000
AcDbSavedByObjectVersion
1070
     0
  0
VISUALSTYLE
  5
2B
102
{ACAD_REACTORS
330
2A
102
}
330
2A
100
AcDbVisualStyle
  2
Flat
 70
     0
 71
     2
 72
     1
 73
     1
 90
        2
 40
-0.6
 41
30.0
 62
     5
 63
     7
421
 16777215
 74
     0
 91
        4
 64
     7
 65
   257
 75
     1
175
     1
 42
1.0
 92
        8
 66
     7
 43
1.0
 76
     1
 77
     6
 78
     2
 67
     7
 79
     5
170
     0
171
     0
290
     0
174
     0
 93
       13
 44
0.0
173
     0
291
     1
 45
0.0
1001
ACAD
1000
AcDbSavedByObjectVersion
1070
     0
  0
VISUALSTYLE
  5
2C
102
{ACAD_REACTORS
330
2A
102
}
330
2A
100
AcDbVisualStyle
  2
FlatWithEdges
 70
     1
 71
     2
 72
     1
 73
     1
 90
        2
 40
-0.6
 41
30.0
 62
     5
 63
     7
421
 16777215
 74
     1
 91
        4
 64
     7
 65
   257
 75
     1
175
     1
 42
1.0
 92
        0
 66
   257
 43
1.0
 76
     1
 77
     6
 78
     2
 67
     7
 79
     5
170
     0
171
     0
290
     0
174
     0
 93
       13
 44
0.0
173
     0
291
     1
 45
0.0
1001
ACAD
1000
AcDbSavedByObjectVersion
1070
     0
  0
VISUALSTYLE
  5
2D
102
{ACAD_REACTORS
330
2A
102
}
330
2A
100
AcDbVisualStyle
  2
Gouraud
 70
     2
 71
     2
 72
     2
 73
     1
 90
        2
 40
-0.6
 41
30.0
 62
     5
 63
     7
421
 16777215
 74
     0
 91
        4
 64
     7
 65
   257
 75
     1
175
     1
 42
1.0
 92
        0
 66
     7
 43
1.0
 76
     1
 77
     6
 78
     2
 67
     7
 79
     5
170
     0
171
     0
290
     0
174
     0
 93
       13
 44
0.0
173
     0
291
     1
 45
0.0
1001
ACAD
1000
AcDbSavedByObjectVersion
1070
     0
  0
VISUALSTYLE
  5
2E
102
{ACAD_REACTORS
330
2A
102
}
330
2A
100
AcDbVisualStyle
  2
GouraudWithEdges
 70
     3
 71
     2
 72
     2
 73
     1
 90
        2
 40
-0.6
 41
30.0
 62
     5
 63
     7
421
 16777215
 74
     1
 91
        4
 64
     7
 65
   257
 75
     1
175
     1
 42
1.0
 92
        0
 66
   257
 43
1.0
 76
     1
 77
     6
 78
     2
 67
     7
 79
     5
170
     0
171
     0
290
     0
174
     0
 93
       13
 44
0.0
173
     0
291
     1
 45
0.0
1001
ACAD
1000
AcDbSavedByObjectVersion
1070
     0
  0
VISUALSTYLE
  5
38
102
{ACAD_REACTORS
330
2A
102
}
330
2A
100
AcDbVisualStyle
  2
Linepattern
 70
    14
 71
     2
 72
     2
 73
     0
 90
        0
 40
-0.6
 41
-30.0
 62
     5
 63
     7
421
 16777215
 74
     1
 91
        4
 64
     7
 65
   257
 75
     7
175
     7
 42
1.0
 92
        8
 66
     7
 43
1.0
 76
     1
 77
     6
 78
     2
 67
     7
 79
     5
170
     0
171
     0
290
     0
174
     0
 93
        1
 44
0.0
173
     0
291
     1
 45
0.0
1001
ACAD
1000
AcDbSavedByObjectVersion
1070
     0
  0
VISUALSTYLE
  5
33
102
{ACAD_REACTORS
330
2A
102
}
330
2A
100
AcDbVisualStyle
  2
Realistic
 70
     8
 71
     2
 72
     2
 73
     0
 90
        0
 40
-0.6
 41
-30.0
 62
     5
 63
     7
421
 16777215
 74
     1
 91
        0
 64
     7
 65
   257
 75
     1
175
     1
 42
1.0
 92
        8
 66
     8
424
  7895160
 43
1.0
 76
     1
 77
     6
 78
     2
 67
     7
 79
     5
170
     0
171
     0
290
     0
174
     0
 93
       13
 44
0.0
173
     0
291
     0
 45
0.0
1001
ACAD
1000
AcDbSavedByObjectVersion
1070
     0
  0
VISUALSTYLE
  5
37
102
{ACAD_REACTORS
330
2A
102
}
330
2A
100
AcDbVisualStyle
  2
Thicken
 70
    13
 71
     2
 72
     2
 73
     0
 90
        0
 40
-0.6
 41
-30.0
 62
     5
 63
     7
421
 16777215
 74
     1
 91
        4
 64
     7
 65
   257
 75
     1
175
     1
 42
1.0
 92
       12
 66
     7
 43
1.0
 76
     1
 77
     6
 78
     2
 67
     7
 79
     5
170
     0
171
     0
290
     0
174
     0
 93
        1
 44
0.0
173
     0
291
     1
 45
0.0
1001
ACAD
1000
AcDbSavedByObjectVersion
1070
     0
  0
ENDSEC
  0
EOF
