  0
SECTION
  2
HEADER
  9
$ACADVER
  1
AC1018
  9
$ACADMAINTVER
 70
     0
  9
$DWGCODEPAGE
  3
ANSI_932
  9
$INSBASE
 10
0.0
 20
0.0
 30
0.0
  9
$EXTMIN
 10
1.000000000000000E+20
 20
1.000000000000000E+20
 30
1.000000000000000E+20
  9
$EXTMAX
 10
-1.000000000000000E+20
 20
-1.000000000000000E+20
 30
-1.000000000000000E+20
  9
$LIMMIN
 10
0.0
 20
0.0
  9
$LIMMAX
 10
12.0
 20
9.0
  9
$ORTHOMODE
 70
     0
  9
$REGENMODE
 70
     1
  9
$FILLMODE
 70
     1
  9
$QTEXTMODE
 70
     0
  9
$MIRRTEXT
 70
     1
  9
$LTSCALE
 40
1.0
  9
$ATTMODE
 70
     1
  9
$TEXTSIZE
 40
0.2
  9
$TRACEWID
 40
0.05
  9
$TEXTSTYLE
  7
Standard
  9
$CLAYER
  8
0
  9
$CELTYPE
  6
ByLayer
  9
$CECOLOR
 62
   256
  9
$CELTSCALE
 40
1.0
  9
$DISPSILH
 70
     0
  9
$DIMSCALE
 40
1.0
  9
$DIMASZ
 40
0.18
  9
$DIMEXO
 40
0.0625
  9
$DIMDLI
 40
0.38
  9
$DIMRND
 40
0.0
  9
$DIMDLE
 40
0.0
  9
$DIMEXE
 40
0.18
  9
$DIMTP
 40
0.0
  9
$DIMTM
 40
0.0
  9
$DIMTXT
 40
0.18
  9
$DIMCEN
 40
0.09
  9
$DIMTSZ
 40
0.0
  9
$DIMTOL
 70
     0
  9
$DIMLIM
 70
     0
  9
$DIMTIH
 70
     1
  9
$DIMTOH
 70
     1
  9
$DIMSE1
 70
     0
  9
$DIMSE2
 70
     0
  9
$DIMTAD
 70
     0
  9
$DIMZIN
 70
     0
  9
$DIMBLK
  1

  9
$DIMASO
 70
     1
  9
$DIMSHO
 70
     1
  9
$DIMPOST
  1

  9
$DIMAPOST
  1

  9
$DIMALT
 70
     0
  9
$DIMALTD
 70
     2
  9
$DIMALTF
 40
25.4
  9
$DIMLFAC
 40
1.0
  9
$DIMTOFL
 70
     0
  9
$DIMTVP
 40
0.0
  9
$DIMTIX
 70
     0
  9
$DIMSOXD
 70
     0
  9
$DIMSAH
 70
     0
  9
$DIMBLK1
  1

  9
$DIMBLK2
  1

  9
$DIMSTYLE
  2
Standard
  9
$DIMCLRD
 70
     0
  9
$DIMCLRE
 70
     0
  9
$DIMCLRT
 70
     0
  9
$DIMTFAC
 40
1.0
  9
$DIMGAP
 40
0.09
  9
$DIMJUST
 70
     0
  9
$DIMSD1
 70
     0
  9
$DIMSD2
 70
     0
  9
$DIMTOLJ
 70
     1
  9
$DIMTZIN
 70
     0
  9
$DIMALTZ
 70
     0
  9
$DIMALTTZ
 70
     0
  9
$DIMUPT
 70
     0
  9
$DIMDEC
 70
     4
  9
$DIMTDEC
 70
     4
  9
$DIMALTU
 70
     2
  9
$DIMALTTD
 70
     2
  9
$DIMTXSTY
  7
Standard
  9
$DIMAUNIT
 70
     0
  9
$DIMADEC
 70
     0
  9
$DIMALTRND
 40
0.0
  9
$DIMAZIN
 70
     0
  9
$DIMDSEP
 70
    46
  9
$DIMATFIT
 70
     3
  9
$DIMFRAC
 70
     0
  9
$DIMLDRBLK
  1

  9
$DIMLUNIT
 70
     2
  9
$DIMLWD
 70
    -2
  9
$DIMLWE
 70
    -2
  9
$DIMTMOVE
 70
     0
  9
$LUNITS
 70
     2
  9
$LUPREC
 70
     4
  9
$SKETCHINC
 40
0.1
  9
$FILLETRAD
 40
0.5
  9
$AUNITS
 70
     0
  9
$AUPREC
 70
     0
  9
$MENU
  1
.
  9
$ELEVATION
 40
0.0
  9
$PELEVATION
 40
0.0
  9
$THICKNESS
 40
0.0
  9
$LIMCHECK
 70
     0
  9
$CHAMFERA
 40
0.5
  9
$CHAMFERB
 40
0.5
  9
$CHAMFERC
 40
1.0
  9
$CHAMFERD
 40
0.0
  9
$SKPOLY
 70
     0
  9
$TDCREATE
 40
2456077.615289352
  9
$TDUCREATE
 40
2456077.573622685
  9
$TDUPDATE
 40
2456077.615289364
  9
$TDUUPDATE
 40
2456077.573622697
  9
$TDINDWG
 40
0.0000000116
  9
$TDUSRTIMER
 40
0.0000000116
  9
$USRTIMER
 70
     1
  9
$ANGBASE
 50
0.0
  9
$ANGDIR
 70
     0
  9
$PDMODE
 70
     0
  9
$PDSIZE
 40
0.0
  9
$PLINEWID
 40
0.0
  9
$SPLFRAME
 70
     0
  9
$SPLINETYPE
 70
     6
  9
$SPLINESEGS
 70
     8
  9
$HANDSEED
  5
4A3
  9
$SURFTAB1
 70
     6
  9
$SURFTAB2
 70
     6
  9
$SURFTYPE
 70
     6
  9
$SURFU
 70
     6
  9
$SURFV
 70
     6
  9
$UCSBASE
  2

  9
$UCSNAME
  2

  9
$UCSORG
 10
0.0
 20
0.0
 30
0.0
  9
$UCSXDIR
 10
1.0
 20
0.0
 30
0.0
  9
$UCSYDIR
 10
0.0
 20
1.0
 30
0.0
  9
$UCSORTHOREF
  2

  9
$UCSORTHOVIEW
 70
     0
  9
$UCSORGTOP
 10
0.0
 20
0.0
 30
0.0
  9
$UCSORGBOTTOM
 10
0.0
 20
0.0
 30
0.0
  9
$UCSORGLEFT
 10
0.0
 20
0.0
 30
0.0
  9
$UCSORGRIGHT
 10
0.0
 20
0.0
 30
0.0
  9
$UCSORGFRONT
 10
0.0
 20
0.0
 30
0.0
  9
$UCSORGBACK
 10
0.0
 20
0.0
 30
0.0
  9
$PUCSBASE
  2

  9
$PUCSNAME
  2

  9
$PUCSORG
 10
0.0
 20
0.0
 30
0.0
  9
$PUCSXDIR
 10
1.0
 20
0.0
 30
0.0
  9
$PUCSYDIR
 10
0.0
 20
1.0
 30
0.0
  9
$PUCSORTHOREF
  2

  9
$PUCSORTHOVIEW
 70
     0
  9
$PUCSORGTOP
 10
0.0
 20
0.0
 30
0.0
  9
$PUCSORGBOTTOM
 10
0.0
 20
0.0
 30
0.0
  9
$PUCSORGLEFT
 10
0.0
 20
0.0
 30
0.0
  9
$PUCSORGRIGHT
 10
0.0
 20
0.0
 30
0.0
  9
$PUCSORGFRONT
 10
0.0
 20
0.0
 30
0.0
  9
$PUCSORGBACK
 10
0.0
 20
0.0
 30
0.0
  9
$USERI1
 70
     0
  9
$USERI2
 70
     0
  9
$USERI3
 70
     0
  9
$USERI4
 70
     0
  9
$USERI5
 70
     0
  9
$USERR1
 40
0.0
  9
$USERR2
 40
0.0
  9
$USERR3
 40
0.0
  9
$USERR4
 40
0.0
  9
$USERR5
 40
0.0
  9
$WORLDVIEW
 70
     1
  9
$SHADEDGE
 70
     3
  9
$SHADEDIF
 70
    70
  9
$TILEMODE
 70
     1
  9
$MAXACTVP
 70
    64
  9
$PINSBASE
 10
0.0
 20
0.0
 30
0.0
  9
$PLIMCHECK
 70
     0
  9
$PEXTMIN
 10
1.000000000000000E+20
 20
1.000000000000000E+20
 30
1.000000000000000E+20
  9
$PEXTMAX
 10
-1.000000000000000E+20
 20
-1.000000000000000E+20
 30
-1.000000000000000E+20
  9
$PLIMMIN
 10
0.0
 20
0.0
  9
$PLIMMAX
 10
12.0
 20
9.0
  9
$UNITMODE
 70
     0
  9
$VISRETAIN
 70
     1
  9
$PLINEGEN
 70
     0
  9
$PSLTSCALE
 70
     1
  9
$TREEDEPTH
 70
  3020
  9
$CMLSTYLE
  2
Standard
  9
$CMLJUST
 70
     0
  9
$CMLSCALE
 40
1.0
  9
$PROXYGRAPHICS
 70
     1
  9
$MEASUREMENT
 70
     0
  9
$CELWEIGHT
370
    -1
  9
$ENDCAPS
280
     0
  9
$JOINSTYLE
280
     0
  9
$LWDISPLAY
290
     1
  9
$INSUNITS
 70
     1
  9
$HYPERLINKBASE
  1

  9
$STYLESHEET
  1

  9
$XEDIT
290
     1
  9
$CEPSNTYPE
380
     0
  9
$PSTYLEMODE
290
     1
  9
$FINGERPRINTGUID
  2
{5A15833D-C5B6-64F3-5836-50942BDBFA12}
  9
$VERSIONGUID
  2
{FAEB1C32-E019-11D5-929B-00C0DF256EC4}
  9
$EXTNAMES
290
     1
  9
$PSVPSCALE
 40
0.0
  9
$OLESTARTUP
290
     0
  9
$SORTENTS
280
   127
  9
$INDEXCTL
280
     0
  9
$HIDETEXT
280
     1
  9
$XCLIPFRAME
290
     0
  9
$HALOGAP
280
     0
  9
$OBSCOLOR
 70
   257
  9
$OBSLTYPE
280
     0
  9
$INTERSECTIONDISPLAY
280
     0
  9
$INTERSECTIONCOLOR
 70
   257
  9
$DIMASSOC
280
     2
  9
$PROJECTNAME
  1

  0
ENDSEC
  0
SECTION
  2
CLASSES
  0
CLASS
  1
ACDBDICTIONARYWDFLT
  2
AcDbDictionaryWithDefault
  3
ObjectDBX Classes
 90
        0
 91
        3
280
     0
281
     0
  0
CLASS
  1
VISUALSTYLE
  2
AcDbVisualStyle
  3
ObjectDBX Classes
 90
     4095
 91
        3
280
     0
281
     0
  0
ENDSEC
  0
SECTION
  2
TABLES
  0
TABLE
  2
VPORT
  5
8
330
0
100
AcDbSymbolTable
 70
     1
  0
VPORT
  5
29
330
8
100
AcDbSymbolTableRecord
100
AcDbViewportTableRecord
  2
*Active
 70
     0
 10
0.0
 20
0.0
 11
1.0
 21
1.0
 12
0.0
 22
0.0
 13
0.0
 23
0.0
 14
0.5
 24
0.5
 15
0.5
 25
0.5
 16
0.0
 26
0.0
 36
1.0
 17
105.0008259828644
 27
-148.4999796178229
 37
0.0
 40
296.9999592356459
 41
0.7070763662937379
 42
50.0
 43
0.0
 44
0.0
 50
0.0
 51
0.0
 71
     0
 72
   100
 73
     1
 74
     3
 75
     0
 76
     0
 77
     0
 78
     0
281
     0
 65
     1
110
0.0
120
0.0
130
0.0
111
1.0
121
0.0
131
0.0
112
0.0
122
1.0
132
0.0
 79
     0
146
0.0
  0
ENDTAB
  0
TABLE
  2
LTYPE
  5
5
330
0
100
AcDbSymbolTable
 70
     1
  0
LTYPE
  5
14
330
5
100
AcDbSymbolTableRecord
100
AcDbLinetypeTableRecord
  2
ByBlock
 70
     0
  3

 72
    65
 73
     0
 40
0.0
  0
LTYPE
  5
15
330
5
100
AcDbSymbolTableRecord
100
AcDbLinetypeTableRecord
  2
ByLayer
 70
     0
  3

 72
    65
 73
     0
 40
0.0
  0
LTYPE
  5
16
330
5
100
AcDbSymbolTableRecord
100
AcDbLinetypeTableRecord
  2
Continuous
 70
     0
  3
Solid line
 72
    65
 73
     0
 40
0.0
  0
ENDTAB
  0
TABLE
  2
LAYER
  5
2
330
0
100
AcDbSymbolTable
 70
     2
  0
LAYER
  5
10
330
2
100
AcDbSymbolTableRecord
100
AcDbLayerTableRecord
  2
0
 70
     0
 62
     7
  6
Continuous
370
    -3
390
F
  0
LAYER
  5
3B
330
2
100
AcDbSymbolTableRecord
100
AcDbLayerTableRecord
  2
Ebene 1
 70
     0
 62
     7
  6
Continuous
370
    -3
390
F
  0
ENDTAB
  0
TABLE
  2
STYLE
  5
3
330
0
100
AcDbSymbolTable
 70
     1
  0
STYLE
  5
11
330
3
100
AcDbSymbolTableRecord
100
AcDbTextStyleTableRecord
  2
Standard
 70
     0
 40
0.0
 41
1.0
 50
0.0
 71
     0
 42
0.2
  3
txt
  4

  0
ENDTAB
  0
TABLE
  2
VIEW
  5
6
330
0
100
AcDbSymbolTable
 70
     0
  0
ENDTAB
  0
TABLE
  2
UCS
  5
7
330
0
100
AcDbSymbolTable
 70
     0
  0
ENDTAB
  0
TABLE
  2
APPID
  5
9
330
0
100
AcDbSymbolTable
 70
     1
  0
APPID
  5
12
330
9
100
AcDbSymbolTableRecord
100
AcDbRegAppTableRecord
  2
ACAD
 70
     0
  0
ENDTAB
  0
TABLE
  2
DIMSTYLE
  5
A
330
0
100
AcDbSymbolTable
 70
     1
100
AcDbDimStyleTable
  0
DIMSTYLE
105
27
330
A
100
AcDbSymbolTableRecord
100
AcDbDimStyleTableRecord
  2
Standard
 70
     0
340
11
  0
ENDTAB
  0
TABLE
  2
BLOCK_RECORD
  5
1
330
0
100
AcDbSymbolTable
 70
     6
  0
BLOCK_RECORD
  5
1F
330
1
100
AcDbSymbolTableRecord
100
AcDbBlockTableRecord
  2
*Model_Space
340
22
  0
BLOCK_RECORD
  5
1B
330
1
100
AcDbSymbolTableRecord
100
AcDbBlockTableRecord
  2
*Paper_Space
340
1E
  0
BLOCK_RECORD
  5
23
330
1
100
AcDbSymbolTableRecord
100
AcDbBlockTableRecord
  2
*Paper_Space0
340
26
  0
BLOCK_RECORD
  5
4A
330
1
100
AcDbSymbolTableRecord
100
AcDbBlockTableRecord
  2
block 2
340
0
102
{BLKREFS
331
4B
102
}
  0
BLOCK_RECORD
  5
147
330
1
100
AcDbSymbolTableRecord
100
AcDbBlockTableRecord
  2
block 3
340
0
102
{BLKREFS
331
148
102
}
  0
BLOCK_RECORD
  5
1A7
330
1
100
AcDbSymbolTableRecord
100
AcDbBlockTableRecord
  2
block 4
340
0
102
{BLKREFS
331
1A8
102
}
  0
BLOCK_RECORD
  5
1D7
330
1
100
AcDbSymbolTableRecord
100
AcDbBlockTableRecord
  2
block 5
340
0
102
{BLKREFS
331
1D8
102
}
  0
BLOCK_RECORD
  5
2AC
330
1
100
AcDbSymbolTableRecord
100
AcDbBlockTableRecord
  2
block 6
340
0
102
{BLKREFS
331
2AD
102
}
  0
ENDTAB
  0
ENDSEC
  0
SECTION
  2
BLOCKS
  0
BLOCK
  5
20
330
1F
100
AcDbEntity
  8
0
100
AcDbBlockBegin
  2
*Model_Space
 70
     0
 71
     0
 10
0.0
 20
0.0
 30
0.0
  3
*Model_Space
  1

  0
ENDBLK
  5
21
330
1F
100
AcDbEntity
  8
0
100
AcDbBlockEnd
  0
BLOCK
  5
1C
330
1B
100
AcDbEntity
 67
     1
  8
0
100
AcDbBlockBegin
  2
*Paper_Space
 70
     0
 71
     0
 10
0.0
 20
0.0
 30
0.0
  3
*Paper_Space
  1

  0
ENDBLK
  5
1D
330
1B
100
AcDbEntity
 67
     1
  8
0
100
AcDbBlockEnd
  0
BLOCK
  5
24
330
23
100
AcDbEntity
  8
0
100
AcDbBlockBegin
  2
*Paper_Space0
 70
     0
 71
     0
 10
0.0
 20
0.0
 30
0.0
  3
*Paper_Space0
  1

  0
ENDBLK
  5
25
330
23
100
AcDbEntity
  8
0
100
AcDbBlockEnd
  0
BLOCK
  5
4C
330
4A
100
AcDbEntity
  8
0
100
AcDbBlockBegin
  2
block 2
 70
     0
 71
     0
 10
0.0
 20
0.0
 30
0.0
  3
block 2
  1

  0
POLYLINE
  5
4E
330
4A
100
AcDbEntity
  8
Ebene 1
 62
   179
420
  1709851
370
    18
100
AcDb2dPolyline
 66
     1
 10
0.0
 20
0.0
 30
0.0
  0
VERTEX
  5
4F
330
4E
100
AcDbEntity
  8
Ebene 1
 62
   179
420
  1709851
370
    18
100
AcDbVertex
100
AcDb2dVertex
 10
95.29943709640084
 20
-90.10664467148376
 30
0.0
  0
VERTEX
  5
50
330
4E
100
AcDbEntity
  8
Ebene 1
 62
   179
420
  1709851
370
    18
100
AcDbVertex
100
AcDb2dVertex
 10
107.34331865806
 20
-78.06259085505033
 30
0.0
  0
SEQEND
  5
51
330
4E
100
AcDbEntity
  8
Ebene 1
370
    18
  0
POLYLINE
  5
52
330
4A
100
AcDbEntity
  8
Ebene 1
 62
   179
420
  1709851
370
    18
100
AcDb2dPolyline
 66
     1
 10
0.0
 20
0.0
 30
0.0
  0
VERTEX
  5
53
330
52
100
AcDbEntity
  8
Ebene 1
 62
   179
420
  1709851
370
    18
100
AcDbVertex
100
AcDb2dVertex
 10
95.29943709640084
 20
-104.2460055620461
 30
0.0
  0
VERTEX
  5
54
330
52
100
AcDbEntity
  8
Ebene 1
 62
   179
420
  1709851
370
    18
100
AcDbVertex
100
AcDb2dVertex
 10
121.4823350390739
 20
-78.06259085505033
 30
0.0
  0
SEQEND
  5
55
330
52
100
AcDbEntity
  8
Ebene 1
370
    18
  0
POLYLINE
  5
56
330
4A
100
AcDbEntity
  8
Ebene 1
 62
   179
420
  1709851
370
    18
100
AcDb2dPolyline
 66
     1
 10
0.0
 20
0.0
 30
0.0
  0
VERTEX
  5
57
330
56
100
AcDbEntity
  8
Ebene 1
 62
   179
420
  1709851
370
    18
100
AcDbVertex
100
AcDb2dVertex
 10
95.29943709640084
 20
-118.3853664526085
 30
0.0
  0
VERTEX
  5
58
330
56
100
AcDbEntity
  8
Ebene 1
 62
   179
420
  1709851
370
    18
100
AcDbVertex
100
AcDb2dVertex
 10
135.6216959296362
 20
-78.06259085505033
 30
0.0
  0
SEQEND
  5
59
330
56
100
AcDbEntity
  8
Ebene 1
370
    18
  0
POLYLINE
  5
5A
330
4A
100
AcDbEntity
  8
Ebene 1
 62
   179
420
  1709851
370
    18
100
AcDb2dPolyline
 66
     1
 10
0.0
 20
0.0
 30
0.0
  0
VERTEX
  5
5B
330
5A
100
AcDbEntity
  8
Ebene 1
 62
   179
420
  1709851
370
    18
100
AcDbVertex
100
AcDb2dVertex
 10
95.29943709640084
 20
-132.5247273431709
 30
0.0
  0
VERTEX
  5
5C
330
5A
100
AcDbEntity
  8
Ebene 1
 62
   179
420
  1709851
370
    18
100
AcDbVertex
100
AcDb2dVertex
 10
149.7610568201986
 20
-78.06259085505033
 30
0.0
  0
SEQEND
  5
5D
330
5A
100
AcDbEntity
  8
Ebene 1
370
    18
  0
POLYLINE
  5
5E
330
4A
100
AcDbEntity
  8
Ebene 1
 62
   179
420
  1709851
370
    18
100
AcDb2dPolyline
 66
     1
 10
0.0
 20
0.0
 30
0.0
  0
VERTEX
  5
5F
330
5E
100
AcDbEntity
  8
Ebene 1
 62
   179
420
  1709851
370
    18
100
AcDbVertex
100
AcDb2dVertex
 10
95.29943709640084
 20
-146.6637437241848
 30
0.0
  0
VERTEX
  5
60
330
5E
100
AcDbEntity
  8
Ebene 1
 62
   179
420
  1709851
370
    18
100
AcDbVertex
100
AcDb2dVertex
 10
155.3066270228053
 20
-86.6777411350146
 30
0.0
  0
SEQEND
  5
61
330
5E
100
AcDbEntity
  8
Ebene 1
370
    18
  0
POLYLINE
  5
62
330
4A
100
AcDbEntity
  8
Ebene 1
 62
   179
420
  1709851
370
    18
100
AcDb2dPolyline
 66
     1
 10
0.0
 20
0.0
 30
0.0
  0
VERTEX
  5
63
330
62
100
AcDbEntity
  8
Ebene 1
 62
   179
420
  1709851
370
    18
100
AcDbVertex
100
AcDb2dVertex
 10
95.29943709640084
 20
-160.8032768695214
 30
0.0
  0
VERTEX
  5
64
330
62
100
AcDbEntity
  8
Ebene 1
 62
   179
420
  1709851
370
    18
100
AcDbVertex
100
AcDb2dVertex
 10
155.3066270228053
 20
-100.8167575160285
 30
0.0
  0
SEQEND
  5
65
330
62
100
AcDbEntity
  8
Ebene 1
370
    18
  0
POLYLINE
  5
66
330
4A
100
AcDbEntity
  8
Ebene 1
 62
   179
420
  1709851
370
    18
100
AcDb2dPolyline
 66
     1
 10
0.0
 20
0.0
 30
0.0
  0
VERTEX
  5
67
330
66
100
AcDbEntity
  8
Ebene 1
 62
   179
420
  1709851
370
    18
100
AcDbVertex
100
AcDb2dVertex
 10
95.29943709640084
 20
-174.9426377600838
 30
0.0
  0
VERTEX
  5
68
330
66
100
AcDbEntity
  8
Ebene 1
 62
   179
420
  1709851
370
    18
100
AcDbVertex
100
AcDb2dVertex
 10
155.3066270228053
 20
-114.9561184065908
 30
0.0
  0
SEQEND
  5
69
330
66
100
AcDbEntity
  8
Ebene 1
370
    18
  0
POLYLINE
  5
6A
330
4A
100
AcDbEntity
  8
Ebene 1
 62
   179
420
  1709851
370
    18
100
AcDb2dPolyline
 66
     1
 10
0.0
 20
0.0
 30
0.0
  0
VERTEX
  5
6B
330
6A
100
AcDbEntity
  8
Ebene 1
 62
   179
420
  1709851
370
    18
100
AcDbVertex
100
AcDb2dVertex
 10
95.29943709640084
 20
-189.0819986506462
 30
0.0
  0
VERTEX
  5
6C
330
6A
100
AcDbEntity
  8
Ebene 1
 62
   179
420
  1709851
370
    18
100
AcDbVertex
100
AcDb2dVertex
 10
155.3066270228053
 20
-129.0954792971532
 30
0.0
  0
SEQEND
  5
6D
330
6A
100
AcDbEntity
  8
Ebene 1
370
    18
  0
POLYLINE
  5
6E
330
4A
100
AcDbEntity
  8
Ebene 1
 62
   179
420
  1709851
370
    18
100
AcDb2dPolyline
 66
     1
 10
0.0
 20
0.0
 30
0.0
  0
VERTEX
  5
6F
330
6E
100
AcDbEntity
  8
Ebene 1
 62
   179
420
  1709851
370
    18
100
AcDbVertex
100
AcDb2dVertex
 10
95.29943709640084
 20
-203.2213595412086
 30
0.0
  0
VERTEX
  5
70
330
6E
100
AcDbEntity
  8
Ebene 1
 62
   179
420
  1709851
370
    18
100
AcDbVertex
100
AcDb2dVertex
 10
155.3066270228053
 20
-143.2348401877156
 30
0.0
  0
SEQEND
  5
71
330
6E
100
AcDbEntity
  8
Ebene 1
370
    18
  0
POLYLINE
  5
72
330
4A
100
AcDbEntity
  8
Ebene 1
 62
   179
420
  1709851
370
    18
100
AcDb2dPolyline
 66
     1
 10
0.0
 20
0.0
 30
0.0
  0
VERTEX
  5
73
330
72
100
AcDbEntity
  8
Ebene 1
 62
   179
420
  1709851
370
    18
100
AcDbVertex
100
AcDb2dVertex
 10
95.29943709640084
 20
-217.3820800237795
 30
0.0
  0
VERTEX
  5
74
330
72
100
AcDbEntity
  8
Ebene 1
 62
   179
420
  1709851
370
    18
100
AcDbVertex
100
AcDb2dVertex
 10
155.3066270228053
 20
-157.3740288235037
 30
0.0
  0
SEQEND
  5
75
330
72
100
AcDbEntity
  8
Ebene 1
370
    18
  0
POLYLINE
  5
76
330
4A
100
AcDbEntity
  8
Ebene 1
 62
   179
420
  1709851
370
    18
100
AcDb2dPolyline
 66
     1
 10
0.0
 20
0.0
 30
0.0
  0
VERTEX
  5
77
330
76
100
AcDbEntity
  8
Ebene 1
 62
   179
420
  1709851
370
    18
100
AcDbVertex
100
AcDb2dVertex
 10
104.1471313216195
 20
-222.6737466891232
 30
0.0
  0
VERTEX
  5
78
330
76
100
AcDbEntity
  8
Ebene 1
 62
   179
420
  1709851
370
    18
100
AcDbVertex
100
AcDb2dVertex
 10
155.3066270228053
 20
-171.5133897140661
 30
0.0
  0
SEQEND
  5
79
330
76
100
AcDbEntity
  8
Ebene 1
370
    18
  0
POLYLINE
  5
7A
330
4A
100
AcDbEntity
  8
Ebene 1
 62
   179
420
  1709851
370
    18
100
AcDb2dPolyline
 66
     1
 10
0.0
 20
0.0
 30
0.0
  0
VERTEX
  5
7B
330
7A
100
AcDbEntity
  8
Ebene 1
 62
   179
420
  1709851
370
    18
100
AcDbVertex
100
AcDb2dVertex
 10
118.2866644669561
 20
-222.6737466891232
 30
0.0
  0
VERTEX
  5
7C
330
7A
100
AcDbEntity
  8
Ebene 1
 62
   179
420
  1709851
370
    18
100
AcDbVertex
100
AcDb2dVertex
 10
155.3066270228053
 20
-185.6534396237255
 30
0.0
  0
SEQEND
  5
7D
330
7A
100
AcDbEntity
  8
Ebene 1
370
    18
  0
POLYLINE
  5
7E
330
4A
100
AcDbEntity
  8
Ebene 1
 62
   179
420
  1709851
370
    18
100
AcDb2dPolyline
 66
     1
 10
0.0
 20
0.0
 30
0.0
  0
VERTEX
  5
7F
330
7E
100
AcDbEntity
  8
Ebene 1
 62
   179
420
  1709851
370
    18
100
AcDbVertex
100
AcDb2dVertex
 10
132.4260253575185
 20
-222.6737466891232
 30
0.0
  0
VERTEX
  5
80
330
7E
100
AcDbEntity
  8
Ebene 1
 62
   179
420
  1709851
370
    18
100
AcDbVertex
100
AcDb2dVertex
 10
155.3066270228053
 20
-199.7921114951909
 30
0.0
  0
SEQEND
  5
81
330
7E
100
AcDbEntity
  8
Ebene 1
370
    18
  0
POLYLINE
  5
82
330
4A
100
AcDbEntity
  8
Ebene 1
 62
   179
420
  1709851
370
    18
100
AcDb2dPolyline
 66
     1
 10
0.0
 20
0.0
 30
0.0
  0
VERTEX
  5
83
330
82
100
AcDbEntity
  8
Ebene 1
 62
   179
420
  1709851
370
    18
100
AcDbVertex
100
AcDb2dVertex
 10
146.5650417385324
 20
-222.6737466891232
 30
0.0
  0
VERTEX
  5
84
330
82
100
AcDbEntity
  8
Ebene 1
 62
   179
420
  1709851
370
    18
100
AcDbVertex
100
AcDb2dVertex
 10
155.3066270228053
 20
-213.9314723857533
 30
0.0
  0
SEQEND
  5
85
330
82
100
AcDbEntity
  8
Ebene 1
370
    18
  0
POLYLINE
  5
86
330
4A
100
AcDbEntity
  8
Ebene 1
 62
   179
420
  1709851
370
    18
100
AcDb2dPolyline
 66
     1
 10
0.0
 20
0.0
 30
0.0
  0
VERTEX
  5
87
330
86
100
AcDbEntity
  8
Ebene 1
 62
   179
420
  1709851
370
    18
100
AcDbVertex
100
AcDb2dVertex
 10
95.29943709640084
 20
-83.03696422620257
 30
0.0
  0
VERTEX
  5
88
330
86
100
AcDbEntity
  8
Ebene 1
 62
   179
420
  1709851
370
    18
100
AcDbVertex
100
AcDb2dVertex
 10
100.2736382127788
 20
-78.06259085505033
 30
0.0
  0
SEQEND
  5
89
330
86
100
AcDbEntity
  8
Ebene 1
370
    18
  0
POLYLINE
  5
8A
330
4A
100
AcDbEntity
  8
Ebene 1
 62
   179
420
  1709851
370
    18
100
AcDb2dPolyline
 66
     1
 10
0.0
 20
0.0
 30
0.0
  0
VERTEX
  5
8B
330
8A
100
AcDbEntity
  8
Ebene 1
 62
   179
420
  1709851
370
    18
100
AcDbVertex
100
AcDb2dVertex
 10
95.29943709640084
 20
-97.17632511676496
 30
0.0
  0
VERTEX
  5
8C
330
8A
100
AcDbEntity
  8
Ebene 1
 62
   179
420
  1709851
370
    18
100
AcDbVertex
100
AcDb2dVertex
 10
114.4129991033412
 20
-78.06259085505033
 30
0.0
  0
SEQEND
  5
8D
330
8A
100
AcDbEntity
  8
Ebene 1
370
    18
  0
POLYLINE
  5
8E
330
4A
100
AcDbEntity
  8
Ebene 1
 62
   179
420
  1709851
370
    18
100
AcDb2dPolyline
 66
     1
 10
0.0
 20
0.0
 30
0.0
  0
VERTEX
  5
8F
330
8E
100
AcDbEntity
  8
Ebene 1
 62
   179
420
  1709851
370
    18
100
AcDbVertex
100
AcDb2dVertex
 10
95.29943709640084
 20
-111.3156860073273
 30
0.0
  0
VERTEX
  5
90
330
8E
100
AcDbEntity
  8
Ebene 1
 62
   179
420
  1709851
370
    18
100
AcDbVertex
100
AcDb2dVertex
 10
128.5520154843551
 20
-78.06259085505033
 30
0.0
  0
SEQEND
  5
91
330
8E
100
AcDbEntity
  8
Ebene 1
370
    18
  0
POLYLINE
  5
92
330
4A
100
AcDbEntity
  8
Ebene 1
 62
   179
420
  1709851
370
    18
100
AcDb2dPolyline
 66
     1
 10
0.0
 20
0.0
 30
0.0
  0
VERTEX
  5
93
330
92
100
AcDbEntity
  8
Ebene 1
 62
   179
420
  1709851
370
    18
100
AcDbVertex
100
AcDb2dVertex
 10
95.29943709640084
 20
-125.4550468978897
 30
0.0
  0
VERTEX
  5
94
330
92
100
AcDbEntity
  8
Ebene 1
 62
   179
420
  1709851
370
    18
100
AcDbVertex
100
AcDb2dVertex
 10
142.6910318653689
 20
-78.06259085505033
 30
0.0
  0
SEQEND
  5
95
330
92
100
AcDbEntity
  8
Ebene 1
370
    18
  0
POLYLINE
  5
96
330
4A
100
AcDbEntity
  8
Ebene 1
 62
   179
420
  1709851
370
    18
100
AcDb2dPolyline
 66
     1
 10
0.0
 20
0.0
 30
0.0
  0
VERTEX
  5
97
330
96
100
AcDbEntity
  8
Ebene 1
 62
   179
420
  1709851
370
    18
100
AcDbVertex
100
AcDb2dVertex
 10
95.29943709640084
 20
-139.5944077884521
 30
0.0
  0
VERTEX
  5
98
330
96
100
AcDbEntity
  8
Ebene 1
 62
   179
420
  1709851
370
    18
100
AcDbVertex
100
AcDb2dVertex
 10
155.3066270228053
 20
-79.6080606897334
 30
0.0
  0
SEQEND
  5
99
330
96
100
AcDbEntity
  8
Ebene 1
370
    18
  0
POLYLINE
  5
9A
330
4A
100
AcDbEntity
  8
Ebene 1
 62
   179
420
  1709851
370
    18
100
AcDb2dPolyline
 66
     1
 10
0.0
 20
0.0
 30
0.0
  0
VERTEX
  5
9B
330
9A
100
AcDbEntity
  8
Ebene 1
 62
   179
420
  1709851
370
    18
100
AcDbVertex
100
AcDb2dVertex
 10
95.29943709640084
 20
-153.7332519146917
 30
0.0
  0
VERTEX
  5
9C
330
9A
100
AcDbEntity
  8
Ebene 1
 62
   179
420
  1709851
370
    18
100
AcDbVertex
100
AcDb2dVertex
 10
155.3066270228053
 20
-93.74742158029579
 30
0.0
  0
SEQEND
  5
9D
330
9A
100
AcDbEntity
  8
Ebene 1
370
    18
  0
POLYLINE
  5
9E
330
4A
100
AcDbEntity
  8
Ebene 1
 62
   179
420
  1709851
370
    18
100
AcDb2dPolyline
 66
     1
 10
0.0
 20
0.0
 30
0.0
  0
VERTEX
  5
9F
330
9E
100
AcDbEntity
  8
Ebene 1
 62
   179
420
  1709851
370
    18
100
AcDbVertex
100
AcDb2dVertex
 10
95.29943709640084
 20
-167.8726128052541
 30
0.0
  0
VERTEX
  5
A0
330
9E
100
AcDbEntity
  8
Ebene 1
 62
   179
420
  1709851
370
    18
100
AcDbVertex
100
AcDb2dVertex
 10
155.3066270228053
 20
-107.8864379613096
 30
0.0
  0
SEQEND
  5
A1
330
9E
100
AcDbEntity
  8
Ebene 1
370
    18
  0
POLYLINE
  5
A2
330
4A
100
AcDbEntity
  8
Ebene 1
 62
   179
420
  1709851
370
    18
100
AcDb2dPolyline
 66
     1
 10
0.0
 20
0.0
 30
0.0
  0
VERTEX
  5
A3
330
A2
100
AcDbEntity
  8
Ebene 1
 62
   179
420
  1709851
370
    18
100
AcDbVertex
100
AcDb2dVertex
 10
95.29943709640084
 20
-182.0119736958165
 30
0.0
  0
VERTEX
  5
A4
330
A2
100
AcDbEntity
  8
Ebene 1
 62
   179
420
  1709851
370
    18
100
AcDbVertex
100
AcDb2dVertex
 10
155.3066270228053
 20
-122.025798851872
 30
0.0
  0
SEQEND
  5
A5
330
A2
100
AcDbEntity
  8
Ebene 1
370
    18
  0
POLYLINE
  5
A6
330
4A
100
AcDbEntity
  8
Ebene 1
 62
   179
420
  1709851
370
    18
100
AcDb2dPolyline
 66
     1
 10
0.0
 20
0.0
 30
0.0
  0
VERTEX
  5
A7
330
A6
100
AcDbEntity
  8
Ebene 1
 62
   179
420
  1709851
370
    18
100
AcDbVertex
100
AcDb2dVertex
 10
95.29943709640084
 20
-196.1513345863789
 30
0.0
  0
VERTEX
  5
A8
330
A6
100
AcDbEntity
  8
Ebene 1
 62
   179
420
  1709851
370
    18
100
AcDbVertex
100
AcDb2dVertex
 10
155.3066270228053
 20
-136.1651597424344
 30
0.0
  0
SEQEND
  5
A9
330
A6
100
AcDbEntity
  8
Ebene 1
370
    18
  0
POLYLINE
  5
AA
330
4A
100
AcDbEntity
  8
Ebene 1
 62
   179
420
  1709851
370
    18
100
AcDb2dPolyline
 66
     1
 10
0.0
 20
0.0
 30
0.0
  0
VERTEX
  5
AB
330
AA
100
AcDbEntity
  8
Ebene 1
 62
   179
420
  1709851
370
    18
100
AcDbVertex
100
AcDb2dVertex
 10
95.29943709640084
 20
-210.3120550689498
 30
0.0
  0
VERTEX
  5
AC
330
AA
100
AcDbEntity
  8
Ebene 1
 62
   179
420
  1709851
370
    18
100
AcDbVertex
100
AcDb2dVertex
 10
155.3066270228053
 20
-150.3046928877711
 30
0.0
  0
SEQEND
  5
AD
330
AA
100
AcDbEntity
  8
Ebene 1
370
    18
  0
POLYLINE
  5
AE
330
4A
100
AcDbEntity
  8
Ebene 1
 62
   179
420
  1709851
370
    18
100
AcDb2dPolyline
 66
     1
 10
0.0
 20
0.0
 30
0.0
  0
VERTEX
  5
AF
330
AE
100
AcDbEntity
  8
Ebene 1
 62
   179
420
  1709851
370
    18
100
AcDbVertex
100
AcDb2dVertex
 10
97.07745087633828
 20
-222.6737466891232
 30
0.0
  0
VERTEX
  5
B0
330
AE
100
AcDbEntity
  8
Ebene 1
 62
   179
420
  1709851
370
    18
100
AcDbVertex
100
AcDb2dVertex
 10
155.3066270228053
 20
-164.4440537783334
 30
0.0
  0
SEQEND
  5
B1
330
AE
100
AcDbEntity
  8
Ebene 1
370
    18
  0
POLYLINE
  5
B2
330
4A
100
AcDbEntity
  8
Ebene 1
 62
   179
420
  1709851
370
    18
100
AcDb2dPolyline
 66
     1
 10
0.0
 20
0.0
 30
0.0
  0
VERTEX
  5
B3
330
B2
100
AcDbEntity
  8
Ebene 1
 62
   179
420
  1709851
370
    18
100
AcDbVertex
100
AcDb2dVertex
 10
111.2166395121264
 20
-222.6737466891232
 30
0.0
  0
VERTEX
  5
B4
330
B2
100
AcDbEntity
  8
Ebene 1
 62
   179
420
  1709851
370
    18
100
AcDbVertex
100
AcDb2dVertex
 10
155.3066270228053
 20
-178.5834146688958
 30
0.0
  0
SEQEND
  5
B5
330
B2
100
AcDbEntity
  8
Ebene 1
370
    18
  0
POLYLINE
  5
B6
330
4A
100
AcDbEntity
  8
Ebene 1
 62
   179
420
  1709851
370
    18
100
AcDb2dPolyline
 66
     1
 10
0.0
 20
0.0
 30
0.0
  0
VERTEX
  5
B7
330
B6
100
AcDbEntity
  8
Ebene 1
 62
   179
420
  1709851
370
    18
100
AcDbVertex
100
AcDb2dVertex
 10
125.3560004026888
 20
-222.6737466891232
 30
0.0
  0
VERTEX
  5
B8
330
B6
100
AcDbEntity
  8
Ebene 1
 62
   179
420
  1709851
370
    18
100
AcDbVertex
100
AcDb2dVertex
 10
155.3066270228053
 20
-192.7227755594582
 30
0.0
  0
SEQEND
  5
B9
330
B6
100
AcDbEntity
  8
Ebene 1
370
    18
  0
POLYLINE
  5
BA
330
4A
100
AcDbEntity
  8
Ebene 1
 62
   179
420
  1709851
370
    18
100
AcDb2dPolyline
 66
     1
 10
0.0
 20
0.0
 30
0.0
  0
VERTEX
  5
BB
330
BA
100
AcDbEntity
  8
Ebene 1
 62
   179
420
  1709851
370
    18
100
AcDbVertex
100
AcDb2dVertex
 10
139.4953612932512
 20
-222.6737466891232
 30
0.0
  0
VERTEX
  5
BC
330
BA
100
AcDbEntity
  8
Ebene 1
 62
   179
420
  1709851
370
    18
100
AcDbVertex
100
AcDb2dVertex
 10
155.3066270228053
 20
-206.8621364500206
 30
0.0
  0
SEQEND
  5
BD
330
BA
100
AcDbEntity
  8
Ebene 1
370
    18
  0
POLYLINE
  5
BE
330
4A
100
AcDbEntity
  8
Ebene 1
 62
   179
420
  1709851
370
    18
100
AcDb2dPolyline
 66
     1
 10
0.0
 20
0.0
 30
0.0
  0
VERTEX
  5
BF
330
BE
100
AcDbEntity
  8
Ebene 1
 62
   179
420
  1709851
370
    18
100
AcDbVertex
100
AcDb2dVertex
 10
153.6347221838136
 20
-222.6737466891232
 30
0.0
  0
VERTEX
  5
C0
330
BE
100
AcDbEntity
  8
Ebene 1
 62
   179
420
  1709851
370
    18
100
AcDbVertex
100
AcDb2dVertex
 10
155.3066270228053
 20
-221.001497340583
 30
0.0
  0
SEQEND
  5
C1
330
BE
100
AcDbEntity
  8
Ebene 1
370
    18
  0
POLYLINE
  5
C2
330
4A
100
AcDbEntity
  8
Ebene 1
370
     0
100
AcDb2dPolyline
 66
     1
 10
0.0
 20
0.0
 30
0.0
  0
VERTEX
  5
C3
330
C2
100
AcDbEntity
  8
Ebene 1
370
     0
100
AcDbVertex
100
AcDb2dVertex
 10
65.26388887257292
 20
-222.9169704303819
 30
0.0
  0
VERTEX
  5
C4
330
C2
100
AcDbEntity
  8
Ebene 1
370
     0
100
AcDbVertex
100
AcDb2dVertex
 10
159.3921657587631
 20
-222.9169704303819
 30
0.0
  0
VERTEX
  5
C5
330
C2
100
AcDbEntity
  8
Ebene 1
370
     0
100
AcDbVertex
100
AcDb2dVertex
 10
159.3921657587631
 20
-77.81936711379169
 30
0.0
  0
VERTEX
  5
C6
330
C2
100
AcDbEntity
  8
Ebene 1
370
     0
100
AcDbVertex
100
AcDb2dVertex
 10
65.26388887257292
 20
-77.81936711379169
 30
0.0
  0
VERTEX
  5
C7
330
C2
100
AcDbEntity
  8
Ebene 1
370
     0
100
AcDbVertex
100
AcDb2dVertex
 10
65.26388887257292
 20
-222.9169704303819
 30
0.0
  0
SEQEND
  5
C8
330
C2
100
AcDbEntity
  8
Ebene 1
370
     0
  0
ENDBLK
  5
4D
330
4A
100
AcDbEntity
  8
0
100
AcDbBlockEnd
  0
BLOCK
  5
149
330
147
100
AcDbEntity
  8
0
100
AcDbBlockBegin
  2
block 3
 70
     0
 71
     0
 10
0.0
 20
0.0
 30
0.0
  3
block 3
  1

  0
POLYLINE
  5
14B
330
147
100
AcDbEntity
  8
Ebene 1
 62
   179
420
  1709851
370
    18
100
AcDb2dPolyline
 66
     1
 10
0.0
 20
0.0
 30
0.0
  0
VERTEX
  5
14C
330
14B
100
AcDbEntity
  8
Ebene 1
 62
   179
420
  1709851
370
    18
100
AcDbVertex
100
AcDb2dVertex
 10
94.7067084181636
 20
-177.9267794694072
 30
0.0
  0
VERTEX
  5
14D
330
14B
100
AcDbEntity
  8
Ebene 1
 62
   179
420
  1709851
370
    18
100
AcDbVertex
100
AcDb2dVertex
 10
94.7067084181636
 20
-170.518446137926
 30
0.0
  0
VERTEX
  5
14E
330
14B
100
AcDbEntity
  8
Ebene 1
 62
   179
420
  1709851
370
    18
100
AcDbVertex
100
AcDb2dVertex
 10
95.29943709640084
 20
-170.518446137926
 30
0.0
  0
SEQEND
  5
14F
330
14B
100
AcDbEntity
  8
Ebene 1
370
    18
  0
POLYLINE
  5
150
330
147
100
AcDbEntity
  8
Ebene 1
 62
   179
420
  1709851
370
    18
100
AcDb2dPolyline
 66
     1
 10
0.0
 20
0.0
 30
0.0
  0
VERTEX
  5
151
330
150
100
AcDbEntity
  8
Ebene 1
 62
   179
420
  1709851
370
    18
100
AcDbVertex
100
AcDb2dVertex
 10
159.0531683630145
 20
-222.6737466891232
 30
0.0
  0
VERTEX
  5
152
330
150
100
AcDbEntity
  8
Ebene 1
 62
   179
420
  1709851
370
    18
100
AcDbVertex
100
AcDb2dVertex
 10
159.3074164098259
 20
-222.6737466891232
 30
0.0
  0
SEQEND
  5
153
330
150
100
AcDbEntity
  8
Ebene 1
370
    18
  0
POLYLINE
  5
154
330
147
100
AcDbEntity
  8
Ebene 1
 62
   179
420
  1709851
370
    18
100
AcDb2dPolyline
 66
     1
 10
0.0
 20
0.0
 30
0.0
  0
VERTEX
  5
155
330
154
100
AcDbEntity
  8
Ebene 1
 62
   179
420
  1709851
370
    18
100
AcDbVertex
100
AcDb2dVertex
 10
151.0522786080703
 20
-222.6737466891232
 30
0.0
  0
VERTEX
  5
156
330
154
100
AcDbEntity
  8
Ebene 1
 62
   179
420
  1709851
370
    18
100
AcDbVertex
100
AcDb2dVertex
 10
158.0585692964229
 20
-222.6737466891232
 30
0.0
  0
SEQEND
  5
157
330
154
100
AcDbEntity
  8
Ebene 1
370
    18
  0
POLYLINE
  5
158
330
147
100
AcDbEntity
  8
Ebene 1
 62
   179
420
  1709851
370
    18
100
AcDb2dPolyline
 66
     1
 10
0.0
 20
0.0
 30
0.0
  0
VERTEX
  5
159
330
158
100
AcDbEntity
  8
Ebene 1
 62
   179
420
  1709851
370
    18
100
AcDbVertex
100
AcDb2dVertex
 10
149.0627359653385
 20
-222.6737466891232
 30
0.0
  0
VERTEX
  5
15A
330
158
100
AcDbEntity
  8
Ebene 1
 62
   179
420
  1709851
370
    18
100
AcDbVertex
100
AcDb2dVertex
 10
150.0573350319301
 20
-222.6737466891232
 30
0.0
  0
SEQEND
  5
15B
330
158
100
AcDbEntity
  8
Ebene 1
370
    18
  0
POLYLINE
  5
15C
330
147
100
AcDbEntity
  8
Ebene 1
 62
   179
420
  1709851
370
    18
100
AcDb2dPolyline
 66
     1
 10
0.0
 20
0.0
 30
0.0
  0
VERTEX
  5
15D
330
15C
100
AcDbEntity
  8
Ebene 1
 62
   179
420
  1709851
370
    18
100
AcDbVertex
100
AcDb2dVertex
 10
141.0615017008458
 20
-222.6737466891232
 30
0.0
  0
VERTEX
  5
15E
330
15C
100
AcDbEntity
  8
Ebene 1
 62
   179
420
  1709851
370
    18
100
AcDbVertex
100
AcDb2dVertex
 10
148.0467773067383
 20
-222.6737466891232
 30
0.0
  0
SEQEND
  5
15F
330
15C
100
AcDbEntity
  8
Ebene 1
370
    18
  0
POLYLINE
  5
160
330
147
100
AcDbEntity
  8
Ebene 1
 62
   179
420
  1709851
370
    18
100
AcDb2dPolyline
 66
     1
 10
0.0
 20
0.0
 30
0.0
  0
VERTEX
  5
161
330
160
100
AcDbEntity
  8
Ebene 1
 62
   179
420
  1709851
370
    18
100
AcDbVertex
100
AcDb2dVertex
 10
139.050943975654
 20
-222.6737466891232
 30
0.0
  0
VERTEX
  5
162
330
160
100
AcDbEntity
  8
Ebene 1
 62
   179
420
  1709851
370
    18
100
AcDbVertex
100
AcDb2dVertex
 10
140.0669026342541
 20
-222.6737466891232
 30
0.0
  0
SEQEND
  5
163
330
160
100
AcDbEntity
  8
Ebene 1
370
    18
  0
POLYLINE
  5
164
330
147
100
AcDbEntity
  8
Ebene 1
 62
   179
420
  1709851
370
    18
100
AcDb2dPolyline
 66
     1
 10
0.0
 20
0.0
 30
0.0
  0
VERTEX
  5
165
330
164
100
AcDbEntity
  8
Ebene 1
 62
   179
420
  1709851
370
    18
100
AcDbVertex
100
AcDb2dVertex
 10
131.0500542207097
 20
-222.6737466891232
 30
0.0
  0
VERTEX
  5
166
330
164
100
AcDbEntity
  8
Ebene 1
 62
   179
420
  1709851
370
    18
100
AcDbVertex
100
AcDb2dVertex
 10
138.0560003995138
 20
-222.6737466891232
 30
0.0
  0
SEQEND
  5
167
330
164
100
AcDbEntity
  8
Ebene 1
370
    18
  0
POLYLINE
  5
168
330
147
100
AcDbEntity
  8
Ebene 1
 62
   179
420
  1709851
370
    18
100
AcDb2dPolyline
 66
     1
 10
0.0
 20
0.0
 30
0.0
  0
VERTEX
  5
169
330
168
100
AcDbEntity
  8
Ebene 1
 62
   179
420
  1709851
370
    18
100
AcDbVertex
100
AcDb2dVertex
 10
129.0601670684294
 20
-222.6737466891232
 30
0.0
  0
VERTEX
  5
16A
330
168
100
AcDbEntity
  8
Ebene 1
 62
   179
420
  1709851
370
    18
100
AcDbVertex
100
AcDb2dVertex
 10
130.0551106445696
 20
-222.6737466891232
 30
0.0
  0
SEQEND
  5
16B
330
168
100
AcDbEntity
  8
Ebene 1
370
    18
  0
POLYLINE
  5
16C
330
147
100
AcDbEntity
  8
Ebene 1
 62
   179
420
  1709851
370
    18
100
AcDb2dPolyline
 66
     1
 10
0.0
 20
0.0
 30
0.0
  0
VERTEX
  5
16D
330
16C
100
AcDbEntity
  8
Ebene 1
 62
   179
420
  1709851
370
    18
100
AcDbVertex
100
AcDb2dVertex
 10
121.0592773134852
 20
-222.6737466891232
 30
0.0
  0
VERTEX
  5
16E
330
16C
100
AcDbEntity
  8
Ebene 1
 62
   179
420
  1709851
370
    18
100
AcDbVertex
100
AcDb2dVertex
 10
128.0652234922892
 20
-222.6737466891232
 30
0.0
  0
SEQEND
  5
16F
330
16C
100
AcDbEntity
  8
Ebene 1
370
    18
  0
POLYLINE
  5
170
330
147
100
AcDbEntity
  8
Ebene 1
 62
   179
420
  1709851
370
    18
100
AcDb2dPolyline
 66
     1
 10
0.0
 20
0.0
 30
0.0
  0
VERTEX
  5
171
330
170
100
AcDbEntity
  8
Ebene 1
 62
   179
420
  1709851
370
    18
100
AcDbVertex
100
AcDb2dVertex
 10
119.0693901612049
 20
-222.6737466891232
 30
0.0
  0
VERTEX
  5
172
330
170
100
AcDbEntity
  8
Ebene 1
 62
   179
420
  1709851
370
    18
100
AcDbVertex
100
AcDb2dVertex
 10
120.064333737345
 20
-222.6737466891232
 30
0.0
  0
SEQEND
  5
173
330
170
100
AcDbEntity
  8
Ebene 1
370
    18
  0
POLYLINE
  5
174
330
147
100
AcDbEntity
  8
Ebene 1
 62
   179
420
  1709851
370
    18
100
AcDb2dPolyline
 66
     1
 10
0.0
 20
0.0
 30
0.0
  0
VERTEX
  5
175
330
174
100
AcDbEntity
  8
Ebene 1
 62
   179
420
  1709851
370
    18
100
AcDbVertex
100
AcDb2dVertex
 10
111.0685004062607
 20
-222.6737466891232
 30
0.0
  0
VERTEX
  5
176
330
174
100
AcDbEntity
  8
Ebene 1
 62
   179
420
  1709851
370
    18
100
AcDbVertex
100
AcDb2dVertex
 10
118.0537760121532
 20
-222.6737466891232
 30
0.0
  0
SEQEND
  5
177
330
174
100
AcDbEntity
  8
Ebene 1
370
    18
  0
POLYLINE
  5
178
330
147
100
AcDbEntity
  8
Ebene 1
 62
   179
420
  1709851
370
    18
100
AcDb2dPolyline
 66
     1
 10
0.0
 20
0.0
 30
0.0
  0
VERTEX
  5
179
330
178
100
AcDbEntity
  8
Ebene 1
 62
   179
420
  1709851
370
    18
100
AcDbVertex
100
AcDb2dVertex
 10
109.0579426810689
 20
-222.6737466891232
 30
0.0
  0
VERTEX
  5
17A
330
178
100
AcDbEntity
  8
Ebene 1
 62
   179
420
  1709851
370
    18
100
AcDbVertex
100
AcDb2dVertex
 10
110.0525417476605
 20
-222.6737466891232
 30
0.0
  0
SEQEND
  5
17B
330
178
100
AcDbEntity
  8
Ebene 1
370
    18
  0
POLYLINE
  5
17C
330
147
100
AcDbEntity
  8
Ebene 1
 62
   179
420
  1709851
370
    18
100
AcDb2dPolyline
 66
     1
 10
0.0
 20
0.0
 30
0.0
  0
VERTEX
  5
17D
330
17C
100
AcDbEntity
  8
Ebene 1
 62
   179
420
  1709851
370
    18
100
AcDbVertex
100
AcDb2dVertex
 10
101.0567084165761
 20
-222.6737466891232
 30
0.0
  0
VERTEX
  5
17E
330
17C
100
AcDbEntity
  8
Ebene 1
 62
   179
420
  1709851
370
    18
100
AcDbVertex
100
AcDb2dVertex
 10
108.0629991049287
 20
-222.6737466891232
 30
0.0
  0
SEQEND
  5
17F
330
17C
100
AcDbEntity
  8
Ebene 1
370
    18
  0
POLYLINE
  5
180
330
147
100
AcDbEntity
  8
Ebene 1
 62
   179
420
  1709851
370
    18
100
AcDb2dPolyline
 66
     1
 10
0.0
 20
0.0
 30
0.0
  0
VERTEX
  5
181
330
180
100
AcDbEntity
  8
Ebene 1
 62
   179
420
  1709851
370
    18
100
AcDbVertex
100
AcDb2dVertex
 10
99.06699351907007
 20
-222.6737466891232
 30
0.0
  0
VERTEX
  5
182
330
180
100
AcDbEntity
  8
Ebene 1
 62
   179
420
  1709851
370
    18
100
AcDbVertex
100
AcDb2dVertex
 10
100.0619370952102
 20
-222.6737466891232
 30
0.0
  0
SEQEND
  5
183
330
180
100
AcDbEntity
  8
Ebene 1
370
    18
  0
POLYLINE
  5
184
330
147
100
AcDbEntity
  8
Ebene 1
 62
   179
420
  1709851
370
    18
100
AcDb2dPolyline
 66
     1
 10
0.0
 20
0.0
 30
0.0
  0
VERTEX
  5
185
330
184
100
AcDbEntity
  8
Ebene 1
 62
   179
420
  1709851
370
    18
100
AcDbVertex
100
AcDb2dVertex
 10
91.06610376412584
 20
-222.6737466891232
 30
0.0
  0
VERTEX
  5
186
330
184
100
AcDbEntity
  8
Ebene 1
 62
   179
420
  1709851
370
    18
100
AcDbVertex
100
AcDb2dVertex
 10
98.05103486046988
 20
-222.6737466891232
 30
0.0
  0
SEQEND
  5
187
330
184
100
AcDbEntity
  8
Ebene 1
370
    18
  0
POLYLINE
  5
188
330
147
100
AcDbEntity
  8
Ebene 1
 62
   179
420
  1709851
370
    18
100
AcDb2dPolyline
 66
     1
 10
0.0
 20
0.0
 30
0.0
  0
VERTEX
  5
189
330
188
100
AcDbEntity
  8
Ebene 1
 62
   179
420
  1709851
370
    18
100
AcDbVertex
100
AcDb2dVertex
 10
89.05520152938551
 20
-222.6737466891232
 30
0.0
  0
VERTEX
  5
18A
330
188
100
AcDbEntity
  8
Ebene 1
 62
   179
420
  1709851
370
    18
100
AcDbVertex
100
AcDb2dVertex
 10
90.07116018798568
 20
-222.6737466891232
 30
0.0
  0
SEQEND
  5
18B
330
188
100
AcDbEntity
  8
Ebene 1
370
    18
  0
POLYLINE
  5
18C
330
147
100
AcDbEntity
  8
Ebene 1
 62
   179
420
  1709851
370
    18
100
AcDb2dPolyline
 66
     1
 10
0.0
 20
0.0
 30
0.0
  0
VERTEX
  5
18D
330
18C
100
AcDbEntity
  8
Ebene 1
 62
   179
420
  1709851
370
    18
100
AcDbVertex
100
AcDb2dVertex
 10
81.05413951966702
 20
-222.6737466891232
 30
0.0
  0
VERTEX
  5
18E
330
18C
100
AcDbEntity
  8
Ebene 1
 62
   179
420
  1709851
370
    18
100
AcDbVertex
100
AcDb2dVertex
 10
88.06043020801962
 20
-222.6737466891232
 30
0.0
  0
SEQEND
  5
18F
330
18C
100
AcDbEntity
  8
Ebene 1
370
    18
  0
POLYLINE
  5
190
330
147
100
AcDbEntity
  8
Ebene 1
370
     0
100
AcDb2dPolyline
 66
     1
 10
0.0
 20
0.0
 30
0.0
  0
VERTEX
  5
191
330
190
100
AcDbEntity
  8
Ebene 1
370
     0
100
AcDbVertex
100
AcDb2dVertex
 10
65.26388887257292
 20
-222.9169704303819
 30
0.0
  0
VERTEX
  5
192
330
190
100
AcDbEntity
  8
Ebene 1
370
     0
100
AcDbVertex
100
AcDb2dVertex
 10
159.3921657587631
 20
-222.9169704303819
 30
0.0
  0
VERTEX
  5
193
330
190
100
AcDbEntity
  8
Ebene 1
370
     0
100
AcDbVertex
100
AcDb2dVertex
 10
159.3921657587631
 20
-77.81936711379169
 30
0.0
  0
VERTEX
  5
194
330
190
100
AcDbEntity
  8
Ebene 1
370
     0
100
AcDbVertex
100
AcDb2dVertex
 10
65.26388887257292
 20
-77.81936711379169
 30
0.0
  0
VERTEX
  5
195
330
190
100
AcDbEntity
  8
Ebene 1
370
     0
100
AcDbVertex
100
AcDb2dVertex
 10
65.26388887257292
 20
-222.9169704303819
 30
0.0
  0
SEQEND
  5
196
330
190
100
AcDbEntity
  8
Ebene 1
370
     0
  0
ENDBLK
  5
14A
330
147
100
AcDbEntity
  8
0
100
AcDbBlockEnd
  0
BLOCK
  5
1A9
330
1A7
100
AcDbEntity
  8
0
100
AcDbBlockBegin
  2
block 4
 70
     0
 71
     0
 10
0.0
 20
0.0
 30
0.0
  3
block 4
  1

  0
POLYLINE
  5
1AB
330
1A7
100
AcDbEntity
  8
Ebene 1
 62
   179
420
  1709851
370
    50
100
AcDb2dPolyline
 66
     1
 10
0.0
 20
0.0
 30
0.0
  0
VERTEX
  5
1AC
330
1AB
100
AcDbEntity
  8
Ebene 1
 62
   179
420
  1709851
370
    50
100
AcDbVertex
100
AcDb2dVertex
 10
155.3069715323538
 20
-222.6737466891232
 30
0.0
  0
VERTEX
  5
1AD
330
1AB
100
AcDbEntity
  8
Ebene 1
 62
   179
420
  1709851
370
    50
100
AcDbVertex
100
AcDb2dVertex
 10
155.3069715323538
 20
-78.06259085505033
 30
0.0
  0
SEQEND
  5
1AE
330
1AB
100
AcDbEntity
  8
Ebene 1
370
    50
  0
POLYLINE
  5
1AF
330
1A7
100
AcDbEntity
  8
Ebene 1
 62
   179
420
  1709851
370
    50
100
AcDb2dPolyline
 66
     1
 10
0.0
 20
0.0
 30
0.0
  0
VERTEX
  5
1B0
330
1AF
100
AcDbEntity
  8
Ebene 1
 62
   179
420
  1709851
370
    50
100
AcDbVertex
100
AcDb2dVertex
 10
95.29943709640084
 20
-222.6737466891232
 30
0.0
  0
VERTEX
  5
1B1
330
1AF
100
AcDbEntity
  8
Ebene 1
 62
   179
420
  1709851
370
    50
100
AcDbVertex
100
AcDb2dVertex
 10
95.29943709640084
 20
-78.06259085505033
 30
0.0
  0
SEQEND
  5
1B2
330
1AF
100
AcDbEntity
  8
Ebene 1
370
    50
  0
POLYLINE
  5
1B3
330
1A7
100
AcDbEntity
  8
Ebene 1
370
     0
100
AcDb2dPolyline
 66
     1
 10
0.0
 20
0.0
 30
0.0
  0
VERTEX
  5
1B4
330
1B3
100
AcDbEntity
  8
Ebene 1
370
     0
100
AcDbVertex
100
AcDb2dVertex
 10
65.26388887257292
 20
-222.9169704303819
 30
0.0
  0
VERTEX
  5
1B5
330
1B3
100
AcDbEntity
  8
Ebene 1
370
     0
100
AcDbVertex
100
AcDb2dVertex
 10
159.3921657587631
 20
-222.9169704303819
 30
0.0
  0
VERTEX
  5
1B6
330
1B3
100
AcDbEntity
  8
Ebene 1
370
     0
100
AcDbVertex
100
AcDb2dVertex
 10
159.3921657587631
 20
-77.81936711379169
 30
0.0
  0
VERTEX
  5
1B7
330
1B3
100
AcDbEntity
  8
Ebene 1
370
     0
100
AcDbVertex
100
AcDb2dVertex
 10
65.26388887257292
 20
-77.81936711379169
 30
0.0
  0
VERTEX
  5
1B8
330
1B3
100
AcDbEntity
  8
Ebene 1
370
     0
100
AcDbVertex
100
AcDb2dVertex
 10
65.26388887257292
 20
-222.9169704303819
 30
0.0
  0
SEQEND
  5
1B9
330
1B3
100
AcDbEntity
  8
Ebene 1
370
     0
  0
ENDBLK
  5
1AA
330
1A7
100
AcDbEntity
  8
0
100
AcDbBlockEnd
  0
BLOCK
  5
1D9
330
1D7
100
AcDbEntity
  8
0
100
AcDbBlockBegin
  2
block 5
 70
     0
 71
     0
 10
0.0
 20
0.0
 30
0.0
  3
block 5
  1

  0
POLYLINE
  5
1DB
330
1D7
100
AcDbEntity
  8
Ebene 1
 62
   179
420
  1709851
370
    18
100
AcDb2dPolyline
 66
     1
 10
0.0
 20
0.0
 30
0.0
  0
VERTEX
  5
1DC
330
1DB
100
AcDbEntity
  8
Ebene 1
 62
   179
420
  1709851
370
    18
100
AcDbVertex
100
AcDb2dVertex
 10
159.0531683630145
 20
-78.06259085505033
 30
0.0
  0
VERTEX
  5
1DD
330
1DB
100
AcDbEntity
  8
Ebene 1
 62
   179
420
  1709851
370
    18
100
AcDbVertex
100
AcDb2dVertex
 10
159.3074164098259
 20
-78.06259085505033
 30
0.0
  0
SEQEND
  5
1DE
330
1DB
100
AcDbEntity
  8
Ebene 1
370
    18
  0
POLYLINE
  5
1DF
330
1D7
100
AcDbEntity
  8
Ebene 1
 62
   179
420
  1709851
370
    18
100
AcDb2dPolyline
 66
     1
 10
0.0
 20
0.0
 30
0.0
  0
VERTEX
  5
1E0
330
1DF
100
AcDbEntity
  8
Ebene 1
 62
   179
420
  1709851
370
    18
100
AcDbVertex
100
AcDb2dVertex
 10
151.0522786080703
 20
-78.06259085505033
 30
0.0
  0
VERTEX
  5
1E1
330
1DF
100
AcDbEntity
  8
Ebene 1
 62
   179
420
  1709851
370
    18
100
AcDbVertex
100
AcDb2dVertex
 10
158.0585692964229
 20
-78.06259085505033
 30
0.0
  0
SEQEND
  5
1E2
330
1DF
100
AcDbEntity
  8
Ebene 1
370
    18
  0
POLYLINE
  5
1E3
330
1D7
100
AcDbEntity
  8
Ebene 1
 62
   179
420
  1709851
370
    18
100
AcDb2dPolyline
 66
     1
 10
0.0
 20
0.0
 30
0.0
  0
VERTEX
  5
1E4
330
1E3
100
AcDbEntity
  8
Ebene 1
 62
   179
420
  1709851
370
    18
100
AcDbVertex
100
AcDb2dVertex
 10
149.0627359653385
 20
-78.06259085505033
 30
0.0
  0
VERTEX
  5
1E5
330
1E3
100
AcDbEntity
  8
Ebene 1
 62
   179
420
  1709851
370
    18
100
AcDbVertex
100
AcDb2dVertex
 10
150.0573350319301
 20
-78.06259085505033
 30
0.0
  0
SEQEND
  5
1E6
330
1E3
100
AcDbEntity
  8
Ebene 1
370
    18
  0
POLYLINE
  5
1E7
330
1D7
100
AcDbEntity
  8
Ebene 1
 62
   179
420
  1709851
370
    18
100
AcDb2dPolyline
 66
     1
 10
0.0
 20
0.0
 30
0.0
  0
VERTEX
  5
1E8
330
1E7
100
AcDbEntity
  8
Ebene 1
 62
   179
420
  1709851
370
    18
100
AcDbVertex
100
AcDb2dVertex
 10
141.0615017008458
 20
-78.06259085505033
 30
0.0
  0
VERTEX
  5
1E9
330
1E7
100
AcDbEntity
  8
Ebene 1
 62
   179
420
  1709851
370
    18
100
AcDbVertex
100
AcDb2dVertex
 10
148.0467773067383
 20
-78.06259085505033
 30
0.0
  0
SEQEND
  5
1EA
330
1E7
100
AcDbEntity
  8
Ebene 1
370
    18
  0
POLYLINE
  5
1EB
330
1D7
100
AcDbEntity
  8
Ebene 1
 62
   179
420
  1709851
370
    18
100
AcDb2dPolyline
 66
     1
 10
0.0
 20
0.0
 30
0.0
  0
VERTEX
  5
1EC
330
1EB
100
AcDbEntity
  8
Ebene 1
 62
   179
420
  1709851
370
    18
100
AcDbVertex
100
AcDb2dVertex
 10
139.050943975654
 20
-78.06259085505033
 30
0.0
  0
VERTEX
  5
1ED
330
1EB
100
AcDbEntity
  8
Ebene 1
 62
   179
420
  1709851
370
    18
100
AcDbVertex
100
AcDb2dVertex
 10
140.0669026342541
 20
-78.06259085505033
 30
0.0
  0
SEQEND
  5
1EE
330
1EB
100
AcDbEntity
  8
Ebene 1
370
    18
  0
POLYLINE
  5
1EF
330
1D7
100
AcDbEntity
  8
Ebene 1
 62
   179
420
  1709851
370
    18
100
AcDb2dPolyline
 66
     1
 10
0.0
 20
0.0
 30
0.0
  0
VERTEX
  5
1F0
330
1EF
100
AcDbEntity
  8
Ebene 1
 62
   179
420
  1709851
370
    18
100
AcDbVertex
100
AcDb2dVertex
 10
131.0500542207097
 20
-78.06259085505033
 30
0.0
  0
VERTEX
  5
1F1
330
1EF
100
AcDbEntity
  8
Ebene 1
 62
   179
420
  1709851
370
    18
100
AcDbVertex
100
AcDb2dVertex
 10
138.0560003995138
 20
-78.06259085505033
 30
0.0
  0
SEQEND
  5
1F2
330
1EF
100
AcDbEntity
  8
Ebene 1
370
    18
  0
POLYLINE
  5
1F3
330
1D7
100
AcDbEntity
  8
Ebene 1
 62
   179
420
  1709851
370
    18
100
AcDb2dPolyline
 66
     1
 10
0.0
 20
0.0
 30
0.0
  0
VERTEX
  5
1F4
330
1F3
100
AcDbEntity
  8
Ebene 1
 62
   179
420
  1709851
370
    18
100
AcDbVertex
100
AcDb2dVertex
 10
129.0601670684294
 20
-78.06259085505033
 30
0.0
  0
VERTEX
  5
1F5
330
1F3
100
AcDbEntity
  8
Ebene 1
 62
   179
420
  1709851
370
    18
100
AcDbVertex
100
AcDb2dVertex
 10
130.0551106445696
 20
-78.06259085505033
 30
0.0
  0
SEQEND
  5
1F6
330
1F3
100
AcDbEntity
  8
Ebene 1
370
    18
  0
POLYLINE
  5
1F7
330
1D7
100
AcDbEntity
  8
Ebene 1
 62
   179
420
  1709851
370
    18
100
AcDb2dPolyline
 66
     1
 10
0.0
 20
0.0
 30
0.0
  0
VERTEX
  5
1F8
330
1F7
100
AcDbEntity
  8
Ebene 1
 62
   179
420
  1709851
370
    18
100
AcDbVertex
100
AcDb2dVertex
 10
121.0592773134852
 20
-78.06259085505033
 30
0.0
  0
VERTEX
  5
1F9
330
1F7
100
AcDbEntity
  8
Ebene 1
 62
   179
420
  1709851
370
    18
100
AcDbVertex
100
AcDb2dVertex
 10
128.0652234922892
 20
-78.06259085505033
 30
0.0
  0
SEQEND
  5
1FA
330
1F7
100
AcDbEntity
  8
Ebene 1
370
    18
  0
POLYLINE
  5
1FB
330
1D7
100
AcDbEntity
  8
Ebene 1
 62
   179
420
  1709851
370
    18
100
AcDb2dPolyline
 66
     1
 10
0.0
 20
0.0
 30
0.0
  0
VERTEX
  5
1FC
330
1FB
100
AcDbEntity
  8
Ebene 1
 62
   179
420
  1709851
370
    18
100
AcDbVertex
100
AcDb2dVertex
 10
119.0693901612049
 20
-78.06259085505033
 30
0.0
  0
VERTEX
  5
1FD
330
1FB
100
AcDbEntity
  8
Ebene 1
 62
   179
420
  1709851
370
    18
100
AcDbVertex
100
AcDb2dVertex
 10
120.064333737345
 20
-78.06259085505033
 30
0.0
  0
SEQEND
  5
1FE
330
1FB
100
AcDbEntity
  8
Ebene 1
370
    18
  0
POLYLINE
  5
1FF
330
1D7
100
AcDbEntity
  8
Ebene 1
 62
   179
420
  1709851
370
    18
100
AcDb2dPolyline
 66
     1
 10
0.0
 20
0.0
 30
0.0
  0
VERTEX
  5
200
330
1FF
100
AcDbEntity
  8
Ebene 1
 62
   179
420
  1709851
370
    18
100
AcDbVertex
100
AcDb2dVertex
 10
111.0685004062607
 20
-78.06259085505033
 30
0.0
  0
VERTEX
  5
201
330
1FF
100
AcDbEntity
  8
Ebene 1
 62
   179
420
  1709851
370
    18
100
AcDbVertex
100
AcDb2dVertex
 10
118.0537760121532
 20
-78.06259085505033
 30
0.0
  0
SEQEND
  5
202
330
1FF
100
AcDbEntity
  8
Ebene 1
370
    18
  0
POLYLINE
  5
203
330
1D7
100
AcDbEntity
  8
Ebene 1
 62
   179
420
  1709851
370
    18
100
AcDb2dPolyline
 66
     1
 10
0.0
 20
0.0
 30
0.0
  0
VERTEX
  5
204
330
203
100
AcDbEntity
  8
Ebene 1
 62
   179
420
  1709851
370
    18
100
AcDbVertex
100
AcDb2dVertex
 10
109.0579426810689
 20
-78.06259085505033
 30
0.0
  0
VERTEX
  5
205
330
203
100
AcDbEntity
  8
Ebene 1
 62
   179
420
  1709851
370
    18
100
AcDbVertex
100
AcDb2dVertex
 10
110.0525417476605
 20
-78.06259085505033
 30
0.0
  0
SEQEND
  5
206
330
203
100
AcDbEntity
  8
Ebene 1
370
    18
  0
POLYLINE
  5
207
330
1D7
100
AcDbEntity
  8
Ebene 1
 62
   179
420
  1709851
370
    18
100
AcDb2dPolyline
 66
     1
 10
0.0
 20
0.0
 30
0.0
  0
VERTEX
  5
208
330
207
100
AcDbEntity
  8
Ebene 1
 62
   179
420
  1709851
370
    18
100
AcDbVertex
100
AcDb2dVertex
 10
101.0567084165761
 20
-78.06259085505033
 30
0.0
  0
VERTEX
  5
209
330
207
100
AcDbEntity
  8
Ebene 1
 62
   179
420
  1709851
370
    18
100
AcDbVertex
100
AcDb2dVertex
 10
108.0629991049287
 20
-78.06259085505033
 30
0.0
  0
SEQEND
  5
20A
330
207
100
AcDbEntity
  8
Ebene 1
370
    18
  0
POLYLINE
  5
20B
330
1D7
100
AcDbEntity
  8
Ebene 1
 62
   179
420
  1709851
370
    18
100
AcDb2dPolyline
 66
     1
 10
0.0
 20
0.0
 30
0.0
  0
VERTEX
  5
20C
330
20B
100
AcDbEntity
  8
Ebene 1
 62
   179
420
  1709851
370
    18
100
AcDbVertex
100
AcDb2dVertex
 10
99.06699351907007
 20
-78.06259085505033
 30
0.0
  0
VERTEX
  5
20D
330
20B
100
AcDbEntity
  8
Ebene 1
 62
   179
420
  1709851
370
    18
100
AcDbVertex
100
AcDb2dVertex
 10
100.0619370952102
 20
-78.06259085505033
 30
0.0
  0
SEQEND
  5
20E
330
20B
100
AcDbEntity
  8
Ebene 1
370
    18
  0
POLYLINE
  5
20F
330
1D7
100
AcDbEntity
  8
Ebene 1
 62
   179
420
  1709851
370
    18
100
AcDb2dPolyline
 66
     1
 10
0.0
 20
0.0
 30
0.0
  0
VERTEX
  5
210
330
20F
100
AcDbEntity
  8
Ebene 1
 62
   179
420
  1709851
370
    18
100
AcDbVertex
100
AcDb2dVertex
 10
91.06610376412584
 20
-78.06259085505033
 30
0.0
  0
VERTEX
  5
211
330
20F
100
AcDbEntity
  8
Ebene 1
 62
   179
420
  1709851
370
    18
100
AcDbVertex
100
AcDb2dVertex
 10
98.05103486046988
 20
-78.06259085505033
 30
0.0
  0
SEQEND
  5
212
330
20F
100
AcDbEntity
  8
Ebene 1
370
    18
  0
POLYLINE
  5
213
330
1D7
100
AcDbEntity
  8
Ebene 1
 62
   179
420
  1709851
370
    18
100
AcDb2dPolyline
 66
     1
 10
0.0
 20
0.0
 30
0.0
  0
VERTEX
  5
214
330
213
100
AcDbEntity
  8
Ebene 1
 62
   179
420
  1709851
370
    18
100
AcDbVertex
100
AcDb2dVertex
 10
89.05520152938551
 20
-78.06259085505033
 30
0.0
  0
VERTEX
  5
215
330
213
100
AcDbEntity
  8
Ebene 1
 62
   179
420
  1709851
370
    18
100
AcDbVertex
100
AcDb2dVertex
 10
90.07116018798568
 20
-78.06259085505033
 30
0.0
  0
SEQEND
  5
216
330
213
100
AcDbEntity
  8
Ebene 1
370
    18
  0
POLYLINE
  5
217
330
1D7
100
AcDbEntity
  8
Ebene 1
 62
   179
420
  1709851
370
    18
100
AcDb2dPolyline
 66
     1
 10
0.0
 20
0.0
 30
0.0
  0
VERTEX
  5
218
330
217
100
AcDbEntity
  8
Ebene 1
 62
   179
420
  1709851
370
    18
100
AcDbVertex
100
AcDb2dVertex
 10
81.05413951966702
 20
-78.06259085505033
 30
0.0
  0
VERTEX
  5
219
330
217
100
AcDbEntity
  8
Ebene 1
 62
   179
420
  1709851
370
    18
100
AcDbVertex
100
AcDb2dVertex
 10
88.06043020801962
 20
-78.06259085505033
 30
0.0
  0
SEQEND
  5
21A
330
217
100
AcDbEntity
  8
Ebene 1
370
    18
  0
POLYLINE
  5
21B
330
1D7
100
AcDbEntity
  8
Ebene 1
 62
   179
420
  1709851
370
    18
100
AcDb2dPolyline
 66
     1
 10
0.0
 20
0.0
 30
0.0
  0
VERTEX
  5
21C
330
21B
100
AcDbEntity
  8
Ebene 1
 62
   179
420
  1709851
370
    18
100
AcDbVertex
100
AcDb2dVertex
 10
79.06459687693524
 20
-78.06259085505033
 30
0.0
  0
VERTEX
  5
21D
330
21B
100
AcDbEntity
  8
Ebene 1
 62
   179
420
  1709851
370
    18
100
AcDbVertex
100
AcDb2dVertex
 10
80.05936819830113
 20
-78.06259085505033
 30
0.0
  0
SEQEND
  5
21E
330
21B
100
AcDbEntity
  8
Ebene 1
370
    18
  0
POLYLINE
  5
21F
330
1D7
100
AcDbEntity
  8
Ebene 1
 62
   179
420
  1709851
370
    18
100
AcDb2dPolyline
 66
     1
 10
0.0
 20
0.0
 30
0.0
  0
VERTEX
  5
220
330
21F
100
AcDbEntity
  8
Ebene 1
 62
   179
420
  1709851
370
    18
100
AcDbVertex
100
AcDb2dVertex
 10
71.06353486721676
 20
-78.06259085505033
 30
0.0
  0
VERTEX
  5
221
330
21F
100
AcDbEntity
  8
Ebene 1
 62
   179
420
  1709851
370
    18
100
AcDbVertex
100
AcDb2dVertex
 10
78.0696533007951
 20
-78.06259085505033
 30
0.0
  0
SEQEND
  5
222
330
21F
100
AcDbEntity
  8
Ebene 1
370
    18
  0
POLYLINE
  5
223
330
1D7
100
AcDbEntity
  8
Ebene 1
 62
   179
420
  1709851
370
    18
100
AcDb2dPolyline
 66
     1
 10
0.0
 20
0.0
 30
0.0
  0
VERTEX
  5
224
330
223
100
AcDbEntity
  8
Ebene 1
 62
   179
420
  1709851
370
    18
100
AcDbVertex
100
AcDb2dVertex
 10
69.07381996971071
 20
-78.06259085505033
 30
0.0
  0
VERTEX
  5
225
330
223
100
AcDbEntity
  8
Ebene 1
 62
   179
420
  1709851
370
    18
100
AcDbVertex
100
AcDb2dVertex
 10
70.06876354585087
 20
-78.06259085505033
 30
0.0
  0
SEQEND
  5
226
330
223
100
AcDbEntity
  8
Ebene 1
370
    18
  0
POLYLINE
  5
227
330
1D7
100
AcDbEntity
  8
Ebene 1
 62
   179
420
  1709851
370
    18
100
AcDb2dPolyline
 66
     1
 10
0.0
 20
0.0
 30
0.0
  0
VERTEX
  5
228
330
227
100
AcDbEntity
  8
Ebene 1
 62
   179
420
  1709851
370
    18
100
AcDbVertex
100
AcDb2dVertex
 10
65.34863822151007
 20
-78.06259085505033
 30
0.0
  0
VERTEX
  5
229
330
227
100
AcDbEntity
  8
Ebene 1
 62
   179
420
  1709851
370
    18
100
AcDbVertex
100
AcDb2dVertex
 10
68.05786131111054
 20
-78.06259085505033
 30
0.0
  0
SEQEND
  5
22A
330
227
100
AcDbEntity
  8
Ebene 1
370
    18
  0
POLYLINE
  5
22B
330
1D7
100
AcDbEntity
  8
Ebene 1
 62
   179
420
  1709851
370
    18
100
AcDb2dPolyline
 66
     1
 10
0.0
 20
0.0
 30
0.0
  0
VERTEX
  5
22C
330
22B
100
AcDbEntity
  8
Ebene 1
 62
   179
420
  1709851
370
    18
100
AcDbVertex
100
AcDb2dVertex
 10
79.29731307696387
 20
-177.5884710927557
 30
0.0
  0
VERTEX
  5
22D
330
22B
100
AcDbEntity
  8
Ebene 1
 62
   179
420
  1709851
370
    18
100
AcDbVertex
100
AcDb2dVertex
 10
78.02745088110078
 20
-177.5884710927557
 30
0.0
  0
SEQEND
  5
22E
330
22B
100
AcDbEntity
  8
Ebene 1
370
    18
  0
POLYLINE
  5
22F
330
1D7
100
AcDbEntity
  8
Ebene 1
 62
   179
420
  1709851
370
    18
100
AcDb2dPolyline
 66
     1
 10
0.0
 20
0.0
 30
0.0
  0
VERTEX
  5
230
330
22F
100
AcDbEntity
  8
Ebene 1
 62
   179
420
  1709851
370
    18
100
AcDbVertex
100
AcDb2dVertex
 10
75.02177732499456
 20
-177.5884710927557
 30
0.0
  0
VERTEX
  5
231
330
22F
100
AcDbEntity
  8
Ebene 1
 62
   179
420
  1709851
370
    18
100
AcDbVertex
100
AcDb2dVertex
 10
71.84677732578831
 20
-177.5884710927557
 30
0.0
  0
SEQEND
  5
232
330
22F
100
AcDbEntity
  8
Ebene 1
370
    18
  0
POLYLINE
  5
233
330
1D7
100
AcDbEntity
  8
Ebene 1
 62
   179
420
  1709851
370
    18
100
AcDb2dPolyline
 66
     1
 10
0.0
 20
0.0
 30
0.0
  0
VERTEX
  5
234
330
233
100
AcDbEntity
  8
Ebene 1
 62
   179
420
  1709851
370
    18
100
AcDbVertex
100
AcDb2dVertex
 10
76.52452797566053
 20
-179.2820800333045
 30
0.0
  0
VERTEX
  5
235
330
233
100
AcDbEntity
  8
Ebene 1
 62
   179
420
  1709851
370
    18
100
AcDbVertex
100
AcDb2dVertex
 10
76.52452797566053
 20
-176.5094671867754
 30
0.0
  0
SEQEND
  5
236
330
233
100
AcDbEntity
  8
Ebene 1
370
    18
  0
POLYLINE
  5
237
330
1D7
100
AcDbEntity
  8
Ebene 1
 62
   179
420
  1709851
370
    18
100
AcDb2dPolyline
 66
     1
 10
0.0
 20
0.0
 30
0.0
  0
VERTEX
  5
238
330
237
100
AcDbEntity
  8
Ebene 1
 62
   179
420
  1709851
370
    18
100
AcDbVertex
100
AcDb2dVertex
 10
78.02745088110078
 20
-177.3135524730327
 30
0.0
  0
VERTEX
  5
239
330
237
100
AcDbEntity
  8
Ebene 1
 62
   179
420
  1709851
370
    18
100
AcDbVertex
100
AcDb2dVertex
 10
75.02177732499456
 20
-177.3135524730327
 30
0.0
  0
SEQEND
  5
23A
330
237
100
AcDbEntity
  8
Ebene 1
370
    18
  0
POLYLINE
  5
23B
330
1D7
100
AcDbEntity
  8
Ebene 1
 62
   179
420
  1709851
370
    18
100
AcDb2dPolyline
 66
     1
 10
0.0
 20
0.0
 30
0.0
  0
VERTEX
  5
23C
330
23B
100
AcDbEntity
  8
Ebene 1
 62
   179
420
  1709851
370
    18
100
AcDbVertex
100
AcDb2dVertex
 10
78.02745088110078
 20
-177.9267794694072
 30
0.0
  0
VERTEX
  5
23D
330
23B
100
AcDbEntity
  8
Ebene 1
 62
   179
420
  1709851
370
    18
100
AcDbVertex
100
AcDb2dVertex
 10
78.02745088110078
 20
-172.9107204428834
 30
0.0
  0
VERTEX
  5
23E
330
23B
100
AcDbEntity
  8
Ebene 1
 62
   179
420
  1709851
370
    18
100
AcDbVertex
100
AcDb2dVertex
 10
75.02177732499456
 20
-172.9107204428834
 30
0.0
  0
SEQEND
  5
23F
330
23B
100
AcDbEntity
  8
Ebene 1
370
    18
  0
POLYLINE
  5
240
330
1D7
100
AcDbEntity
  8
Ebene 1
 62
   179
420
  1709851
370
    18
100
AcDb2dPolyline
 66
     1
 10
0.0
 20
0.0
 30
0.0
  0
VERTEX
  5
241
330
240
100
AcDbEntity
  8
Ebene 1
 62
   179
420
  1709851
370
    18
100
AcDbVertex
100
AcDb2dVertex
 10
76.52452797566053
 20
-175.2175563798067
 30
0.0
  0
VERTEX
  5
242
330
240
100
AcDbEntity
  8
Ebene 1
 62
   179
420
  1709851
370
    18
100
AcDbVertex
100
AcDb2dVertex
 10
76.69385441876057
 20
-175.1755262148867
 30
0.0
  0
VERTEX
  5
243
330
240
100
AcDbEntity
  8
Ebene 1
 62
   179
420
  1709851
370
    18
100
AcDbVertex
100
AcDb2dVertex
 10
76.799791104932
 20
-175.069417273941
 30
0.0
  0
VERTEX
  5
244
330
240
100
AcDbEntity
  8
Ebene 1
 62
   179
420
  1709851
370
    18
100
AcDbVertex
100
AcDb2dVertex
 10
76.82080618739202
 20
-174.9219671871723
 30
0.0
  0
VERTEX
  5
245
330
240
100
AcDbEntity
  8
Ebene 1
 62
   179
420
  1709851
370
    18
100
AcDbVertex
100
AcDb2dVertex
 10
76.77860376769772
 20
-174.7517794702009
 30
0.0
  0
VERTEX
  5
246
330
240
100
AcDbEntity
  8
Ebene 1
 62
   179
420
  1709851
370
    18
100
AcDbVertex
100
AcDb2dVertex
 10
76.67266708152628
 20
-174.6463595483523
 30
0.0
  0
VERTEX
  5
247
330
240
100
AcDbEntity
  8
Ebene 1
 62
   179
420
  1709851
370
    18
100
AcDbVertex
100
AcDb2dVertex
 10
76.52452797566053
 20
-174.6249999563438
 30
0.0
  0
SEQEND
  5
248
330
240
100
AcDbEntity
  8
Ebene 1
370
    18
  0
POLYLINE
  5
249
330
1D7
100
AcDbEntity
  8
Ebene 1
 62
   179
420
  1709851
370
    18
100
AcDb2dPolyline
 66
     1
 10
0.0
 20
0.0
 30
0.0
  0
VERTEX
  5
24A
330
249
100
AcDbEntity
  8
Ebene 1
 62
   179
420
  1709851
370
    18
100
AcDbVertex
100
AcDb2dVertex
 10
76.52452797566053
 20
-175.7260524734296
 30
0.0
  0
VERTEX
  5
24B
330
249
100
AcDbEntity
  8
Ebene 1
 62
   179
420
  1709851
370
    18
100
AcDbVertex
100
AcDb2dVertex
 10
76.77860376769772
 20
-175.6833332894125
 30
0.0
  0
VERTEX
  5
24C
330
249
100
AcDbEntity
  8
Ebene 1
 62
   179
420
  1709851
370
    18
100
AcDbVertex
100
AcDb2dVertex
 10
77.01131996772634
 20
-175.5565537755553
 30
0.0
  0
VERTEX
  5
24D
330
249
100
AcDbEntity
  8
Ebene 1
 62
   179
420
  1709851
370
    18
100
AcDbVertex
100
AcDb2dVertex
 10
77.20183374806065
 20
-175.3656954856725
 30
0.0
  0
VERTEX
  5
24E
330
249
100
AcDbEntity
  8
Ebene 1
 62
   179
420
  1709851
370
    18
100
AcDbVertex
100
AcDb2dVertex
 10
77.30777043423208
 20
-175.1328070308696
 30
0.0
  0
VERTEX
  5
24F
330
249
100
AcDbEntity
  8
Ebene 1
 62
   179
420
  1709851
370
    18
100
AcDbVertex
100
AcDb2dVertex
 10
77.32895777146638
 20
-174.8792480031552
 30
0.0
  0
VERTEX
  5
250
330
249
100
AcDbEntity
  8
Ebene 1
 62
   179
420
  1709851
370
    18
100
AcDbVertex
100
AcDb2dVertex
 10
77.26539575976352
 20
-174.6249999563438
 30
0.0
  0
VERTEX
  5
251
330
249
100
AcDbEntity
  8
Ebene 1
 62
   179
420
  1709851
370
    18
100
AcDbVertex
100
AcDb2dVertex
 10
77.13844399113206
 20
-174.3928005206379
 30
0.0
  0
VERTEX
  5
252
330
249
100
AcDbEntity
  8
Ebene 1
 62
   179
420
  1709851
370
    18
100
AcDbVertex
100
AcDb2dVertex
 10
76.94793021079774
 20
-174.2226128036666
 30
0.0
  0
VERTEX
  5
253
330
249
100
AcDbEntity
  8
Ebene 1
 62
   179
420
  1709851
370
    18
100
AcDbVertex
100
AcDb2dVertex
 10
76.69385441876057
 20
-174.1385524738265
 30
0.0
  0
VERTEX
  5
254
330
249
100
AcDbEntity
  8
Ebene 1
 62
   179
420
  1709851
370
    18
100
AcDbVertex
100
AcDb2dVertex
 10
76.52452797566053
 20
-174.1171928818179
 30
0.0
  0
SEQEND
  5
255
330
249
100
AcDbEntity
  8
Ebene 1
370
    18
  0
POLYLINE
  5
256
330
1D7
100
AcDbEntity
  8
Ebene 1
 62
   179
420
  1709851
370
    18
100
AcDb2dPolyline
 66
     1
 10
0.0
 20
0.0
 30
0.0
  0
VERTEX
  5
257
330
256
100
AcDbEntity
  8
Ebene 1
 62
   179
420
  1709851
370
    18
100
AcDbVertex
100
AcDb2dVertex
 10
76.52452797566053
 20
-174.6249999563438
 30
0.0
  0
VERTEX
  5
258
330
256
100
AcDbEntity
  8
Ebene 1
 62
   179
420
  1709851
370
    18
100
AcDbVertex
100
AcDb2dVertex
 10
76.3763888697948
 20
-174.6677191403608
 30
0.0
  0
VERTEX
  5
259
330
256
100
AcDbEntity
  8
Ebene 1
 62
   179
420
  1709851
370
    18
100
AcDbVertex
100
AcDb2dVertex
 10
76.27062443839762
 20
-174.7738280813066
 30
0.0
  0
VERTEX
  5
25A
330
256
100
AcDbEntity
  8
Ebene 1
 62
   179
420
  1709851
370
    18
100
AcDbVertex
100
AcDb2dVertex
 10
76.22824976392906
 20
-174.9219671871723
 30
0.0
  0
VERTEX
  5
25B
330
256
100
AcDbEntity
  8
Ebene 1
 62
   179
420
  1709851
370
    18
100
AcDbVertex
100
AcDb2dVertex
 10
76.27062443839762
 20
-175.069417273941
 30
0.0
  0
VERTEX
  5
25C
330
256
100
AcDbEntity
  8
Ebene 1
 62
   179
420
  1709851
370
    18
100
AcDbVertex
100
AcDb2dVertex
 10
76.39757620702908
 20
-175.1755262148867
 30
0.0
  0
VERTEX
  5
25D
330
256
100
AcDbEntity
  8
Ebene 1
 62
   179
420
  1709851
370
    18
100
AcDbVertex
100
AcDb2dVertex
 10
76.52452797566053
 20
-175.2175563798067
 30
0.0
  0
SEQEND
  5
25E
330
256
100
AcDbEntity
  8
Ebene 1
370
    18
  0
POLYLINE
  5
25F
330
1D7
100
AcDbEntity
  8
Ebene 1
 62
   179
420
  1709851
370
    18
100
AcDb2dPolyline
 66
     1
 10
0.0
 20
0.0
 30
0.0
  0
VERTEX
  5
260
330
25F
100
AcDbEntity
  8
Ebene 1
 62
   179
420
  1709851
370
    18
100
AcDbVertex
100
AcDb2dVertex
 10
76.52452797566053
 20
-174.1171928818179
 30
0.0
  0
VERTEX
  5
261
330
25F
100
AcDbEntity
  8
Ebene 1
 62
   179
420
  1709851
370
    18
100
AcDbVertex
100
AcDb2dVertex
 10
76.27062443839762
 20
-174.159223046738
 30
0.0
  0
VERTEX
  5
262
330
25F
100
AcDbEntity
  8
Ebene 1
 62
   179
420
  1709851
370
    18
100
AcDbVertex
100
AcDb2dVertex
 10
76.03773598359474
 20
-174.2866915796922
 30
0.0
  0
VERTEX
  5
263
330
25F
100
AcDbEntity
  8
Ebene 1
 62
   179
420
  1709851
370
    18
100
AcDbVertex
100
AcDb2dVertex
 10
75.86840954049471
 20
-174.476860850478
 30
0.0
  0
VERTEX
  5
264
330
25F
100
AcDbEntity
  8
Ebene 1
 62
   179
420
  1709851
370
    18
100
AcDbVertex
100
AcDb2dVertex
 10
75.76247285432328
 20
-174.7097493052809
 30
0.0
  0
VERTEX
  5
265
330
25F
100
AcDbEntity
  8
Ebene 1
 62
   179
420
  1709851
370
    18
100
AcDbVertex
100
AcDb2dVertex
 10
75.74145777186325
 20
-174.9639973520923
 30
0.0
  0
VERTEX
  5
266
330
25F
100
AcDbEntity
  8
Ebene 1
 62
   179
420
  1709851
370
    18
100
AcDbVertex
100
AcDb2dVertex
 10
75.78366019155756
 20
-175.2175563798067
 30
0.0
  0
VERTEX
  5
267
330
25F
100
AcDbEntity
  8
Ebene 1
 62
   179
420
  1709851
370
    18
100
AcDbVertex
100
AcDb2dVertex
 10
75.93197155219757
 20
-175.4511338537067
 30
0.0
  0
VERTEX
  5
268
330
25F
100
AcDbEntity
  8
Ebene 1
 62
   179
420
  1709851
370
    18
100
AcDbVertex
100
AcDb2dVertex
 10
76.12231307775762
 20
-175.5985839404754
 30
0.0
  0
VERTEX
  5
269
330
25F
100
AcDbEntity
  8
Ebene 1
 62
   179
420
  1709851
370
    18
100
AcDbVertex
100
AcDb2dVertex
 10
76.35520153256051
 20
-175.7046928814211
 30
0.0
  0
VERTEX
  5
26A
330
25F
100
AcDbEntity
  8
Ebene 1
 62
   179
420
  1709851
370
    18
100
AcDbVertex
100
AcDb2dVertex
 10
76.52452797566053
 20
-175.7260524734296
 30
0.0
  0
SEQEND
  5
26B
330
25F
100
AcDbEntity
  8
Ebene 1
370
    18
  0
POLYLINE
  5
26C
330
1D7
100
AcDbEntity
  8
Ebene 1
 62
   179
420
  1709851
370
    18
100
AcDb2dPolyline
 66
     1
 10
0.0
 20
0.0
 30
0.0
  0
VERTEX
  5
26D
330
26C
100
AcDbEntity
  8
Ebene 1
 62
   179
420
  1709851
370
    18
100
AcDbVertex
100
AcDb2dVertex
 10
75.02177732499456
 20
-177.9267794694072
 30
0.0
  0
VERTEX
  5
26E
330
26C
100
AcDbEntity
  8
Ebene 1
 62
   179
420
  1709851
370
    18
100
AcDbVertex
100
AcDb2dVertex
 10
75.02177732499456
 20
-172.9107204428834
 30
0.0
  0
SEQEND
  5
26F
330
26C
100
AcDbEntity
  8
Ebene 1
370
    18
  0
POLYLINE
  5
270
330
1D7
100
AcDbEntity
  8
Ebene 1
 62
   179
420
  1709851
370
    18
100
AcDb2dPolyline
 66
     1
 10
0.0
 20
0.0
 30
0.0
  0
VERTEX
  5
271
330
270
100
AcDbEntity
  8
Ebene 1
 62
   179
420
  1709851
370
    18
100
AcDbVertex
100
AcDb2dVertex
 10
95.29943709640084
 20
-178.5200249119672
 30
0.0
  0
VERTEX
  5
272
330
270
100
AcDbEntity
  8
Ebene 1
 62
   179
420
  1709851
370
    18
100
AcDbVertex
100
AcDb2dVertex
 10
72.8415486471542
 20
-178.5200249119672
 30
0.0
  0
SEQEND
  5
273
330
270
100
AcDbEntity
  8
Ebene 1
370
    18
  0
POLYLINE
  5
274
330
1D7
100
AcDbEntity
  8
Ebene 1
 62
   179
420
  1709851
370
    18
100
AcDb2dPolyline
 66
     1
 10
0.0
 20
0.0
 30
0.0
  0
VERTEX
  5
275
330
274
100
AcDbEntity
  8
Ebene 1
 62
   179
420
  1709851
370
    18
100
AcDbVertex
100
AcDb2dVertex
 10
72.8415486471542
 20
-178.5200249119672
 30
0.0
  0
VERTEX
  5
276
330
274
100
AcDbEntity
  8
Ebene 1
 62
   179
420
  1709851
370
    18
100
AcDbVertex
100
AcDb2dVertex
 10
72.8415486471542
 20
-177.9267794694072
 30
0.0
  0
SEQEND
  5
277
330
274
100
AcDbEntity
  8
Ebene 1
370
    18
  0
POLYLINE
  5
278
330
1D7
100
AcDbEntity
  8
Ebene 1
 62
   179
420
  1709851
370
    18
100
AcDb2dPolyline
 66
     1
 10
0.0
 20
0.0
 30
0.0
  0
VERTEX
  5
279
330
278
100
AcDbEntity
  8
Ebene 1
 62
   179
420
  1709851
370
    18
100
AcDbVertex
100
AcDb2dVertex
 10
94.7067084181636
 20
-177.9267794694072
 30
0.0
  0
VERTEX
  5
27A
330
278
100
AcDbEntity
  8
Ebene 1
 62
   179
420
  1709851
370
    18
100
AcDbVertex
100
AcDb2dVertex
 10
72.8415486471542
 20
-177.9267794694072
 30
0.0
  0
SEQEND
  5
27B
330
278
100
AcDbEntity
  8
Ebene 1
370
    18
  0
POLYLINE
  5
27C
330
1D7
100
AcDbEntity
  8
Ebene 1
 62
   179
420
  1709851
370
    18
100
AcDb2dPolyline
 66
     1
 10
0.0
 20
0.0
 30
0.0
  0
VERTEX
  5
27D
330
27C
100
AcDbEntity
  8
Ebene 1
 62
   179
420
  1709851
370
    18
100
AcDbVertex
100
AcDb2dVertex
 10
70.97895777305388
 20
-170.5825249139516
 30
0.0
  0
VERTEX
  5
27E
330
27C
100
AcDbEntity
  8
Ebene 1
 62
   179
420
  1709851
370
    18
100
AcDbVertex
100
AcDb2dVertex
 10
73.39190265092286
 20
-170.5825249139516
 30
0.0
  0
SEQEND
  5
27F
330
27C
100
AcDbEntity
  8
Ebene 1
370
    18
  0
POLYLINE
  5
280
330
1D7
100
AcDbEntity
  8
Ebene 1
 62
   179
420
  1709851
370
    18
100
AcDb2dPolyline
 66
     1
 10
0.0
 20
0.0
 30
0.0
  0
VERTEX
  5
281
330
280
100
AcDbEntity
  8
Ebene 1
 62
   179
420
  1709851
370
    18
100
AcDbVertex
100
AcDb2dVertex
 10
73.39190265092286
 20
-176.5935275166155
 30
0.0
  0
VERTEX
  5
282
330
280
100
AcDbEntity
  8
Ebene 1
 62
   179
420
  1709851
370
    18
100
AcDbVertex
100
AcDb2dVertex
 10
70.97895777305388
 20
-176.5935275166155
 30
0.0
  0
SEQEND
  5
283
330
280
100
AcDbEntity
  8
Ebene 1
370
    18
  0
POLYLINE
  5
284
330
1D7
100
AcDbEntity
  8
Ebene 1
 62
   179
420
  1709851
370
    18
100
AcDb2dPolyline
 66
     1
 10
0.0
 20
0.0
 30
0.0
  0
VERTEX
  5
285
330
284
100
AcDbEntity
  8
Ebene 1
 62
   179
420
  1709851
370
    18
100
AcDbVertex
100
AcDb2dVertex
 10
71.78321531408545
 20
-159.0889973560611
 30
0.0
  0
VERTEX
  5
286
330
284
100
AcDbEntity
  8
Ebene 1
 62
   179
420
  1709851
370
    18
100
AcDbVertex
100
AcDb2dVertex
 10
70.91539576135102
 20
-159.0889973560611
 30
0.0
  0
SEQEND
  5
287
330
284
100
AcDbEntity
  8
Ebene 1
370
    18
  0
POLYLINE
  5
288
330
1D7
100
AcDbEntity
  8
Ebene 1
 62
   179
420
  1709851
370
    18
100
AcDb2dPolyline
 66
     1
 10
0.0
 20
0.0
 30
0.0
  0
VERTEX
  5
289
330
288
100
AcDbEntity
  8
Ebene 1
 62
   179
420
  1709851
370
    18
100
AcDbVertex
100
AcDb2dVertex
 10
71.78321531408545
 20
-165.0786403667165
 30
0.0
  0
VERTEX
  5
28A
330
288
100
AcDbEntity
  8
Ebene 1
 62
   179
420
  1709851
370
    18
100
AcDbVertex
100
AcDb2dVertex
 10
70.91539576135102
 20
-165.0786403667165
 30
0.0
  0
SEQEND
  5
28B
330
288
100
AcDbEntity
  8
Ebene 1
370
    18
  0
POLYLINE
  5
28C
330
1D7
100
AcDbEntity
  8
Ebene 1
 62
   179
420
  1709851
370
    18
100
AcDb2dPolyline
 66
     1
 10
0.0
 20
0.0
 30
0.0
  0
VERTEX
  5
28D
330
28C
100
AcDbEntity
  8
Ebene 1
 62
   179
420
  1709851
370
    18
100
AcDbVertex
100
AcDb2dVertex
 10
71.78321531408545
 20
-178.1810275162186
 30
0.0
  0
VERTEX
  5
28E
330
28C
100
AcDbEntity
  8
Ebene 1
 62
   179
420
  1709851
370
    18
100
AcDbVertex
100
AcDb2dVertex
 10
71.78321531408545
 20
-175.069417273941
 30
0.0
  0
SEQEND
  5
28F
330
28C
100
AcDbEntity
  8
Ebene 1
370
    18
  0
POLYLINE
  5
290
330
1D7
100
AcDbEntity
  8
Ebene 1
 62
   179
420
  1709851
370
    18
100
AcDb2dPolyline
 66
     1
 10
0.0
 20
0.0
 30
0.0
  0
VERTEX
  5
291
330
290
100
AcDbEntity
  8
Ebene 1
 62
   179
420
  1709851
370
    18
100
AcDbVertex
100
AcDb2dVertex
 10
95.29943709640084
 20
-133.6888251076368
 30
0.0
  0
VERTEX
  5
292
330
290
100
AcDbEntity
  8
Ebene 1
 62
   179
420
  1709851
370
    18
100
AcDbVertex
100
AcDb2dVertex
 10
76.31282685809194
 20
-133.6888251076368
 30
0.0
  0
VERTEX
  5
293
330
290
100
AcDbEntity
  8
Ebene 1
 62
   179
420
  1709851
370
    18
100
AcDbVertex
100
AcDb2dVertex
 10
76.31282685809194
 20
-149.6907768722995
 30
0.0
  0
SEQEND
  5
294
330
290
100
AcDbEntity
  8
Ebene 1
370
    18
  0
POLYLINE
  5
295
330
1D7
100
AcDbEntity
  8
Ebene 1
 62
   179
420
  1709851
370
    18
100
AcDb2dPolyline
 66
     1
 10
0.0
 20
0.0
 30
0.0
  0
VERTEX
  5
296
330
295
100
AcDbEntity
  8
Ebene 1
 62
   179
420
  1709851
370
    18
100
AcDbVertex
100
AcDb2dVertex
 10
94.30449352026069
 20
-133.6888251076368
 30
0.0
  0
VERTEX
  5
297
330
295
100
AcDbEntity
  8
Ebene 1
 62
   179
420
  1709851
370
    18
100
AcDbVertex
100
AcDb2dVertex
 10
94.30449352026069
 20
-149.6907768722995
 30
0.0
  0
SEQEND
  5
298
330
295
100
AcDbEntity
  8
Ebene 1
370
    18
  0
POLYLINE
  5
299
330
1D7
100
AcDbEntity
  8
Ebene 1
 62
   179
420
  1709851
370
    18
100
AcDb2dPolyline
 66
     1
 10
0.0
 20
0.0
 30
0.0
  0
VERTEX
  5
29A
330
299
100
AcDbEntity
  8
Ebene 1
 62
   179
420
  1709851
370
    18
100
AcDbVertex
100
AcDb2dVertex
 10
76.31282685809194
 20
-149.6907768722995
 30
0.0
  0
VERTEX
  5
29B
330
299
100
AcDbEntity
  8
Ebene 1
 62
   179
420
  1709851
370
    18
100
AcDbVertex
100
AcDb2dVertex
 10
95.29943709640084
 20
-149.6907768722995
 30
0.0
  0
SEQEND
  5
29C
330
299
100
AcDbEntity
  8
Ebene 1
370
    18
  0
POLYLINE
  5
29D
330
1D7
100
AcDbEntity
  8
Ebene 1
370
     0
100
AcDb2dPolyline
 66
     1
 10
0.0
 20
0.0
 30
0.0
  0
VERTEX
  5
29E
330
29D
100
AcDbEntity
  8
Ebene 1
370
     0
100
AcDbVertex
100
AcDb2dVertex
 10
65.26388887257292
 20
-222.9169704303819
 30
0.0
  0
VERTEX
  5
29F
330
29D
100
AcDbEntity
  8
Ebene 1
370
     0
100
AcDbVertex
100
AcDb2dVertex
 10
159.3921657587631
 20
-222.9169704303819
 30
0.0
  0
VERTEX
  5
2A0
330
29D
100
AcDbEntity
  8
Ebene 1
370
     0
100
AcDbVertex
100
AcDb2dVertex
 10
159.3921657587631
 20
-77.81936711379169
 30
0.0
  0
VERTEX
  5
2A1
330
29D
100
AcDbEntity
  8
Ebene 1
370
     0
100
AcDbVertex
100
AcDb2dVertex
 10
65.26388887257292
 20
-77.81936711379169
 30
0.0
  0
VERTEX
  5
2A2
330
29D
100
AcDbEntity
  8
Ebene 1
370
     0
100
AcDbVertex
100
AcDb2dVertex
 10
65.26388887257292
 20
-222.9169704303819
 30
0.0
  0
SEQEND
  5
2A3
330
29D
100
AcDbEntity
  8
Ebene 1
370
     0
  0
ENDBLK
  5
1DA
330
1D7
100
AcDbEntity
  8
0
100
AcDbBlockEnd
  0
BLOCK
  5
2AE
330
2AC
100
AcDbEntity
  8
0
100
AcDbBlockBegin
  2
block 6
 70
     0
 71
     0
 10
0.0
 20
0.0
 30
0.0
  3
block 6
  1

  0
POLYLINE
  5
2B0
330
2AC
100
AcDbEntity
  8
Ebene 1
 62
   179
420
  1709851
370
    18
100
AcDb2dPolyline
 66
     1
 10
0.0
 20
0.0
 30
0.0
  0
VERTEX
  5
2B1
330
2B0
100
AcDbEntity
  8
Ebene 1
 62
   179
420
  1709851
370
    18
100
AcDbVertex
100
AcDb2dVertex
 10
79.44545218282961
 20
-144.8436997793273
 30
0.0
  0
VERTEX
  5
2B2
330
2B0
100
AcDbEntity
  8
Ebene 1
 62
   179
420
  1709851
370
    18
100
AcDbVertex
100
AcDb2dVertex
 10
79.44545218282961
 20
-143.9335055521243
 30
0.0
  0
SEQEND
  5
2B3
330
2B0
100
AcDbEntity
  8
Ebene 1
370
    18
  0
POLYLINE
  5
2B4
330
2AC
100
AcDbEntity
  8
Ebene 1
 62
   179
420
  1709851
370
    18
100
AcDb2dPolyline
 66
     1
 10
0.0
 20
0.0
 30
0.0
  0
VERTEX
  5
2B5
330
2B4
100
AcDbEntity
  8
Ebene 1
 62
   179
420
  1709851
370
    18
100
AcDbVertex
100
AcDb2dVertex
 10
79.44545218282961
 20
-143.9335055521243
 30
0.0
  0
VERTEX
  5
2B6
330
2B4
100
AcDbEntity
  8
Ebene 1
 62
   179
420
  1709851
370
    18
100
AcDbVertex
100
AcDb2dVertex
 10
79.42426484559533
 20
-143.7216321797814
 30
0.0
  0
VERTEX
  5
2B7
330
2B4
100
AcDbEntity
  8
Ebene 1
 62
   179
420
  1709851
370
    18
100
AcDbVertex
100
AcDb2dVertex
 10
79.29731307696387
 20
-143.5524779914556
 30
0.0
  0
VERTEX
  5
2B8
330
2B4
100
AcDbEntity
  8
Ebene 1
 62
   179
420
  1709851
370
    18
100
AcDbVertex
100
AcDb2dVertex
 10
79.10679929662956
 20
-143.4253539680499
 30
0.0
  0
VERTEX
  5
2B9
330
2B4
100
AcDbEntity
  8
Ebene 1
 62
   179
420
  1709851
370
    18
100
AcDbVertex
100
AcDb2dVertex
 10
78.89509817906095
 20
-143.3829792935813
 30
0.0
  0
VERTEX
  5
2BA
330
2B4
100
AcDbEntity
  8
Ebene 1
 62
   179
420
  1709851
370
    18
100
AcDbVertex
100
AcDb2dVertex
 10
78.70458439872664
 20
-143.4253539680499
 30
0.0
  0
VERTEX
  5
2BB
330
2B4
100
AcDbEntity
  8
Ebene 1
 62
   179
420
  1709851
370
    18
100
AcDbVertex
100
AcDb2dVertex
 10
78.51407061839232
 20
-143.5524779914556
 30
0.0
  0
VERTEX
  5
2BC
330
2B4
100
AcDbEntity
  8
Ebene 1
 62
   179
420
  1709851
370
    18
100
AcDbVertex
100
AcDb2dVertex
 10
78.38711884976087
 20
-143.7216321797814
 30
0.0
  0
VERTEX
  5
2BD
330
2B4
100
AcDbEntity
  8
Ebene 1
 62
   179
420
  1709851
370
    18
100
AcDbVertex
100
AcDb2dVertex
 10
78.36593151252657
 20
-143.9335055521243
 30
0.0
  0
SEQEND
  5
2BE
330
2B4
100
AcDbEntity
  8
Ebene 1
370
    18
  0
POLYLINE
  5
2BF
330
2AC
100
AcDbEntity
  8
Ebene 1
 62
   179
420
  1709851
370
    18
100
AcDb2dPolyline
 66
     1
 10
0.0
 20
0.0
 30
0.0
  0
VERTEX
  5
2C0
330
2BF
100
AcDbEntity
  8
Ebene 1
 62
   179
420
  1709851
370
    18
100
AcDbVertex
100
AcDb2dVertex
 10
78.36593151252657
 20
-143.9335055521243
 30
0.0
  0
VERTEX
  5
2C1
330
2BF
100
AcDbEntity
  8
Ebene 1
 62
   179
420
  1709851
370
    18
100
AcDbVertex
100
AcDb2dVertex
 10
78.36593151252657
 20
-144.8436997793273
 30
0.0
  0
SEQEND
  5
2C2
330
2BF
100
AcDbEntity
  8
Ebene 1
370
    18
  0
POLYLINE
  5
2C3
330
2AC
100
AcDbEntity
  8
Ebene 1
 62
   179
420
  1709851
370
    18
100
AcDb2dPolyline
 66
     1
 10
0.0
 20
0.0
 30
0.0
  0
VERTEX
  5
2C4
330
2C3
100
AcDbEntity
  8
Ebene 1
 62
   179
420
  1709851
370
    18
100
AcDbVertex
100
AcDb2dVertex
 10
78.36593151252657
 20
-136.8424655148345
 30
0.0
  0
VERTEX
  5
2C5
330
2C3
100
AcDbEntity
  8
Ebene 1
 62
   179
420
  1709851
370
    18
100
AcDbVertex
100
AcDb2dVertex
 10
78.36593151252657
 20
-135.9322712876315
 30
0.0
  0
SEQEND
  5
2C6
330
2C3
100
AcDbEntity
  8
Ebene 1
370
    18
  0
POLYLINE
  5
2C7
330
2AC
100
AcDbEntity
  8
Ebene 1
 62
   179
420
  1709851
370
    18
100
AcDb2dPolyline
 66
     1
 10
0.0
 20
0.0
 30
0.0
  0
VERTEX
  5
2C8
330
2C7
100
AcDbEntity
  8
Ebene 1
 62
   179
420
  1709851
370
    18
100
AcDbVertex
100
AcDb2dVertex
 10
79.44545218282961
 20
-135.9322712876315
 30
0.0
  0
VERTEX
  5
2C9
330
2C7
100
AcDbEntity
  8
Ebene 1
 62
   179
420
  1709851
370
    18
100
AcDbVertex
100
AcDb2dVertex
 10
79.42426484559533
 20
-135.7207424248372
 30
0.0
  0
VERTEX
  5
2CA
330
2C7
100
AcDbEntity
  8
Ebene 1
 62
   179
420
  1709851
370
    18
100
AcDbVertex
100
AcDb2dVertex
 10
79.29731307696387
 20
-135.5515882365114
 30
0.0
  0
VERTEX
  5
2CB
330
2C7
100
AcDbEntity
  8
Ebene 1
 62
   179
420
  1709851
370
    18
100
AcDbVertex
100
AcDb2dVertex
 10
79.10679929662956
 20
-135.4244642131057
 30
0.0
  0
VERTEX
  5
2CC
330
2C7
100
AcDbEntity
  8
Ebene 1
 62
   179
420
  1709851
370
    18
100
AcDbVertex
100
AcDb2dVertex
 10
78.89509817906095
 20
-135.3820895386371
 30
0.0
  0
VERTEX
  5
2CD
330
2C7
100
AcDbEntity
  8
Ebene 1
 62
   179
420
  1709851
370
    18
100
AcDbVertex
100
AcDb2dVertex
 10
78.70458439872664
 20
-135.4244642131057
 30
0.0
  0
VERTEX
  5
2CE
330
2C7
100
AcDbEntity
  8
Ebene 1
 62
   179
420
  1709851
370
    18
100
AcDbVertex
100
AcDb2dVertex
 10
78.51407061839232
 20
-135.5515882365114
 30
0.0
  0
VERTEX
  5
2CF
330
2C7
100
AcDbEntity
  8
Ebene 1
 62
   179
420
  1709851
370
    18
100
AcDbVertex
100
AcDb2dVertex
 10
78.38711884976087
 20
-135.7207424248372
 30
0.0
  0
VERTEX
  5
2D0
330
2C7
100
AcDbEntity
  8
Ebene 1
 62
   179
420
  1709851
370
    18
100
AcDbVertex
100
AcDb2dVertex
 10
78.36593151252657
 20
-135.9322712876315
 30
0.0
  0
SEQEND
  5
2D1
330
2C7
100
AcDbEntity
  8
Ebene 1
370
    18
  0
POLYLINE
  5
2D2
330
2AC
100
AcDbEntity
  8
Ebene 1
 62
   179
420
  1709851
370
    18
100
AcDb2dPolyline
 66
     1
 10
0.0
 20
0.0
 30
0.0
  0
VERTEX
  5
2D3
330
2D2
100
AcDbEntity
  8
Ebene 1
 62
   179
420
  1709851
370
    18
100
AcDbVertex
100
AcDb2dVertex
 10
79.44545218282961
 20
-135.9322712876315
 30
0.0
  0
VERTEX
  5
2D4
330
2D2
100
AcDbEntity
  8
Ebene 1
 62
   179
420
  1709851
370
    18
100
AcDbVertex
100
AcDb2dVertex
 10
79.44545218282961
 20
-136.8424655148345
 30
0.0
  0
SEQEND
  5
2D5
330
2D2
100
AcDbEntity
  8
Ebene 1
370
    18
  0
POLYLINE
  5
2D6
330
2AC
100
AcDbEntity
  8
Ebene 1
 62
   179
420
  1709851
370
    18
100
AcDb2dPolyline
 66
     1
 10
0.0
 20
0.0
 30
0.0
  0
VERTEX
  5
2D7
330
2D6
100
AcDbEntity
  8
Ebene 1
 62
   179
420
  1709851
370
    18
100
AcDbVertex
100
AcDb2dVertex
 10
78.36593151252657
 20
-139.4249090905778
 30
0.0
  0
VERTEX
  5
2D8
330
2D6
100
AcDbEntity
  8
Ebene 1
 62
   179
420
  1709851
370
    18
100
AcDbVertex
100
AcDb2dVertex
 10
78.40830618699515
 20
-139.6364379533721
 30
0.0
  0
VERTEX
  5
2D9
330
2D6
100
AcDbEntity
  8
Ebene 1
 62
   179
420
  1709851
370
    18
100
AcDbVertex
100
AcDb2dVertex
 10
78.51407061839232
 20
-139.8269517337065
 30
0.0
  0
VERTEX
  5
2DA
330
2D6
100
AcDbEntity
  8
Ebene 1
 62
   179
420
  1709851
370
    18
100
AcDbVertex
100
AcDb2dVertex
 10
78.70458439872664
 20
-139.9330606746522
 30
0.0
  0
VERTEX
  5
2DB
330
2D6
100
AcDbEntity
  8
Ebene 1
 62
   179
420
  1709851
370
    18
100
AcDbVertex
100
AcDb2dVertex
 10
78.91628551629523
 20
-139.9750908395722
 30
0.0
  0
VERTEX
  5
2DC
330
2D6
100
AcDbEntity
  8
Ebene 1
 62
   179
420
  1709851
370
    18
100
AcDbVertex
100
AcDb2dVertex
 10
79.10679929662956
 20
-139.9330606746522
 30
0.0
  0
VERTEX
  5
2DD
330
2D6
100
AcDbEntity
  8
Ebene 1
 62
   179
420
  1709851
370
    18
100
AcDbVertex
100
AcDb2dVertex
 10
79.29731307696387
 20
-139.8269517337065
 30
0.0
  0
VERTEX
  5
2DE
330
2D6
100
AcDbEntity
  8
Ebene 1
 62
   179
420
  1709851
370
    18
100
AcDbVertex
100
AcDb2dVertex
 10
79.42426484559533
 20
-139.6364379533721
 30
0.0
  0
VERTEX
  5
2DF
330
2D6
100
AcDbEntity
  8
Ebene 1
 62
   179
420
  1709851
370
    18
100
AcDbVertex
100
AcDb2dVertex
 10
79.44545218282961
 20
-139.4249090905778
 30
0.0
  0
SEQEND
  5
2E0
330
2D6
100
AcDbEntity
  8
Ebene 1
370
    18
  0
POLYLINE
  5
2E1
330
2AC
100
AcDbEntity
  8
Ebene 1
 62
   179
420
  1709851
370
    18
100
AcDb2dPolyline
 66
     1
 10
0.0
 20
0.0
 30
0.0
  0
VERTEX
  5
2E2
330
2E1
100
AcDbEntity
  8
Ebene 1
 62
   179
420
  1709851
370
    18
100
AcDbVertex
100
AcDb2dVertex
 10
79.44545218282961
 20
-138.5147148633748
 30
0.0
  0
VERTEX
  5
2E3
330
2E1
100
AcDbEntity
  8
Ebene 1
 62
   179
420
  1709851
370
    18
100
AcDbVertex
100
AcDb2dVertex
 10
79.44545218282961
 20
-139.4249090905778
 30
0.0
  0
SEQEND
  5
2E4
330
2E1
100
AcDbEntity
  8
Ebene 1
370
    18
  0
POLYLINE
  5
2E5
330
2AC
100
AcDbEntity
  8
Ebene 1
 62
   179
420
  1709851
370
    18
100
AcDb2dPolyline
 66
     1
 10
0.0
 20
0.0
 30
0.0
  0
VERTEX
  5
2E6
330
2E5
100
AcDbEntity
  8
Ebene 1
 62
   179
420
  1709851
370
    18
100
AcDbVertex
100
AcDb2dVertex
 10
78.36593151252657
 20
-139.4249090905778
 30
0.0
  0
VERTEX
  5
2E7
330
2E5
100
AcDbEntity
  8
Ebene 1
 62
   179
420
  1709851
370
    18
100
AcDbVertex
100
AcDb2dVertex
 10
78.36593151252657
 20
-138.5147148633748
 30
0.0
  0
SEQEND
  5
2E8
330
2E5
100
AcDbEntity
  8
Ebene 1
370
    18
  0
POLYLINE
  5
2E9
330
2AC
100
AcDbEntity
  8
Ebene 1
 62
   179
420
  1709851
370
    18
100
AcDb2dPolyline
 66
     1
 10
0.0
 20
0.0
 30
0.0
  0
VERTEX
  5
2EA
330
2E9
100
AcDbEntity
  8
Ebene 1
 62
   179
420
  1709851
370
    18
100
AcDbVertex
100
AcDb2dVertex
 10
78.36593151252657
 20
-146.515604618319
 30
0.0
  0
VERTEX
  5
2EB
330
2E9
100
AcDbEntity
  8
Ebene 1
 62
   179
420
  1709851
370
    18
100
AcDbVertex
100
AcDb2dVertex
 10
78.36593151252657
 20
-147.425798845522
 30
0.0
  0
SEQEND
  5
2EC
330
2E9
100
AcDbEntity
  8
Ebene 1
370
    18
  0
POLYLINE
  5
2ED
330
2AC
100
AcDbEntity
  8
Ebene 1
 62
   179
420
  1709851
370
    18
100
AcDb2dPolyline
 66
     1
 10
0.0
 20
0.0
 30
0.0
  0
VERTEX
  5
2EE
330
2ED
100
AcDbEntity
  8
Ebene 1
 62
   179
420
  1709851
370
    18
100
AcDbVertex
100
AcDb2dVertex
 10
78.36593151252657
 20
-147.425798845522
 30
0.0
  0
VERTEX
  5
2EF
330
2ED
100
AcDbEntity
  8
Ebene 1
 62
   179
420
  1709851
370
    18
100
AcDbVertex
100
AcDb2dVertex
 10
78.40830618699515
 20
-147.6376722178649
 30
0.0
  0
VERTEX
  5
2F0
330
2ED
100
AcDbEntity
  8
Ebene 1
 62
   179
420
  1709851
370
    18
100
AcDbVertex
100
AcDb2dVertex
 10
78.51407061839232
 20
-147.8281859981992
 30
0.0
  0
VERTEX
  5
2F1
330
2ED
100
AcDbEntity
  8
Ebene 1
 62
   179
420
  1709851
370
    18
100
AcDbVertex
100
AcDb2dVertex
 10
78.70458439872664
 20
-147.9339504295964
 30
0.0
  0
VERTEX
  5
2F2
330
2ED
100
AcDbEntity
  8
Ebene 1
 62
   179
420
  1709851
370
    18
100
AcDbVertex
100
AcDb2dVertex
 10
78.91628551629523
 20
-147.976325104065
 30
0.0
  0
VERTEX
  5
2F3
330
2ED
100
AcDbEntity
  8
Ebene 1
 62
   179
420
  1709851
370
    18
100
AcDbVertex
100
AcDb2dVertex
 10
79.10679929662956
 20
-147.9339504295964
 30
0.0
  0
VERTEX
  5
2F4
330
2ED
100
AcDbEntity
  8
Ebene 1
 62
   179
420
  1709851
370
    18
100
AcDbVertex
100
AcDb2dVertex
 10
79.29731307696387
 20
-147.8281859981992
 30
0.0
  0
VERTEX
  5
2F5
330
2ED
100
AcDbEntity
  8
Ebene 1
 62
   179
420
  1709851
370
    18
100
AcDbVertex
100
AcDb2dVertex
 10
79.42426484559533
 20
-147.6376722178649
 30
0.0
  0
VERTEX
  5
2F6
330
2ED
100
AcDbEntity
  8
Ebene 1
 62
   179
420
  1709851
370
    18
100
AcDbVertex
100
AcDb2dVertex
 10
79.44545218282961
 20
-147.425798845522
 30
0.0
  0
VERTEX
  5
2F7
330
2ED
100
AcDbEntity
  8
Ebene 1
 62
   179
420
  1709851
370
    18
100
AcDbVertex
100
AcDb2dVertex
 10
79.44545218282961
 20
-146.515604618319
 30
0.0
  0
SEQEND
  5
2F8
330
2ED
100
AcDbEntity
  8
Ebene 1
370
    18
  0
SPLINE
  5
2F9
330
2AC
100
AcDbEntity
  8
Ebene 1
 62
   179
420
  1709851
370
    18
100
AcDbSpline
210
0.0
220
0.0
230
1.0
 70
     8
 71
     3
 72
    23
 73
    19
 74
     0
 42
0.0000000001
 43
0.0000000001
 40
0.0
 40
0.0
 40
0.0
 40
0.0
 40
1.0
 40
1.0
 40
1.0
 40
2.0
 40
2.0
 40
2.0
 40
3.0
 40
3.0
 40
3.0
 40
4.0
 40
4.0
 40
4.0
 40
5.0
 40
5.0
 40
5.0
 40
6.0
 40
6.0
 40
6.0
 40
6.0
 10
79.91105683766114
 20
-145.6901597400532
 30
0.0
 10
79.91105683766114
 20
-145.6901597400532
 30
0.0
 10
79.88986950042684
 20
-145.6267699831246
 30
0.0
 10
79.88986950042684
 20
-145.6267699831246
 30
0.0
 10
79.86885441796682
 20
-145.0976033165902
 30
0.0
 10
79.42426484559533
 20
-144.6955606734615
 30
0.0
 10
78.91628551629523
 20
-144.6955606734615
 30
0.0
 10
78.36593151252657
 20
-144.6955606734615
 30
0.0
 10
77.92151419492934
 20
-145.1399779910588
 30
0.0
 10
77.92151419492934
 20
-145.6901597400532
 30
0.0
 10
77.92151419492934
 20
-146.2193264065875
 30
0.0
 10
78.36593151252657
 20
-146.6851033161933
 30
0.0
 10
78.91628551629523
 20
-146.6851033161933
 30
0.0
 10
79.4666395200639
 20
-146.6851033161933
 30
0.0
 10
79.91105683766114
 20
-146.2193264065875
 30
0.0
 10
79.91105683766114
 20
-145.6901597400532
 30
0.0
 10
79.91105683766114
 20
-145.6691446575931
 30
0.0
 10
79.91105683766114
 20
-145.6477850655846
 30
0.0
 10
79.88986950042684
 20
-145.6267699831246
 30
0.0
  0
SPLINE
  5
2FA
330
2AC
100
AcDbEntity
  8
Ebene 1
 62
   179
420
  1709851
370
    18
100
AcDbSpline
210
0.0
220
0.0
230
1.0
 70
     8
 71
     3
 72
    23
 73
    19
 74
     0
 42
0.0000000001
 43
0.0000000001
 40
0.0
 40
0.0
 40
0.0
 40
0.0
 40
1.0
 40
1.0
 40
1.0
 40
2.0
 40
2.0
 40
2.0
 40
3.0
 40
3.0
 40
3.0
 40
4.0
 40
4.0
 40
4.0
 40
5.0
 40
5.0
 40
5.0
 40
6.0
 40
6.0
 40
6.0
 40
6.0
 10
79.21256372802672
 20
-145.6901597400532
 30
0.0
 10
79.21256372802672
 20
-145.6901597400532
 30
0.0
 10
79.21256372802672
 20
-145.6691446575931
 30
0.0
 10
79.21256372802672
 20
-145.6691446575931
 30
0.0
 10
79.19137639079244
 20
-145.4996459597188
 30
0.0
 10
79.06442462216098
 20
-145.3938815283217
 30
0.0
 10
78.91628551629523
 20
-145.3938815283217
 30
0.0
 10
78.74695907319521
 20
-145.3938815283217
 30
0.0
 10
78.62000730456376
 20
-145.5210055517274
 30
0.0
 10
78.62000730456376
 20
-145.6901597400532
 30
0.0
 10
78.62000730456376
 20
-145.8382988459189
 30
0.0
 10
78.74695907319521
 20
-145.9864379517846
 30
0.0
 10
78.91628551629523
 20
-145.9864379517846
 30
0.0
 10
79.06442462216098
 20
-145.9864379517846
 30
0.0
 10
79.21256372802672
 20
-145.8382988459189
 30
0.0
 10
79.21256372802672
 20
-145.6901597400532
 30
0.0
 10
79.21256372802672
 20
-145.6901597400532
 30
0.0
 10
79.21256372802672
 20
-145.6691446575931
 30
0.0
 10
79.21256372802672
 20
-145.6691446575931
 30
0.0
  0
SPLINE
  5
2FB
330
2AC
100
AcDbEntity
  8
Ebene 1
 62
   179
420
  1709851
370
    18
100
AcDbSpline
210
0.0
220
0.0
230
1.0
 70
     8
 71
     3
 72
    23
 73
    19
 74
     0
 42
0.0000000001
 43
0.0000000001
 40
0.0
 40
0.0
 40
0.0
 40
0.0
 40
1.0
 40
1.0
 40
1.0
 40
2.0
 40
2.0
 40
2.0
 40
3.0
 40
3.0
 40
3.0
 40
4.0
 40
4.0
 40
4.0
 40
5.0
 40
5.0
 40
5.0
 40
6.0
 40
6.0
 40
6.0
 40
6.0
 10
79.91105683766114
 20
-137.689269985109
 30
0.0
 10
79.91105683766114
 20
-137.689269985109
 30
0.0
 10
79.88986950042684
 20
-137.6258802281803
 30
0.0
 10
79.88986950042684
 20
-137.6258802281803
 30
0.0
 10
79.86885441796682
 20
-137.096713561646
 30
0.0
 10
79.42426484559533
 20
-136.6943264089688
 30
0.0
 10
78.91628551629523
 20
-136.6943264089688
 30
0.0
 10
78.36593151252657
 20
-136.6943264089688
 30
0.0
 10
77.92151419492934
 20
-137.1390882361145
 30
0.0
 10
77.92151419492934
 20
-137.689269985109
 30
0.0
 10
77.92151419492934
 20
-138.2184366516433
 30
0.0
 10
78.36593151252657
 20
-138.6842135612491
 30
0.0
 10
78.91628551629523
 20
-138.6842135612491
 30
0.0
 10
79.4666395200639
 20
-138.6842135612491
 30
0.0
 10
79.91105683766114
 20
-138.2184366516433
 30
0.0
 10
79.91105683766114
 20
-137.689269985109
 30
0.0
 10
79.91105683766114
 20
-137.6682549026489
 30
0.0
 10
79.91105683766114
 20
-137.6468953106404
 30
0.0
 10
79.88986950042684
 20
-137.6258802281803
 30
0.0
  0
SPLINE
  5
2FC
330
2AC
100
AcDbEntity
  8
Ebene 1
 62
   179
420
  1709851
370
    18
100
AcDbSpline
210
0.0
220
0.0
230
1.0
 70
     8
 71
     3
 72
    23
 73
    19
 74
     0
 42
0.0000000001
 43
0.0000000001
 40
0.0
 40
0.0
 40
0.0
 40
0.0
 40
1.0
 40
1.0
 40
1.0
 40
2.0
 40
2.0
 40
2.0
 40
3.0
 40
3.0
 40
3.0
 40
4.0
 40
4.0
 40
4.0
 40
5.0
 40
5.0
 40
5.0
 40
6.0
 40
6.0
 40
6.0
 40
6.0
 10
79.21256372802672
 20
-137.689269985109
 30
0.0
 10
79.21256372802672
 20
-137.689269985109
 30
0.0
 10
79.21256372802672
 20
-137.6682549026489
 30
0.0
 10
79.21256372802672
 20
-137.6682549026489
 30
0.0
 10
79.19137639079244
 20
-137.4987562047746
 30
0.0
 10
79.06442462216098
 20
-137.3929917733774
 30
0.0
 10
78.91628551629523
 20
-137.3929917733774
 30
0.0
 10
78.74695907319521
 20
-137.3929917733774
 30
0.0
 10
78.62000730456376
 20
-137.5197712872346
 30
0.0
 10
78.62000730456376
 20
-137.689269985109
 30
0.0
 10
78.62000730456376
 20
-137.8374090909747
 30
0.0
 10
78.74695907319521
 20
-137.9855481968404
 30
0.0
 10
78.91628551629523
 20
-137.9855481968404
 30
0.0
 10
79.06442462216098
 20
-137.9855481968404
 30
0.0
 10
79.21256372802672
 20
-137.8374090909747
 30
0.0
 10
79.21256372802672
 20
-137.689269985109
 30
0.0
 10
79.21256372802672
 20
-137.689269985109
 30
0.0
 10
79.21256372802672
 20
-137.6682549026489
 30
0.0
 10
79.21256372802672
 20
-137.6682549026489
 30
0.0
  0
POLYLINE
  5
2FD
330
2AC
100
AcDbEntity
  8
Ebene 1
 62
   179
420
  1709851
370
    18
100
AcDb2dPolyline
 66
     1
 10
0.0
 20
0.0
 30
0.0
  0
VERTEX
  5
2FE
330
2FD
100
AcDbEntity
  8
Ebene 1
 62
   179
420
  1709851
370
    18
100
AcDbVertex
100
AcDb2dVertex
 10
92.61105683448613
 20
-133.6888251076368
 30
0.0
  0
VERTEX
  5
2FF
330
2FD
100
AcDbEntity
  8
Ebene 1
 62
   179
420
  1709851
370
    18
100
AcDbVertex
100
AcDb2dVertex
 10
79.29731307696387
 20
-129.5188815322904
 30
0.0
  0
SEQEND
  5
300
330
2FD
100
AcDbEntity
  8
Ebene 1
370
    18
  0
POLYLINE
  5
301
330
2AC
100
AcDbEntity
  8
Ebene 1
 62
   179
420
  1709851
370
    18
100
AcDb2dPolyline
 66
     1
 10
0.0
 20
0.0
 30
0.0
  0
VERTEX
  5
302
330
301
100
AcDbEntity
  8
Ebene 1
 62
   179
420
  1709851
370
    18
100
AcDbVertex
100
AcDb2dVertex
 10
79.29731307696387
 20
-177.5884710927557
 30
0.0
  0
VERTEX
  5
303
330
301
100
AcDbEntity
  8
Ebene 1
 62
   179
420
  1709851
370
    18
100
AcDbVertex
100
AcDb2dVertex
 10
79.29731307696387
 20
-177.5884710927557
 30
0.0
  0
VERTEX
  5
304
330
301
100
AcDbEntity
  8
Ebene 1
 62
   179
420
  1709851
370
    18
100
AcDbVertex
100
AcDb2dVertex
 10
81.05413951966702
 20
-177.5884710927557
 30
0.0
  0
SEQEND
  5
305
330
301
100
AcDbEntity
  8
Ebene 1
370
    18
  0
POLYLINE
  5
306
330
2AC
100
AcDbEntity
  8
Ebene 1
 62
   179
420
  1709851
370
    18
100
AcDb2dPolyline
 66
     1
 10
0.0
 20
0.0
 30
0.0
  0
VERTEX
  5
307
330
306
100
AcDbEntity
  8
Ebene 1
 62
   179
420
  1709851
370
    18
100
AcDbVertex
100
AcDb2dVertex
 10
89.66894529008277
 20
-177.9267794694072
 30
0.0
  0
VERTEX
  5
308
330
306
100
AcDbEntity
  8
Ebene 1
 62
   179
420
  1709851
370
    18
100
AcDbVertex
100
AcDb2dVertex
 10
79.29731307696387
 20
-174.6883897132724
 30
0.0
  0
SEQEND
  5
309
330
306
100
AcDbEntity
  8
Ebene 1
370
    18
  0
POLYLINE
  5
30A
330
2AC
100
AcDbEntity
  8
Ebene 1
 62
   179
420
  1709851
370
    18
100
AcDb2dPolyline
 66
     1
 10
0.0
 20
0.0
 30
0.0
  0
VERTEX
  5
30B
330
30A
100
AcDbEntity
  8
Ebene 1
 62
   179
420
  1709851
370
    18
100
AcDbVertex
100
AcDb2dVertex
 10
79.29731307696387
 20
-174.6883897132724
 30
0.0
  0
VERTEX
  5
30C
330
30A
100
AcDbEntity
  8
Ebene 1
 62
   179
420
  1709851
370
    18
100
AcDbVertex
100
AcDb2dVertex
 10
95.29926484162658
 20
-169.6723306867486
 30
0.0
  0
SEQEND
  5
30D
330
30A
100
AcDbEntity
  8
Ebene 1
370
    18
  0
POLYLINE
  5
30E
330
2AC
100
AcDbEntity
  8
Ebene 1
 62
   179
420
  1709851
370
    18
100
AcDb2dPolyline
 66
     1
 10
0.0
 20
0.0
 30
0.0
  0
VERTEX
  5
30F
330
30E
100
AcDbEntity
  8
Ebene 1
 62
   179
420
  1709851
370
    18
100
AcDbVertex
100
AcDb2dVertex
 10
95.29926484162658
 20
-169.6723306867486
 30
0.0
  0
VERTEX
  5
310
330
30E
100
AcDbEntity
  8
Ebene 1
 62
   179
420
  1709851
370
    18
100
AcDbVertex
100
AcDb2dVertex
 10
79.29731307696387
 20
-164.6769422331363
 30
0.0
  0
VERTEX
  5
311
330
30E
100
AcDbEntity
  8
Ebene 1
 62
   179
420
  1709851
370
    18
100
AcDbVertex
100
AcDb2dVertex
 10
95.29926484162658
 20
-159.6815537795241
 30
0.0
  0
SEQEND
  5
312
330
30E
100
AcDbEntity
  8
Ebene 1
370
    18
  0
POLYLINE
  5
313
330
2AC
100
AcDbEntity
  8
Ebene 1
 62
   179
420
  1709851
370
    18
100
AcDb2dPolyline
 66
     1
 10
0.0
 20
0.0
 30
0.0
  0
VERTEX
  5
314
330
313
100
AcDbEntity
  8
Ebene 1
 62
   179
420
  1709851
370
    18
100
AcDbVertex
100
AcDb2dVertex
 10
95.29926484162658
 20
-159.6815537795241
 30
0.0
  0
VERTEX
  5
315
330
313
100
AcDbEntity
  8
Ebene 1
 62
   179
420
  1709851
370
    18
100
AcDbVertex
100
AcDb2dVertex
 10
79.29731307696387
 20
-154.6861653259118
 30
0.0
  0
VERTEX
  5
316
330
313
100
AcDbEntity
  8
Ebene 1
 62
   179
420
  1709851
370
    18
100
AcDbVertex
100
AcDb2dVertex
 10
95.29926484162658
 20
-149.6907768722995
 30
0.0
  0
SEQEND
  5
317
330
313
100
AcDbEntity
  8
Ebene 1
370
    18
  0
POLYLINE
  5
318
330
2AC
100
AcDbEntity
  8
Ebene 1
 62
   179
420
  1709851
370
    18
100
AcDb2dPolyline
 66
     1
 10
0.0
 20
0.0
 30
0.0
  0
VERTEX
  5
319
330
318
100
AcDbEntity
  8
Ebene 1
 62
   179
420
  1709851
370
    18
100
AcDbVertex
100
AcDb2dVertex
 10
79.29731307696387
 20
-129.5188815322904
 30
0.0
  0
VERTEX
  5
31A
330
318
100
AcDbEntity
  8
Ebene 1
 62
   179
420
  1709851
370
    18
100
AcDbVertex
100
AcDb2dVertex
 10
95.29926484162658
 20
-124.5234930786782
 30
0.0
  0
SEQEND
  5
31B
330
318
100
AcDbEntity
  8
Ebene 1
370
    18
  0
POLYLINE
  5
31C
330
2AC
100
AcDbEntity
  8
Ebene 1
 62
   179
420
  1709851
370
    18
100
AcDb2dPolyline
 66
     1
 10
0.0
 20
0.0
 30
0.0
  0
VERTEX
  5
31D
330
31C
100
AcDbEntity
  8
Ebene 1
 62
   179
420
  1709851
370
    18
100
AcDbVertex
100
AcDb2dVertex
 10
95.29926484162658
 20
-124.5234930786782
 30
0.0
  0
VERTEX
  5
31E
330
31C
100
AcDbEntity
  8
Ebene 1
 62
   179
420
  1709851
370
    18
100
AcDbVertex
100
AcDb2dVertex
 10
79.29731307696387
 20
-119.5281046250659
 30
0.0
  0
VERTEX
  5
31F
330
31C
100
AcDbEntity
  8
Ebene 1
 62
   179
420
  1709851
370
    18
100
AcDbVertex
100
AcDb2dVertex
 10
95.29926484162658
 20
-114.5330606810022
 30
0.0
  0
SEQEND
  5
320
330
31C
100
AcDbEntity
  8
Ebene 1
370
    18
  0
POLYLINE
  5
321
330
2AC
100
AcDbEntity
  8
Ebene 1
 62
   179
420
  1709851
370
    18
100
AcDb2dPolyline
 66
     1
 10
0.0
 20
0.0
 30
0.0
  0
VERTEX
  5
322
330
321
100
AcDbEntity
  8
Ebene 1
 62
   179
420
  1709851
370
    18
100
AcDbVertex
100
AcDb2dVertex
 10
95.29926484162658
 20
-114.5330606810022
 30
0.0
  0
VERTEX
  5
323
330
321
100
AcDbEntity
  8
Ebene 1
 62
   179
420
  1709851
370
    18
100
AcDbVertex
100
AcDb2dVertex
 10
79.29731307696387
 20
-109.5163126353813
 30
0.0
  0
VERTEX
  5
324
330
321
100
AcDbEntity
  8
Ebene 1
 62
   179
420
  1709851
370
    18
100
AcDbVertex
100
AcDb2dVertex
 10
95.29926484162658
 20
-104.5209241817691
 30
0.0
  0
SEQEND
  5
325
330
321
100
AcDbEntity
  8
Ebene 1
370
    18
  0
POLYLINE
  5
326
330
2AC
100
AcDbEntity
  8
Ebene 1
 62
   179
420
  1709851
370
    18
100
AcDb2dPolyline
 66
     1
 10
0.0
 20
0.0
 30
0.0
  0
VERTEX
  5
327
330
326
100
AcDbEntity
  8
Ebene 1
 62
   179
420
  1709851
370
    18
100
AcDbVertex
100
AcDb2dVertex
 10
79.29731307696387
 20
-133.6888251076368
 30
0.0
  0
VERTEX
  5
328
330
326
100
AcDbEntity
  8
Ebene 1
 62
   179
420
  1709851
370
    18
100
AcDbVertex
100
AcDb2dVertex
 10
79.29731307696387
 20
-78.06259085505033
 30
0.0
  0
SEQEND
  5
329
330
326
100
AcDbEntity
  8
Ebene 1
370
    18
  0
POLYLINE
  5
32A
330
2AC
100
AcDbEntity
  8
Ebene 1
 62
   179
420
  1709851
370
    18
100
AcDb2dPolyline
 66
     1
 10
0.0
 20
0.0
 30
0.0
  0
VERTEX
  5
32B
330
32A
100
AcDbEntity
  8
Ebene 1
 62
   179
420
  1709851
370
    18
100
AcDbVertex
100
AcDb2dVertex
 10
79.29731307696387
 20
-177.9267794694072
 30
0.0
  0
VERTEX
  5
32C
330
32A
100
AcDbEntity
  8
Ebene 1
 62
   179
420
  1709851
370
    18
100
AcDbVertex
100
AcDb2dVertex
 10
79.29731307696387
 20
-149.6907768722995
 30
0.0
  0
SEQEND
  5
32D
330
32A
100
AcDbEntity
  8
Ebene 1
370
    18
  0
POLYLINE
  5
32E
330
2AC
100
AcDbEntity
  8
Ebene 1
 62
   179
420
  1709851
370
    18
100
AcDb2dPolyline
 66
     1
 10
0.0
 20
0.0
 30
0.0
  0
VERTEX
  5
32F
330
32E
100
AcDbEntity
  8
Ebene 1
 62
   179
420
  1709851
370
    18
100
AcDbVertex
100
AcDb2dVertex
 10
81.79500730377
 20
-79.94671357593346
 30
0.0
  0
VERTEX
  5
330
330
32E
100
AcDbEntity
  8
Ebene 1
 62
   179
420
  1709851
370
    18
100
AcDbVertex
100
AcDb2dVertex
 10
81.79500730377
 20
-78.06259085505033
 30
0.0
  0
SEQEND
  5
331
330
32E
100
AcDbEntity
  8
Ebene 1
370
    18
  0
POLYLINE
  5
332
330
2AC
100
AcDbEntity
  8
Ebene 1
 62
   179
420
  1709851
370
    18
100
AcDb2dPolyline
 66
     1
 10
0.0
 20
0.0
 30
0.0
  0
VERTEX
  5
333
330
332
100
AcDbEntity
  8
Ebene 1
 62
   179
420
  1709851
370
    18
100
AcDbVertex
100
AcDb2dVertex
 10
81.79500730377
 20
-82.9311997948054
 30
0.0
  0
VERTEX
  5
334
330
332
100
AcDbEntity
  8
Ebene 1
 62
   179
420
  1709851
370
    18
100
AcDbVertex
100
AcDb2dVertex
 10
81.79500730377
 20
-80.94131264252509
 30
0.0
  0
SEQEND
  5
335
330
332
100
AcDbEntity
  8
Ebene 1
370
    18
  0
POLYLINE
  5
336
330
2AC
100
AcDbEntity
  8
Ebene 1
 62
   179
420
  1709851
370
    18
100
AcDb2dPolyline
 66
     1
 10
0.0
 20
0.0
 30
0.0
  0
VERTEX
  5
337
330
336
100
AcDbEntity
  8
Ebene 1
 62
   179
420
  1709851
370
    18
100
AcDbVertex
100
AcDb2dVertex
 10
81.79500730377
 20
-85.93670109613736
 30
0.0
  0
VERTEX
  5
338
330
336
100
AcDbEntity
  8
Ebene 1
 62
   179
420
  1709851
370
    18
100
AcDbVertex
100
AcDb2dVertex
 10
81.79500730377
 20
-83.92579886139703
 30
0.0
  0
SEQEND
  5
339
330
336
100
AcDbEntity
  8
Ebene 1
370
    18
  0
POLYLINE
  5
33A
330
2AC
100
AcDbEntity
  8
Ebene 1
 62
   179
420
  1709851
370
    18
100
AcDb2dPolyline
 66
     1
 10
0.0
 20
0.0
 30
0.0
  0
VERTEX
  5
33B
330
33A
100
AcDbEntity
  8
Ebene 1
 62
   179
420
  1709851
370
    18
100
AcDbVertex
100
AcDb2dVertex
 10
81.79500730377
 20
-88.94254690701784
 30
0.0
  0
VERTEX
  5
33C
330
33A
100
AcDbEntity
  8
Ebene 1
 62
   179
420
  1709851
370
    18
100
AcDbVertex
100
AcDb2dVertex
 10
81.79500730377
 20
-86.93164467227751
 30
0.0
  0
SEQEND
  5
33D
330
33A
100
AcDbEntity
  8
Ebene 1
370
    18
  0
POLYLINE
  5
33E
330
2AC
100
AcDbEntity
  8
Ebene 1
 62
   179
420
  1709851
370
    18
100
AcDb2dPolyline
 66
     1
 10
0.0
 20
0.0
 30
0.0
  0
VERTEX
  5
33F
330
33E
100
AcDbEntity
  8
Ebene 1
 62
   179
420
  1709851
370
    18
100
AcDbVertex
100
AcDb2dVertex
 10
81.79500730377
 20
-91.92703312588978
 30
0.0
  0
VERTEX
  5
340
330
33E
100
AcDbEntity
  8
Ebene 1
 62
   179
420
  1709851
370
    18
100
AcDbVertex
100
AcDb2dVertex
 10
81.79500730377
 20
-89.93714597360946
 30
0.0
  0
SEQEND
  5
341
330
33E
100
AcDbEntity
  8
Ebene 1
370
    18
  0
POLYLINE
  5
342
330
2AC
100
AcDbEntity
  8
Ebene 1
 62
   179
420
  1709851
370
    18
100
AcDb2dPolyline
 66
     1
 10
0.0
 20
0.0
 30
0.0
  0
VERTEX
  5
343
330
342
100
AcDbEntity
  8
Ebene 1
 62
   179
420
  1709851
370
    18
100
AcDbVertex
100
AcDb2dVertex
 10
81.79500730377
 20
-94.93253442722173
 30
0.0
  0
VERTEX
  5
344
330
342
100
AcDbEntity
  8
Ebene 1
 62
   179
420
  1709851
370
    18
100
AcDbVertex
100
AcDb2dVertex
 10
81.79500730377
 20
-92.94299178448995
 30
0.0
  0
SEQEND
  5
345
330
342
100
AcDbEntity
  8
Ebene 1
370
    18
  0
POLYLINE
  5
346
330
2AC
100
AcDbEntity
  8
Ebene 1
 62
   179
420
  1709851
370
    18
100
AcDb2dPolyline
 66
     1
 10
0.0
 20
0.0
 30
0.0
  0
VERTEX
  5
347
330
346
100
AcDbEntity
  8
Ebene 1
 62
   179
420
  1709851
370
    18
100
AcDbVertex
100
AcDb2dVertex
 10
81.79500730377
 20
-97.93838023810221
 30
0.0
  0
VERTEX
  5
348
330
346
100
AcDbEntity
  8
Ebene 1
 62
   179
420
  1709851
370
    18
100
AcDbVertex
100
AcDb2dVertex
 10
81.79500730377
 20
-95.92747800336188
 30
0.0
  0
SEQEND
  5
349
330
346
100
AcDbEntity
  8
Ebene 1
370
    18
  0
POLYLINE
  5
34A
330
2AC
100
AcDbEntity
  8
Ebene 1
 62
   179
420
  1709851
370
    18
100
AcDb2dPolyline
 66
     1
 10
0.0
 20
0.0
 30
0.0
  0
VERTEX
  5
34B
330
34A
100
AcDbEntity
  8
Ebene 1
 62
   179
420
  1709851
370
    18
100
AcDbVertex
100
AcDb2dVertex
 10
81.79500730377
 20
-100.9438815394342
 30
0.0
  0
VERTEX
  5
34C
330
34A
100
AcDbEntity
  8
Ebene 1
 62
   179
420
  1709851
370
    18
100
AcDbVertex
100
AcDb2dVertex
 10
81.79500730377
 20
-98.93297930469384
 30
0.0
  0
SEQEND
  5
34D
330
34A
100
AcDbEntity
  8
Ebene 1
370
    18
  0
POLYLINE
  5
34E
330
2AC
100
AcDbEntity
  8
Ebene 1
 62
   179
420
  1709851
370
    18
100
AcDb2dPolyline
 66
     1
 10
0.0
 20
0.0
 30
0.0
  0
VERTEX
  5
34F
330
34E
100
AcDbEntity
  8
Ebene 1
 62
   179
420
  1709851
370
    18
100
AcDbVertex
100
AcDb2dVertex
 10
81.79500730377
 20
-103.9283677583061
 30
0.0
  0
VERTEX
  5
350
330
34E
100
AcDbEntity
  8
Ebene 1
 62
   179
420
  1709851
370
    18
100
AcDbVertex
100
AcDb2dVertex
 10
81.79500730377
 20
-101.9388251155743
 30
0.0
  0
SEQEND
  5
351
330
34E
100
AcDbEntity
  8
Ebene 1
370
    18
  0
POLYLINE
  5
352
330
2AC
100
AcDbEntity
  8
Ebene 1
 62
   179
420
  1709851
370
    18
100
AcDb2dPolyline
 66
     1
 10
0.0
 20
0.0
 30
0.0
  0
VERTEX
  5
353
330
352
100
AcDbEntity
  8
Ebene 1
 62
   179
420
  1709851
370
    18
100
AcDbVertex
100
AcDb2dVertex
 10
81.79500730377
 20
-106.9342135691866
 30
0.0
  0
VERTEX
  5
354
330
352
100
AcDbEntity
  8
Ebene 1
 62
   179
420
  1709851
370
    18
100
AcDbVertex
100
AcDb2dVertex
 10
81.79500730377
 20
-104.9443264169063
 30
0.0
  0
SEQEND
  5
355
330
352
100
AcDbEntity
  8
Ebene 1
370
    18
  0
POLYLINE
  5
356
330
2AC
100
AcDbEntity
  8
Ebene 1
 62
   179
420
  1709851
370
    18
100
AcDb2dPolyline
 66
     1
 10
0.0
 20
0.0
 30
0.0
  0
VERTEX
  5
357
330
356
100
AcDbEntity
  8
Ebene 1
 62
   179
420
  1709851
370
    18
100
AcDbVertex
100
AcDb2dVertex
 10
81.79500730377
 20
-109.9397148705185
 30
0.0
  0
VERTEX
  5
358
330
356
100
AcDbEntity
  8
Ebene 1
 62
   179
420
  1709851
370
    18
100
AcDbVertex
100
AcDb2dVertex
 10
81.79500730377
 20
-107.9288126357782
 30
0.0
  0
SEQEND
  5
359
330
356
100
AcDbEntity
  8
Ebene 1
370
    18
  0
POLYLINE
  5
35A
330
2AC
100
AcDbEntity
  8
Ebene 1
 62
   179
420
  1709851
370
    18
100
AcDb2dPolyline
 66
     1
 10
0.0
 20
0.0
 30
0.0
  0
VERTEX
  5
35B
330
35A
100
AcDbEntity
  8
Ebene 1
 62
   179
420
  1709851
370
    18
100
AcDbVertex
100
AcDb2dVertex
 10
81.79500730377
 20
-112.9242010893905
 30
0.0
  0
VERTEX
  5
35C
330
35A
100
AcDbEntity
  8
Ebene 1
 62
   179
420
  1709851
370
    18
100
AcDbVertex
100
AcDb2dVertex
 10
81.79500730377
 20
-110.9350029562072
 30
0.0
  0
SEQEND
  5
35D
330
35A
100
AcDbEntity
  8
Ebene 1
370
    18
  0
POLYLINE
  5
35E
330
2AC
100
AcDbEntity
  8
Ebene 1
 62
   179
420
  1709851
370
    18
100
AcDb2dPolyline
 66
     1
 10
0.0
 20
0.0
 30
0.0
  0
VERTEX
  5
35F
330
35E
100
AcDbEntity
  8
Ebene 1
 62
   179
420
  1709851
370
    18
100
AcDbVertex
100
AcDb2dVertex
 10
81.79500730377
 20
-115.930046900271
 30
0.0
  0
VERTEX
  5
360
330
35E
100
AcDbEntity
  8
Ebene 1
 62
   179
420
  1709851
370
    18
100
AcDbVertex
100
AcDb2dVertex
 10
81.79500730377
 20
-113.9401597479907
 30
0.0
  0
SEQEND
  5
361
330
35E
100
AcDbEntity
  8
Ebene 1
370
    18
  0
POLYLINE
  5
362
330
2AC
100
AcDbEntity
  8
Ebene 1
 62
   179
420
  1709851
370
    18
100
AcDb2dPolyline
 66
     1
 10
0.0
 20
0.0
 30
0.0
  0
VERTEX
  5
363
330
362
100
AcDbEntity
  8
Ebene 1
 62
   179
420
  1709851
370
    18
100
AcDbVertex
100
AcDb2dVertex
 10
81.79500730377
 20
-118.9355482016029
 30
0.0
  0
VERTEX
  5
364
330
362
100
AcDbEntity
  8
Ebene 1
 62
   179
420
  1709851
370
    18
100
AcDbVertex
100
AcDb2dVertex
 10
81.79500730377
 20
-116.9249904764111
 30
0.0
  0
SEQEND
  5
365
330
362
100
AcDbEntity
  8
Ebene 1
370
    18
  0
POLYLINE
  5
366
330
2AC
100
AcDbEntity
  8
Ebene 1
 62
   179
420
  1709851
370
    18
100
AcDb2dPolyline
 66
     1
 10
0.0
 20
0.0
 30
0.0
  0
VERTEX
  5
367
330
366
100
AcDbEntity
  8
Ebene 1
 62
   179
420
  1709851
370
    18
100
AcDbVertex
100
AcDb2dVertex
 10
81.79500730377
 20
-121.9413940124834
 30
0.0
  0
VERTEX
  5
368
330
366
100
AcDbEntity
  8
Ebene 1
 62
   179
420
  1709851
370
    18
100
AcDbVertex
100
AcDb2dVertex
 10
81.79500730377
 20
-119.9308362872916
 30
0.0
  0
SEQEND
  5
369
330
366
100
AcDbEntity
  8
Ebene 1
370
    18
  0
POLYLINE
  5
36A
330
2AC
100
AcDbEntity
  8
Ebene 1
 62
   179
420
  1709851
370
    18
100
AcDb2dPolyline
 66
     1
 10
0.0
 20
0.0
 30
0.0
  0
VERTEX
  5
36B
330
36A
100
AcDbEntity
  8
Ebene 1
 62
   179
420
  1709851
370
    18
100
AcDbVertex
100
AcDb2dVertex
 10
81.79500730377
 20
-124.9258802313553
 30
0.0
  0
VERTEX
  5
36C
330
36A
100
AcDbEntity
  8
Ebene 1
 62
   179
420
  1709851
370
    18
100
AcDbVertex
100
AcDb2dVertex
 10
81.79500730377
 20
-122.935993079075
 30
0.0
  0
SEQEND
  5
36D
330
36A
100
AcDbEntity
  8
Ebene 1
370
    18
  0
POLYLINE
  5
36E
330
2AC
100
AcDbEntity
  8
Ebene 1
 62
   179
420
  1709851
370
    18
100
AcDb2dPolyline
 66
     1
 10
0.0
 20
0.0
 30
0.0
  0
VERTEX
  5
36F
330
36E
100
AcDbEntity
  8
Ebene 1
 62
   179
420
  1709851
370
    18
100
AcDbVertex
100
AcDb2dVertex
 10
81.79500730377
 20
-127.9313815326873
 30
0.0
  0
VERTEX
  5
370
330
36E
100
AcDbEntity
  8
Ebene 1
 62
   179
420
  1709851
370
    18
100
AcDbVertex
100
AcDb2dVertex
 10
81.79500730377
 20
-125.9418388899555
 30
0.0
  0
SEQEND
  5
371
330
36E
100
AcDbEntity
  8
Ebene 1
370
    18
  0
POLYLINE
  5
372
330
2AC
100
AcDbEntity
  8
Ebene 1
 62
   179
420
  1709851
370
    18
100
AcDb2dPolyline
 66
     1
 10
0.0
 20
0.0
 30
0.0
  0
VERTEX
  5
373
330
372
100
AcDbEntity
  8
Ebene 1
 62
   179
420
  1709851
370
    18
100
AcDbVertex
100
AcDb2dVertex
 10
81.79500730377
 20
-130.9372273435678
 30
0.0
  0
VERTEX
  5
374
330
372
100
AcDbEntity
  8
Ebene 1
 62
   179
420
  1709851
370
    18
100
AcDbVertex
100
AcDb2dVertex
 10
81.79500730377
 20
-128.926669618376
 30
0.0
  0
SEQEND
  5
375
330
372
100
AcDbEntity
  8
Ebene 1
370
    18
  0
POLYLINE
  5
376
330
2AC
100
AcDbEntity
  8
Ebene 1
 62
   179
420
  1709851
370
    18
100
AcDb2dPolyline
 66
     1
 10
0.0
 20
0.0
 30
0.0
  0
VERTEX
  5
377
330
376
100
AcDbEntity
  8
Ebene 1
 62
   179
420
  1709851
370
    18
100
AcDbVertex
100
AcDb2dVertex
 10
81.79500730377
 20
-133.9217135624397
 30
0.0
  0
VERTEX
  5
378
330
376
100
AcDbEntity
  8
Ebene 1
 62
   179
420
  1709851
370
    18
100
AcDbVertex
100
AcDb2dVertex
 10
81.79500730377
 20
-131.9318264101594
 30
0.0
  0
SEQEND
  5
379
330
376
100
AcDbEntity
  8
Ebene 1
370
    18
  0
POLYLINE
  5
37A
330
2AC
100
AcDbEntity
  8
Ebene 1
 62
   179
420
  1709851
370
    18
100
AcDb2dPolyline
 66
     1
 10
0.0
 20
0.0
 30
0.0
  0
VERTEX
  5
37B
330
37A
100
AcDbEntity
  8
Ebene 1
 62
   179
420
  1709851
370
    18
100
AcDbVertex
100
AcDb2dVertex
 10
81.79500730377
 20
-136.9272148637717
 30
0.0
  0
VERTEX
  5
37C
330
37A
100
AcDbEntity
  8
Ebene 1
 62
   179
420
  1709851
370
    18
100
AcDbVertex
100
AcDb2dVertex
 10
81.79500730377
 20
-134.9376722210399
 30
0.0
  0
SEQEND
  5
37D
330
37A
100
AcDbEntity
  8
Ebene 1
370
    18
  0
POLYLINE
  5
37E
330
2AC
100
AcDbEntity
  8
Ebene 1
 62
   179
420
  1709851
370
    18
100
AcDb2dPolyline
 66
     1
 10
0.0
 20
0.0
 30
0.0
  0
VERTEX
  5
37F
330
37E
100
AcDbEntity
  8
Ebene 1
 62
   179
420
  1709851
370
    18
100
AcDbVertex
100
AcDb2dVertex
 10
81.79500730377
 20
-139.9330606746522
 30
0.0
  0
VERTEX
  5
380
330
37E
100
AcDbEntity
  8
Ebene 1
 62
   179
420
  1709851
370
    18
100
AcDbVertex
100
AcDb2dVertex
 10
81.79500730377
 20
-137.9221584399118
 30
0.0
  0
SEQEND
  5
381
330
37E
100
AcDbEntity
  8
Ebene 1
370
    18
  0
POLYLINE
  5
382
330
2AC
100
AcDbEntity
  8
Ebene 1
 62
   179
420
  1709851
370
    18
100
AcDb2dPolyline
 66
     1
 10
0.0
 20
0.0
 30
0.0
  0
VERTEX
  5
383
330
382
100
AcDbEntity
  8
Ebene 1
 62
   179
420
  1709851
370
    18
100
AcDbVertex
100
AcDb2dVertex
 10
81.79500730377
 20
-142.9385619759841
 30
0.0
  0
VERTEX
  5
384
330
382
100
AcDbEntity
  8
Ebene 1
 62
   179
420
  1709851
370
    18
100
AcDbVertex
100
AcDb2dVertex
 10
81.79500730377
 20
-140.9276597412438
 30
0.0
  0
SEQEND
  5
385
330
382
100
AcDbEntity
  8
Ebene 1
370
    18
  0
POLYLINE
  5
386
330
2AC
100
AcDbEntity
  8
Ebene 1
 62
   179
420
  1709851
370
    18
100
AcDb2dPolyline
 66
     1
 10
0.0
 20
0.0
 30
0.0
  0
VERTEX
  5
387
330
386
100
AcDbEntity
  8
Ebene 1
 62
   179
420
  1709851
370
    18
100
AcDbVertex
100
AcDb2dVertex
 10
81.79500730377
 20
-145.9230481948561
 30
0.0
  0
VERTEX
  5
388
330
386
100
AcDbEntity
  8
Ebene 1
 62
   179
420
  1709851
370
    18
100
AcDbVertex
100
AcDb2dVertex
 10
81.79500730377
 20
-143.9335055521243
 30
0.0
  0
SEQEND
  5
389
330
386
100
AcDbEntity
  8
Ebene 1
370
    18
  0
POLYLINE
  5
38A
330
2AC
100
AcDbEntity
  8
Ebene 1
 62
   179
420
  1709851
370
    18
100
AcDb2dPolyline
 66
     1
 10
0.0
 20
0.0
 30
0.0
  0
VERTEX
  5
38B
330
38A
100
AcDbEntity
  8
Ebene 1
 62
   179
420
  1709851
370
    18
100
AcDbVertex
100
AcDb2dVertex
 10
81.79500730377
 20
-148.9287217509623
 30
0.0
  0
VERTEX
  5
38C
330
38A
100
AcDbEntity
  8
Ebene 1
 62
   179
420
  1709851
370
    18
100
AcDbVertex
100
AcDb2dVertex
 10
81.79500730377
 20
-146.9390068534562
 30
0.0
  0
SEQEND
  5
38D
330
38A
100
AcDbEntity
  8
Ebene 1
370
    18
  0
POLYLINE
  5
38E
330
2AC
100
AcDbEntity
  8
Ebene 1
 62
   179
420
  1709851
370
    18
100
AcDb2dPolyline
 66
     1
 10
0.0
 20
0.0
 30
0.0
  0
VERTEX
  5
38F
330
38E
100
AcDbEntity
  8
Ebene 1
 62
   179
420
  1709851
370
    18
100
AcDbVertex
100
AcDb2dVertex
 10
81.79500730377
 20
-151.9342230522942
 30
0.0
  0
VERTEX
  5
390
330
38E
100
AcDbEntity
  8
Ebene 1
 62
   179
420
  1709851
370
    18
100
AcDbVertex
100
AcDb2dVertex
 10
81.79500730377
 20
-149.9236653271024
 30
0.0
  0
SEQEND
  5
391
330
38E
100
AcDbEntity
  8
Ebene 1
370
    18
  0
POLYLINE
  5
392
330
2AC
100
AcDbEntity
  8
Ebene 1
 62
   179
420
  1709851
370
    18
100
AcDb2dPolyline
 66
     1
 10
0.0
 20
0.0
 30
0.0
  0
VERTEX
  5
393
330
392
100
AcDbEntity
  8
Ebene 1
 62
   179
420
  1709851
370
    18
100
AcDbVertex
100
AcDb2dVertex
 10
81.79500730377
 20
-154.9404133727232
 30
0.0
  0
VERTEX
  5
394
330
392
100
AcDbEntity
  8
Ebene 1
 62
   179
420
  1709851
370
    18
100
AcDbVertex
100
AcDb2dVertex
 10
81.79500730377
 20
-152.9291666284344
 30
0.0
  0
SEQEND
  5
395
330
392
100
AcDbEntity
  8
Ebene 1
370
    18
  0
POLYLINE
  5
396
330
2AC
100
AcDbEntity
  8
Ebene 1
 62
   179
420
  1709851
370
    18
100
AcDb2dPolyline
 66
     1
 10
0.0
 20
0.0
 30
0.0
  0
VERTEX
  5
397
330
396
100
AcDbEntity
  8
Ebene 1
 62
   179
420
  1709851
370
    18
100
AcDbVertex
100
AcDb2dVertex
 10
81.79500730377
 20
-157.9245550820467
 30
0.0
  0
VERTEX
  5
398
330
396
100
AcDbEntity
  8
Ebene 1
 62
   179
420
  1709851
370
    18
100
AcDbVertex
100
AcDb2dVertex
 10
81.79500730377
 20
-155.9346679297663
 30
0.0
  0
SEQEND
  5
399
330
396
100
AcDbEntity
  8
Ebene 1
370
    18
  0
POLYLINE
  5
39A
330
2AC
100
AcDbEntity
  8
Ebene 1
 62
   179
420
  1709851
370
    18
100
AcDb2dPolyline
 66
     1
 10
0.0
 20
0.0
 30
0.0
  0
VERTEX
  5
39B
330
39A
100
AcDbEntity
  8
Ebene 1
 62
   179
420
  1709851
370
    18
100
AcDbVertex
100
AcDb2dVertex
 10
81.79500730377
 20
-160.9300563833786
 30
0.0
  0
VERTEX
  5
39C
330
39A
100
AcDbEntity
  8
Ebene 1
 62
   179
420
  1709851
370
    18
100
AcDbVertex
100
AcDb2dVertex
 10
81.79500730377
 20
-158.9194986581868
 30
0.0
  0
SEQEND
  5
39D
330
39A
100
AcDbEntity
  8
Ebene 1
370
    18
  0
POLYLINE
  5
39E
330
2AC
100
AcDbEntity
  8
Ebene 1
 62
   179
420
  1709851
370
    18
100
AcDb2dPolyline
 66
     1
 10
0.0
 20
0.0
 30
0.0
  0
VERTEX
  5
39F
330
39E
100
AcDbEntity
  8
Ebene 1
 62
   179
420
  1709851
370
    18
100
AcDbVertex
100
AcDb2dVertex
 10
81.79500730377
 20
-163.9362467038076
 30
0.0
  0
VERTEX
  5
3A0
330
39E
100
AcDbEntity
  8
Ebene 1
 62
   179
420
  1709851
370
    18
100
AcDbVertex
100
AcDb2dVertex
 10
81.79500730377
 20
-161.9256889786158
 30
0.0
  0
SEQEND
  5
3A1
330
39E
100
AcDbEntity
  8
Ebene 1
370
    18
  0
POLYLINE
  5
3A2
330
2AC
100
AcDbEntity
  8
Ebene 1
 62
   179
420
  1709851
370
    18
100
AcDb2dPolyline
 66
     1
 10
0.0
 20
0.0
 30
0.0
  0
VERTEX
  5
3A3
330
3A2
100
AcDbEntity
  8
Ebene 1
 62
   179
420
  1709851
370
    18
100
AcDbVertex
100
AcDb2dVertex
 10
81.79500730377
 20
-166.920388413131
 30
0.0
  0
VERTEX
  5
3A4
330
3A2
100
AcDbEntity
  8
Ebene 1
 62
   179
420
  1709851
370
    18
100
AcDbVertex
100
AcDb2dVertex
 10
81.79500730377
 20
-164.9305012608507
 30
0.0
  0
SEQEND
  5
3A5
330
3A2
100
AcDbEntity
  8
Ebene 1
370
    18
  0
POLYLINE
  5
3A6
330
2AC
100
AcDbEntity
  8
Ebene 1
 62
   179
420
  1709851
370
    18
100
AcDb2dPolyline
 66
     1
 10
0.0
 20
0.0
 30
0.0
  0
VERTEX
  5
3A7
330
3A6
100
AcDbEntity
  8
Ebene 1
 62
   179
420
  1709851
370
    18
100
AcDbVertex
100
AcDb2dVertex
 10
81.79500730377
 20
-169.925889714463
 30
0.0
  0
VERTEX
  5
3A8
330
3A6
100
AcDbEntity
  8
Ebene 1
 62
   179
420
  1709851
370
    18
100
AcDbVertex
100
AcDb2dVertex
 10
81.79500730377
 20
-167.9366915812797
 30
0.0
  0
SEQEND
  5
3A9
330
3A6
100
AcDbEntity
  8
Ebene 1
370
    18
  0
POLYLINE
  5
3AA
330
2AC
100
AcDbEntity
  8
Ebene 1
 62
   179
420
  1709851
370
    18
100
AcDb2dPolyline
 66
     1
 10
0.0
 20
0.0
 30
0.0
  0
VERTEX
  5
3AB
330
3AA
100
AcDbEntity
  8
Ebene 1
 62
   179
420
  1709851
370
    18
100
AcDbVertex
100
AcDb2dVertex
 10
81.79500730377
 20
-172.932080034892
 30
0.0
  0
VERTEX
  5
3AC
330
3AA
100
AcDbEntity
  8
Ebene 1
 62
   179
420
  1709851
370
    18
100
AcDbVertex
100
AcDb2dVertex
 10
81.79500730377
 20
-170.9215223097002
 30
0.0
  0
SEQEND
  5
3AD
330
3AA
100
AcDbEntity
  8
Ebene 1
370
    18
  0
POLYLINE
  5
3AE
330
2AC
100
AcDbEntity
  8
Ebene 1
 62
   179
420
  1709851
370
    18
100
AcDb2dPolyline
 66
     1
 10
0.0
 20
0.0
 30
0.0
  0
VERTEX
  5
3AF
330
3AE
100
AcDbEntity
  8
Ebene 1
 62
   179
420
  1709851
370
    18
100
AcDbVertex
100
AcDb2dVertex
 10
81.79500730377
 20
-175.937581336224
 30
0.0
  0
VERTEX
  5
3B0
330
3AE
100
AcDbEntity
  8
Ebene 1
 62
   179
420
  1709851
370
    18
100
AcDbVertex
100
AcDb2dVertex
 10
81.79500730377
 20
-173.9263345919351
 30
0.0
  0
SEQEND
  5
3B1
330
3AE
100
AcDbEntity
  8
Ebene 1
370
    18
  0
POLYLINE
  5
3B2
330
2AC
100
AcDbEntity
  8
Ebene 1
 62
   179
420
  1709851
370
    18
100
AcDb2dPolyline
 66
     1
 10
0.0
 20
0.0
 30
0.0
  0
VERTEX
  5
3B3
330
3B2
100
AcDbEntity
  8
Ebene 1
 62
   179
420
  1709851
370
    18
100
AcDbVertex
100
AcDb2dVertex
 10
81.79500730377
 20
-177.5884710927557
 30
0.0
  0
VERTEX
  5
3B4
330
3B2
100
AcDbEntity
  8
Ebene 1
 62
   179
420
  1709851
370
    18
100
AcDbVertex
100
AcDb2dVertex
 10
81.79500730377
 20
-177.5884710927557
 30
0.0
  0
VERTEX
  5
3B5
330
3B2
100
AcDbEntity
  8
Ebene 1
 62
   179
420
  1709851
370
    18
100
AcDbVertex
100
AcDb2dVertex
 10
81.79500730377
 20
-176.9325249123641
 30
0.0
  0
SEQEND
  5
3B6
330
3B2
100
AcDbEntity
  8
Ebene 1
370
    18
  0
POLYLINE
  5
3B7
330
2AC
100
AcDbEntity
  8
Ebene 1
 62
   179
420
  1709851
370
    18
100
AcDb2dPolyline
 66
     1
 10
0.0
 20
0.0
 30
0.0
  0
VERTEX
  5
3B8
330
3B7
100
AcDbEntity
  8
Ebene 1
 62
   179
420
  1709851
370
    18
100
AcDbVertex
100
AcDb2dVertex
 10
68.81974417767354
 20
-178.7949435316902
 30
0.0
  0
VERTEX
  5
3B9
330
3B7
100
AcDbEntity
  8
Ebene 1
 62
   179
420
  1709851
370
    18
100
AcDbVertex
100
AcDb2dVertex
 10
68.86211885214212
 20
-178.9430826375559
 30
0.0
  0
VERTEX
  5
3BA
330
3B7
100
AcDbEntity
  8
Ebene 1
 62
   179
420
  1709851
370
    18
100
AcDbVertex
100
AcDb2dVertex
 10
68.96788328353928
 20
-179.0491915785016
 30
0.0
  0
VERTEX
  5
3BB
330
3B7
100
AcDbEntity
  8
Ebene 1
 62
   179
420
  1709851
370
    18
100
AcDbVertex
100
AcDb2dVertex
 10
69.11619464417929
 20
-179.0912217434216
 30
0.0
  0
SEQEND
  5
3BC
330
3B7
100
AcDbEntity
  8
Ebene 1
370
    18
  0
POLYLINE
  5
3BD
330
2AC
100
AcDbEntity
  8
Ebene 1
 62
   179
420
  1709851
370
    18
100
AcDb2dPolyline
 66
     1
 10
0.0
 20
0.0
 30
0.0
  0
VERTEX
  5
3BE
330
3BD
100
AcDbEntity
  8
Ebene 1
 62
   179
420
  1709851
370
    18
100
AcDbVertex
100
AcDb2dVertex
 10
70.02621661660804
 20
-178.8590223077158
 30
0.0
  0
VERTEX
  5
3BF
330
3BD
100
AcDbEntity
  8
Ebene 1
 62
   179
420
  1709851
370
    18
100
AcDbVertex
100
AcDb2dVertex
 10
69.24314641281075
 20
-178.8590223077158
 30
0.0
  0
SEQEND
  5
3C0
330
3BD
100
AcDbEntity
  8
Ebene 1
370
    18
  0
POLYLINE
  5
3C1
330
2AC
100
AcDbEntity
  8
Ebene 1
 62
   179
420
  1709851
370
    18
100
AcDb2dPolyline
 66
     1
 10
0.0
 20
0.0
 30
0.0
  0
VERTEX
  5
3C2
330
3C1
100
AcDbEntity
  8
Ebene 1
 62
   179
420
  1709851
370
    18
100
AcDbVertex
100
AcDb2dVertex
 10
69.11619464417929
 20
-179.0912217434216
 30
0.0
  0
VERTEX
  5
3C3
330
3C1
100
AcDbEntity
  8
Ebene 1
 62
   179
420
  1709851
370
    18
100
AcDbVertex
100
AcDb2dVertex
 10
70.02621661660804
 20
-179.0912217434216
 30
0.0
  0
SEQEND
  5
3C4
330
3C1
100
AcDbEntity
  8
Ebene 1
370
    18
  0
POLYLINE
  5
3C5
330
2AC
100
AcDbEntity
  8
Ebene 1
 62
   179
420
  1709851
370
    18
100
AcDb2dPolyline
 66
     1
 10
0.0
 20
0.0
 30
0.0
  0
VERTEX
  5
3C6
330
3C5
100
AcDbEntity
  8
Ebene 1
 62
   179
420
  1709851
370
    18
100
AcDbVertex
100
AcDb2dVertex
 10
69.05263263247643
 20
-178.6468044258244
 30
0.0
  0
VERTEX
  5
3C7
330
3C5
100
AcDbEntity
  8
Ebene 1
 62
   179
420
  1709851
370
    18
100
AcDbVertex
100
AcDb2dVertex
 10
69.07381996971071
 20
-176.6996364575612
 30
0.0
  0
SEQEND
  5
3C8
330
3C5
100
AcDbEntity
  8
Ebene 1
370
    18
  0
POLYLINE
  5
3C9
330
2AC
100
AcDbEntity
  8
Ebene 1
 62
   179
420
  1709851
370
    18
100
AcDb2dPolyline
 66
     1
 10
0.0
 20
0.0
 30
0.0
  0
VERTEX
  5
3CA
330
3C9
100
AcDbEntity
  8
Ebene 1
 62
   179
420
  1709851
370
    18
100
AcDbVertex
100
AcDb2dVertex
 10
68.81974417767354
 20
-176.6996364575612
 30
0.0
  0
VERTEX
  5
3CB
330
3C9
100
AcDbEntity
  8
Ebene 1
 62
   179
420
  1709851
370
    18
100
AcDbVertex
100
AcDb2dVertex
 10
68.81974417767354
 20
-178.7949435316902
 30
0.0
  0
SEQEND
  5
3CC
330
3C9
100
AcDbEntity
  8
Ebene 1
370
    18
  0
POLYLINE
  5
3CD
330
2AC
100
AcDbEntity
  8
Ebene 1
 62
   179
420
  1709851
370
    18
100
AcDb2dPolyline
 66
     1
 10
0.0
 20
0.0
 30
0.0
  0
VERTEX
  5
3CE
330
3CD
100
AcDbEntity
  8
Ebene 1
 62
   179
420
  1709851
370
    18
100
AcDbVertex
100
AcDb2dVertex
 10
69.05263263247643
 20
-178.6468044258244
 30
0.0
  0
VERTEX
  5
3CF
330
3CD
100
AcDbEntity
  8
Ebene 1
 62
   179
420
  1709851
370
    18
100
AcDbVertex
100
AcDb2dVertex
 10
69.095007306945
 20
-178.7735839396816
 30
0.0
  0
VERTEX
  5
3D0
330
3CD
100
AcDbEntity
  8
Ebene 1
 62
   179
420
  1709851
370
    18
100
AcDbVertex
100
AcDb2dVertex
 10
69.20077173834217
 20
-178.8369736966102
 30
0.0
  0
VERTEX
  5
3D1
330
3CD
100
AcDbEntity
  8
Ebene 1
 62
   179
420
  1709851
370
    18
100
AcDbVertex
100
AcDb2dVertex
 10
69.24314641281075
 20
-178.8590223077158
 30
0.0
  0
SEQEND
  5
3D2
330
3CD
100
AcDbEntity
  8
Ebene 1
370
    18
  0
POLYLINE
  5
3D3
330
2AC
100
AcDbEntity
  8
Ebene 1
 62
   179
420
  1709851
370
    18
100
AcDb2dPolyline
 66
     1
 10
0.0
 20
0.0
 30
0.0
  0
VERTEX
  5
3D4
330
3D3
100
AcDbEntity
  8
Ebene 1
 62
   179
420
  1709851
370
    18
100
AcDbVertex
100
AcDb2dVertex
 10
69.07381996971071
 20
-176.6996364575612
 30
0.0
  0
VERTEX
  5
3D5
330
3D3
100
AcDbEntity
  8
Ebene 1
 62
   179
420
  1709851
370
    18
100
AcDbVertex
100
AcDb2dVertex
 10
68.81974417767354
 20
-176.6996364575612
 30
0.0
  0
SEQEND
  5
3D6
330
3D3
100
AcDbEntity
  8
Ebene 1
370
    18
  0
POLYLINE
  5
3D7
330
2AC
100
AcDbEntity
  8
Ebene 1
 62
   179
420
  1709851
370
    18
100
AcDb2dPolyline
 66
     1
 10
0.0
 20
0.0
 30
0.0
  0
VERTEX
  5
3D8
330
3D7
100
AcDbEntity
  8
Ebene 1
 62
   179
420
  1709851
370
    18
100
AcDbVertex
100
AcDb2dVertex
 10
71.29625106724538
 20
-179.0912217434216
 30
0.0
  0
VERTEX
  5
3D9
330
3D7
100
AcDbEntity
  8
Ebene 1
 62
   179
420
  1709851
370
    18
100
AcDbVertex
100
AcDb2dVertex
 10
71.14811196137964
 20
-179.0278319864931
 30
0.0
  0
VERTEX
  5
3DA
330
3D7
100
AcDbEntity
  8
Ebene 1
 62
   179
420
  1709851
370
    18
100
AcDbVertex
100
AcDb2dVertex
 10
70.97878551827961
 20
-179.0698621514131
 30
0.0
  0
VERTEX
  5
3DB
330
3D7
100
AcDbEntity
  8
Ebene 1
 62
   179
420
  1709851
370
    18
100
AcDbVertex
100
AcDb2dVertex
 10
70.93641084381105
 20
-179.0912217434216
 30
0.0
  0
SEQEND
  5
3DC
330
3D7
100
AcDbEntity
  8
Ebene 1
370
    18
  0
POLYLINE
  5
3DD
330
2AC
100
AcDbEntity
  8
Ebene 1
 62
   179
420
  1709851
370
    18
100
AcDb2dPolyline
 66
     1
 10
0.0
 20
0.0
 30
0.0
  0
VERTEX
  5
3DE
330
3DD
100
AcDbEntity
  8
Ebene 1
 62
   179
420
  1709851
370
    18
100
AcDbVertex
100
AcDb2dVertex
 10
71.29625106724538
 20
-168.8255262164742
 30
0.0
  0
VERTEX
  5
3DF
330
3DD
100
AcDbEntity
  8
Ebene 1
 62
   179
420
  1709851
370
    18
100
AcDbVertex
100
AcDb2dVertex
 10
71.10573728691107
 20
-168.9309461383228
 30
0.0
  0
VERTEX
  5
3E0
330
3DD
100
AcDbEntity
  8
Ebene 1
 62
   179
420
  1709851
370
    18
100
AcDbVertex
100
AcDb2dVertex
 10
70.97878551827961
 20
-169.1011338552942
 30
0.0
  0
VERTEX
  5
3E1
330
3DD
100
AcDbEntity
  8
Ebene 1
 62
   179
420
  1709851
370
    18
100
AcDbVertex
100
AcDb2dVertex
 10
70.91522350657675
 20
-169.3340223100971
 30
0.0
  0
VERTEX
  5
3E2
330
3DD
100
AcDbEntity
  8
Ebene 1
 62
   179
420
  1709851
370
    18
100
AcDbVertex
100
AcDb2dVertex
 10
70.93641084381105
 20
-169.5448621537944
 30
0.0
  0
VERTEX
  5
3E3
330
3DD
100
AcDbEntity
  8
Ebene 1
 62
   179
420
  1709851
370
    18
100
AcDbVertex
100
AcDb2dVertex
 10
71.02116019274818
 20
-169.7570800356857
 30
0.0
  0
VERTEX
  5
3E4
330
3DD
100
AcDbEntity
  8
Ebene 1
 62
   179
420
  1709851
370
    18
100
AcDbVertex
100
AcDb2dVertex
 10
71.19048663584822
 20
-169.9052191415515
 30
0.0
  0
VERTEX
  5
3E5
330
3DD
100
AcDbEntity
  8
Ebene 1
 62
   179
420
  1709851
370
    18
100
AcDbVertex
100
AcDb2dVertex
 10
71.29625106724538
 20
-169.9472493064715
 30
0.0
  0
SEQEND
  5
3E6
330
3DD
100
AcDbEntity
  8
Ebene 1
370
    18
  0
POLYLINE
  5
3E7
330
2AC
100
AcDbEntity
  8
Ebene 1
 62
   179
420
  1709851
370
    18
100
AcDb2dPolyline
 66
     1
 10
0.0
 20
0.0
 30
0.0
  0
VERTEX
  5
3E8
330
3E7
100
AcDbEntity
  8
Ebene 1
 62
   179
420
  1709851
370
    18
100
AcDbVertex
100
AcDb2dVertex
 10
71.29625106724538
 20
-172.9107204428834
 30
0.0
  0
VERTEX
  5
3E9
330
3E7
100
AcDbEntity
  8
Ebene 1
 62
   179
420
  1709851
370
    18
100
AcDbVertex
100
AcDb2dVertex
 10
71.16929929861392
 20
-172.974110199812
 30
0.0
  0
VERTEX
  5
3EA
330
3E7
100
AcDbEntity
  8
Ebene 1
 62
   179
420
  1709851
370
    18
100
AcDbVertex
100
AcDb2dVertex
 10
71.06353486721676
 20
-173.1008897136692
 30
0.0
  0
VERTEX
  5
3EB
330
3E7
100
AcDbEntity
  8
Ebene 1
 62
   179
420
  1709851
370
    18
100
AcDbVertex
100
AcDb2dVertex
 10
71.04234752998248
 20
-173.2069986546149
 30
0.0
  0
SEQEND
  5
3EC
330
3E7
100
AcDbEntity
  8
Ebene 1
370
    18
  0
POLYLINE
  5
3ED
330
2AC
100
AcDbEntity
  8
Ebene 1
 62
   179
420
  1709851
370
    18
100
AcDb2dPolyline
 66
     1
 10
0.0
 20
0.0
 30
0.0
  0
VERTEX
  5
3EE
330
3ED
100
AcDbEntity
  8
Ebene 1
 62
   179
420
  1709851
370
    18
100
AcDbVertex
100
AcDb2dVertex
 10
71.04234752998248
 20
-173.2069986546149
 30
0.0
  0
VERTEX
  5
3EF
330
3ED
100
AcDbEntity
  8
Ebene 1
 62
   179
420
  1709851
370
    18
100
AcDbVertex
100
AcDb2dVertex
 10
71.04234752998248
 20
-176.4453884107498
 30
0.0
  0
SEQEND
  5
3F0
330
3ED
100
AcDbEntity
  8
Ebene 1
370
    18
  0
POLYLINE
  5
3F1
330
2AC
100
AcDbEntity
  8
Ebene 1
 62
   179
420
  1709851
370
    18
100
AcDb2dPolyline
 66
     1
 10
0.0
 20
0.0
 30
0.0
  0
VERTEX
  5
3F2
330
3F1
100
AcDbEntity
  8
Ebene 1
 62
   179
420
  1709851
370
    18
100
AcDbVertex
100
AcDb2dVertex
 10
71.04234752998248
 20
-176.4453884107498
 30
0.0
  0
VERTEX
  5
3F3
330
3F1
100
AcDbEntity
  8
Ebene 1
 62
   179
420
  1709851
370
    18
100
AcDbVertex
100
AcDb2dVertex
 10
71.08454994967678
 20
-176.6148871086241
 30
0.0
  0
VERTEX
  5
3F4
330
3F1
100
AcDbEntity
  8
Ebene 1
 62
   179
420
  1709851
370
    18
100
AcDbVertex
100
AcDb2dVertex
 10
71.2116739730825
 20
-176.7203070304727
 30
0.0
  0
VERTEX
  5
3F5
330
3F1
100
AcDbEntity
  8
Ebene 1
 62
   179
420
  1709851
370
    18
100
AcDbVertex
100
AcDb2dVertex
 10
71.29625106724538
 20
-176.7423556415783
 30
0.0
  0
SEQEND
  5
3F6
330
3F1
100
AcDbEntity
  8
Ebene 1
370
    18
  0
POLYLINE
  5
3F7
330
2AC
100
AcDbEntity
  8
Ebene 1
 62
   179
420
  1709851
370
    18
100
AcDb2dPolyline
 66
     1
 10
0.0
 20
0.0
 30
0.0
  0
VERTEX
  5
3F8
330
3F7
100
AcDbEntity
  8
Ebene 1
 62
   179
420
  1709851
370
    18
100
AcDbVertex
100
AcDb2dVertex
 10
71.84660507101404
 20
-176.8050563794098
 30
0.0
  0
VERTEX
  5
3F9
330
3F7
100
AcDbEntity
  8
Ebene 1
 62
   179
420
  1709851
370
    18
100
AcDbVertex
100
AcDb2dVertex
 10
71.80423039654548
 20
-176.6569172735441
 30
0.0
  0
VERTEX
  5
3FA
330
3F7
100
AcDbEntity
  8
Ebene 1
 62
   179
420
  1709851
370
    18
100
AcDbVertex
100
AcDb2dVertex
 10
71.78304305931118
 20
-176.6362467006326
 30
0.0
  0
SEQEND
  5
3FB
330
3F7
100
AcDbEntity
  8
Ebene 1
370
    18
  0
POLYLINE
  5
3FC
330
2AC
100
AcDbEntity
  8
Ebene 1
 62
   179
420
  1709851
370
    18
100
AcDb2dPolyline
 66
     1
 10
0.0
 20
0.0
 30
0.0
  0
VERTEX
  5
3FD
330
3FC
100
AcDbEntity
  8
Ebene 1
 62
   179
420
  1709851
370
    18
100
AcDbVertex
100
AcDb2dVertex
 10
71.50795218481399
 20
-178.8583332886188
 30
0.0
  0
VERTEX
  5
3FE
330
3FC
100
AcDbEntity
  8
Ebene 1
 62
   179
420
  1709851
370
    18
100
AcDbVertex
100
AcDb2dVertex
 10
71.59270153375114
 20
-178.8163031236987
 30
0.0
  0
VERTEX
  5
3FF
330
3FC
100
AcDbEntity
  8
Ebene 1
 62
   179
420
  1709851
370
    18
100
AcDbVertex
100
AcDb2dVertex
 10
71.61371661621116
 20
-178.7529133667701
 30
0.0
  0
SEQEND
  5
400
330
3FC
100
AcDbEntity
  8
Ebene 1
370
    18
  0
POLYLINE
  5
401
330
2AC
100
AcDbEntity
  8
Ebene 1
 62
   179
420
  1709851
370
    18
100
AcDb2dPolyline
 66
     1
 10
0.0
 20
0.0
 30
0.0
  0
VERTEX
  5
402
330
401
100
AcDbEntity
  8
Ebene 1
 62
   179
420
  1709851
370
    18
100
AcDbVertex
100
AcDb2dVertex
 10
71.29625106724538
 20
-177.207443532087
 30
0.0
  0
VERTEX
  5
403
330
401
100
AcDbEntity
  8
Ebene 1
 62
   179
420
  1709851
370
    18
100
AcDbVertex
100
AcDb2dVertex
 10
71.10573728691107
 20
-177.3342230459442
 30
0.0
  0
VERTEX
  5
404
330
401
100
AcDbEntity
  8
Ebene 1
 62
   179
420
  1709851
370
    18
100
AcDbVertex
100
AcDb2dVertex
 10
70.97878551827961
 20
-177.5037217438185
 30
0.0
  0
VERTEX
  5
405
330
401
100
AcDbEntity
  8
Ebene 1
 62
   179
420
  1709851
370
    18
100
AcDbVertex
100
AcDb2dVertex
 10
70.91522350657675
 20
-177.7152506066129
 30
0.0
  0
VERTEX
  5
406
330
401
100
AcDbEntity
  8
Ebene 1
 62
   179
420
  1709851
370
    18
100
AcDbVertex
100
AcDb2dVertex
 10
70.93641084381105
 20
-177.9488280805128
 30
0.0
  0
VERTEX
  5
407
330
401
100
AcDbEntity
  8
Ebene 1
 62
   179
420
  1709851
370
    18
100
AcDbVertex
100
AcDb2dVertex
 10
71.02116019274818
 20
-178.1389973512986
 30
0.0
  0
VERTEX
  5
408
330
401
100
AcDbEntity
  8
Ebene 1
 62
   179
420
  1709851
370
    18
100
AcDbVertex
100
AcDb2dVertex
 10
71.19048663584822
 20
-178.2871364571643
 30
0.0
  0
VERTEX
  5
409
330
401
100
AcDbEntity
  8
Ebene 1
 62
   179
420
  1709851
370
    18
100
AcDbVertex
100
AcDb2dVertex
 10
71.29625106724538
 20
-178.3505262140929
 30
0.0
  0
SEQEND
  5
40A
330
401
100
AcDbEntity
  8
Ebene 1
370
    18
  0
POLYLINE
  5
40B
330
2AC
100
AcDbEntity
  8
Ebene 1
 62
   179
420
  1709851
370
    18
100
AcDb2dPolyline
 66
     1
 10
0.0
 20
0.0
 30
0.0
  0
VERTEX
  5
40C
330
40B
100
AcDbEntity
  8
Ebene 1
 62
   179
420
  1709851
370
    18
100
AcDbVertex
100
AcDb2dVertex
 10
71.61371661621116
 20
-178.5620550768873
 30
0.0
  0
VERTEX
  5
40D
330
40B
100
AcDbEntity
  8
Ebene 1
 62
   179
420
  1709851
370
    18
100
AcDbVertex
100
AcDb2dVertex
 10
71.61371661621116
 20
-178.7529133667701
 30
0.0
  0
SEQEND
  5
40E
330
40B
100
AcDbEntity
  8
Ebene 1
370
    18
  0
POLYLINE
  5
40F
330
2AC
100
AcDbEntity
  8
Ebene 1
 62
   179
420
  1709851
370
    18
100
AcDb2dPolyline
 66
     1
 10
0.0
 20
0.0
 30
0.0
  0
VERTEX
  5
410
330
40F
100
AcDbEntity
  8
Ebene 1
 62
   179
420
  1709851
370
    18
100
AcDbVertex
100
AcDb2dVertex
 10
71.29625106724538
 20
-178.7315537747616
 30
0.0
  0
VERTEX
  5
411
330
40F
100
AcDbEntity
  8
Ebene 1
 62
   179
420
  1709851
370
    18
100
AcDbVertex
100
AcDb2dVertex
 10
71.55032685928256
 20
-178.2237467002358
 30
0.0
  0
SEQEND
  5
412
330
40F
100
AcDbEntity
  8
Ebene 1
370
    18
  0
POLYLINE
  5
413
330
2AC
100
AcDbEntity
  8
Ebene 1
 62
   179
420
  1709851
370
    18
100
AcDb2dPolyline
 66
     1
 10
0.0
 20
0.0
 30
0.0
  0
VERTEX
  5
414
330
413
100
AcDbEntity
  8
Ebene 1
 62
   179
420
  1709851
370
    18
100
AcDbVertex
100
AcDb2dVertex
 10
71.50795218481399
 20
-178.7735839396816
 30
0.0
  0
VERTEX
  5
415
330
413
100
AcDbEntity
  8
Ebene 1
 62
   179
420
  1709851
370
    18
100
AcDbVertex
100
AcDb2dVertex
 10
71.78304305931118
 20
-178.1810275162186
 30
0.0
  0
SEQEND
  5
416
330
413
100
AcDbEntity
  8
Ebene 1
370
    18
  0
POLYLINE
  5
417
330
2AC
100
AcDbEntity
  8
Ebene 1
 62
   179
420
  1709851
370
    18
100
AcDb2dPolyline
 66
     1
 10
0.0
 20
0.0
 30
0.0
  0
VERTEX
  5
418
330
417
100
AcDbEntity
  8
Ebene 1
 62
   179
420
  1709851
370
    18
100
AcDbVertex
100
AcDb2dVertex
 10
71.84660507101404
 20
-178.7949435316902
 30
0.0
  0
VERTEX
  5
419
330
417
100
AcDbEntity
  8
Ebene 1
 62
   179
420
  1709851
370
    18
100
AcDbVertex
100
AcDb2dVertex
 10
71.84660507101404
 20
-176.8050563794098
 30
0.0
  0
SEQEND
  5
41A
330
417
100
AcDbEntity
  8
Ebene 1
370
    18
  0
POLYLINE
  5
41B
330
2AC
100
AcDbEntity
  8
Ebene 1
 62
   179
420
  1709851
370
    18
100
AcDb2dPolyline
 66
     1
 10
0.0
 20
0.0
 30
0.0
  0
VERTEX
  5
41C
330
41B
100
AcDbEntity
  8
Ebene 1
 62
   179
420
  1709851
370
    18
100
AcDbVertex
100
AcDb2dVertex
 10
71.50795218481399
 20
-168.381108898877
 30
0.0
  0
VERTEX
  5
41D
330
41B
100
AcDbEntity
  8
Ebene 1
 62
   179
420
  1709851
370
    18
100
AcDbVertex
100
AcDb2dVertex
 10
71.78304305931118
 20
-168.9736653223399
 30
0.0
  0
VERTEX
  5
41E
330
41B
100
AcDbEntity
  8
Ebene 1
 62
   179
420
  1709851
370
    18
100
AcDbVertex
100
AcDb2dVertex
 10
71.78304305931118
 20
-178.1810275162186
 30
0.0
  0
SEQEND
  5
41F
330
41B
100
AcDbEntity
  8
Ebene 1
370
    18
  0
POLYLINE
  5
420
330
2AC
100
AcDbEntity
  8
Ebene 1
 62
   179
420
  1709851
370
    18
100
AcDb2dPolyline
 66
     1
 10
0.0
 20
0.0
 30
0.0
  0
VERTEX
  5
421
330
420
100
AcDbEntity
  8
Ebene 1
 62
   179
420
  1709851
370
    18
100
AcDbVertex
100
AcDb2dVertex
 10
71.50795218481399
 20
-168.381108898877
 30
0.0
  0
VERTEX
  5
422
330
420
100
AcDbEntity
  8
Ebene 1
 62
   179
420
  1709851
370
    18
100
AcDbVertex
100
AcDb2dVertex
 10
71.29625106724538
 20
-168.381108898877
 30
0.0
  0
SEQEND
  5
423
330
420
100
AcDbEntity
  8
Ebene 1
370
    18
  0
POLYLINE
  5
424
330
2AC
100
AcDbEntity
  8
Ebene 1
 62
   179
420
  1709851
370
    18
100
AcDb2dPolyline
 66
     1
 10
0.0
 20
0.0
 30
0.0
  0
VERTEX
  5
425
330
424
100
AcDbEntity
  8
Ebene 1
 62
   179
420
  1709851
370
    18
100
AcDbVertex
100
AcDb2dVertex
 10
71.29625106724538
 20
-168.4238280828941
 30
0.0
  0
VERTEX
  5
426
330
424
100
AcDbEntity
  8
Ebene 1
 62
   179
420
  1709851
370
    18
100
AcDbVertex
100
AcDb2dVertex
 10
71.55032685928256
 20
-168.9529947494284
 30
0.0
  0
SEQEND
  5
427
330
424
100
AcDbEntity
  8
Ebene 1
370
    18
  0
POLYLINE
  5
428
330
2AC
100
AcDbEntity
  8
Ebene 1
 62
   179
420
  1709851
370
    18
100
AcDb2dPolyline
 66
     1
 10
0.0
 20
0.0
 30
0.0
  0
VERTEX
  5
429
330
428
100
AcDbEntity
  8
Ebene 1
 62
   179
420
  1709851
370
    18
100
AcDbVertex
100
AcDb2dVertex
 10
71.55032685928256
 20
-168.9529947494284
 30
0.0
  0
VERTEX
  5
42A
330
428
100
AcDbEntity
  8
Ebene 1
 62
   179
420
  1709851
370
    18
100
AcDbVertex
100
AcDb2dVertex
 10
71.55032685928256
 20
-178.2237467002358
 30
0.0
  0
SEQEND
  5
42B
330
428
100
AcDbEntity
  8
Ebene 1
370
    18
  0
POLYLINE
  5
42C
330
2AC
100
AcDbEntity
  8
Ebene 1
 62
   179
420
  1709851
370
    18
100
AcDb2dPolyline
 66
     1
 10
0.0
 20
0.0
 30
0.0
  0
VERTEX
  5
42D
330
42C
100
AcDbEntity
  8
Ebene 1
 62
   179
420
  1709851
370
    18
100
AcDbVertex
100
AcDb2dVertex
 10
71.29625106724538
 20
-178.7735839396816
 30
0.0
  0
VERTEX
  5
42E
330
42C
100
AcDbEntity
  8
Ebene 1
 62
   179
420
  1709851
370
    18
100
AcDbVertex
100
AcDb2dVertex
 10
71.29625106724538
 20
-168.381108898877
 30
0.0
  0
SEQEND
  5
42F
330
42C
100
AcDbEntity
  8
Ebene 1
370
    18
  0
POLYLINE
  5
430
330
2AC
100
AcDbEntity
  8
Ebene 1
 62
   179
420
  1709851
370
    18
100
AcDb2dPolyline
 66
     1
 10
0.0
 20
0.0
 30
0.0
  0
VERTEX
  5
431
330
430
100
AcDbEntity
  8
Ebene 1
 62
   179
420
  1709851
370
    18
100
AcDbVertex
100
AcDb2dVertex
 10
71.50795218481399
 20
-178.8583332886188
 30
0.0
  0
VERTEX
  5
432
330
430
100
AcDbEntity
  8
Ebene 1
 62
   179
420
  1709851
370
    18
100
AcDbVertex
100
AcDb2dVertex
 10
71.29625106724538
 20
-178.8583332886188
 30
0.0
  0
SEQEND
  5
433
330
430
100
AcDbEntity
  8
Ebene 1
370
    18
  0
POLYLINE
  5
434
330
2AC
100
AcDbEntity
  8
Ebene 1
 62
   179
420
  1709851
370
    18
100
AcDb2dPolyline
 66
     1
 10
0.0
 20
0.0
 30
0.0
  0
VERTEX
  5
435
330
434
100
AcDbEntity
  8
Ebene 1
 62
   179
420
  1709851
370
    18
100
AcDbVertex
100
AcDb2dVertex
 10
71.29625106724538
 20
-178.8583332886188
 30
0.0
  0
VERTEX
  5
436
330
434
100
AcDbEntity
  8
Ebene 1
 62
   179
420
  1709851
370
    18
100
AcDbVertex
100
AcDb2dVertex
 10
71.14811196137964
 20
-178.7949435316902
 30
0.0
  0
VERTEX
  5
437
330
434
100
AcDbEntity
  8
Ebene 1
 62
   179
420
  1709851
370
    18
100
AcDbVertex
100
AcDb2dVertex
 10
70.97878551827961
 20
-178.8163031236987
 30
0.0
  0
VERTEX
  5
438
330
434
100
AcDbEntity
  8
Ebene 1
 62
   179
420
  1709851
370
    18
100
AcDbVertex
100
AcDb2dVertex
 10
70.93641084381105
 20
-178.8583332886188
 30
0.0
  0
SEQEND
  5
439
330
434
100
AcDbEntity
  8
Ebene 1
370
    18
  0
POLYLINE
  5
43A
330
2AC
100
AcDbEntity
  8
Ebene 1
 62
   179
420
  1709851
370
    18
100
AcDb2dPolyline
 66
     1
 10
0.0
 20
0.0
 30
0.0
  0
VERTEX
  5
43B
330
43A
100
AcDbEntity
  8
Ebene 1
 62
   179
420
  1709851
370
    18
100
AcDbVertex
100
AcDb2dVertex
 10
70.93641084381105
 20
-178.8583332886188
 30
0.0
  0
VERTEX
  5
43C
330
43A
100
AcDbEntity
  8
Ebene 1
 62
   179
420
  1709851
370
    18
100
AcDbVertex
100
AcDb2dVertex
 10
70.02621661660804
 20
-178.8583332886188
 30
0.0
  0
SEQEND
  5
43D
330
43A
100
AcDbEntity
  8
Ebene 1
370
    18
  0
POLYLINE
  5
43E
330
2AC
100
AcDbEntity
  8
Ebene 1
 62
   179
420
  1709851
370
    18
100
AcDb2dPolyline
 66
     1
 10
0.0
 20
0.0
 30
0.0
  0
VERTEX
  5
43F
330
43E
100
AcDbEntity
  8
Ebene 1
 62
   179
420
  1709851
370
    18
100
AcDbVertex
100
AcDb2dVertex
 10
70.02621661660804
 20
-179.0912217434216
 30
0.0
  0
VERTEX
  5
440
330
43E
100
AcDbEntity
  8
Ebene 1
 62
   179
420
  1709851
370
    18
100
AcDbVertex
100
AcDb2dVertex
 10
70.93641084381105
 20
-179.0912217434216
 30
0.0
  0
SEQEND
  5
441
330
43E
100
AcDbEntity
  8
Ebene 1
370
    18
  0
POLYLINE
  5
442
330
2AC
100
AcDbEntity
  8
Ebene 1
 62
   179
420
  1709851
370
    18
100
AcDb2dPolyline
 66
     1
 10
0.0
 20
0.0
 30
0.0
  0
VERTEX
  5
443
330
442
100
AcDbEntity
  8
Ebene 1
 62
   179
420
  1709851
370
    18
100
AcDbVertex
100
AcDb2dVertex
 10
71.29625106724538
 20
-179.0912217434216
 30
0.0
  0
VERTEX
  5
444
330
442
100
AcDbEntity
  8
Ebene 1
 62
   179
420
  1709851
370
    18
100
AcDbVertex
100
AcDb2dVertex
 10
71.55032685928256
 20
-179.0912217434216
 30
0.0
  0
SEQEND
  5
445
330
442
100
AcDbEntity
  8
Ebene 1
370
    18
  0
POLYLINE
  5
446
330
2AC
100
AcDbEntity
  8
Ebene 1
 62
   179
420
  1709851
370
    18
100
AcDb2dPolyline
 66
     1
 10
0.0
 20
0.0
 30
0.0
  0
VERTEX
  5
447
330
446
100
AcDbEntity
  8
Ebene 1
 62
   179
420
  1709851
370
    18
100
AcDbVertex
100
AcDb2dVertex
 10
71.55032685928256
 20
-179.0912217434216
 30
0.0
  0
VERTEX
  5
448
330
446
100
AcDbEntity
  8
Ebene 1
 62
   179
420
  1709851
370
    18
100
AcDbVertex
100
AcDb2dVertex
 10
71.6984659651483
 20
-179.0491915785016
 30
0.0
  0
VERTEX
  5
449
330
446
100
AcDbEntity
  8
Ebene 1
 62
   179
420
  1709851
370
    18
100
AcDbVertex
100
AcDb2dVertex
 10
71.80423039654548
 20
-178.9430826375559
 30
0.0
  0
VERTEX
  5
44A
330
446
100
AcDbEntity
  8
Ebene 1
 62
   179
420
  1709851
370
    18
100
AcDbVertex
100
AcDb2dVertex
 10
71.84660507101404
 20
-178.7949435316902
 30
0.0
  0
SEQEND
  5
44B
330
446
100
AcDbEntity
  8
Ebene 1
370
    18
  0
POLYLINE
  5
44C
330
2AC
100
AcDbEntity
  8
Ebene 1
 62
   179
420
  1709851
370
    18
100
AcDb2dPolyline
 66
     1
 10
0.0
 20
0.0
 30
0.0
  0
VERTEX
  5
44D
330
44C
100
AcDbEntity
  8
Ebene 1
 62
   179
420
  1709851
370
    18
100
AcDbVertex
100
AcDb2dVertex
 10
71.50795218481399
 20
-178.7735839396816
 30
0.0
  0
VERTEX
  5
44E
330
44C
100
AcDbEntity
  8
Ebene 1
 62
   179
420
  1709851
370
    18
100
AcDbVertex
100
AcDb2dVertex
 10
71.29625106724538
 20
-178.7735839396816
 30
0.0
  0
SEQEND
  5
44F
330
44C
100
AcDbEntity
  8
Ebene 1
370
    18
  0
POLYLINE
  5
450
330
2AC
100
AcDbEntity
  8
Ebene 1
 62
   179
420
  1709851
370
    18
100
AcDb2dPolyline
 66
     1
 10
0.0
 20
0.0
 30
0.0
  0
VERTEX
  5
451
330
450
100
AcDbEntity
  8
Ebene 1
 62
   179
420
  1709851
370
    18
100
AcDbVertex
100
AcDb2dVertex
 10
93.71176484202346
 20
-133.9217135624397
 30
0.0
  0
VERTEX
  5
452
330
450
100
AcDbEntity
  8
Ebene 1
 62
   179
420
  1709851
370
    18
100
AcDbVertex
100
AcDb2dVertex
 10
93.71176484202346
 20
-133.6888251076368
 30
0.0
  0
SEQEND
  5
453
330
450
100
AcDbEntity
  8
Ebene 1
370
    18
  0
POLYLINE
  5
454
330
2AC
100
AcDbEntity
  8
Ebene 1
 62
   179
420
  1709851
370
    18
100
AcDb2dPolyline
 66
     1
 10
0.0
 20
0.0
 30
0.0
  0
VERTEX
  5
455
330
454
100
AcDbEntity
  8
Ebene 1
 62
   179
420
  1709851
370
    18
100
AcDbVertex
100
AcDb2dVertex
 10
93.71176484202346
 20
-136.9272148637717
 30
0.0
  0
VERTEX
  5
456
330
454
100
AcDbEntity
  8
Ebene 1
 62
   179
420
  1709851
370
    18
100
AcDbVertex
100
AcDb2dVertex
 10
93.71176484202346
 20
-134.9376722210399
 30
0.0
  0
SEQEND
  5
457
330
454
100
AcDbEntity
  8
Ebene 1
370
    18
  0
POLYLINE
  5
458
330
2AC
100
AcDbEntity
  8
Ebene 1
 62
   179
420
  1709851
370
    18
100
AcDb2dPolyline
 66
     1
 10
0.0
 20
0.0
 30
0.0
  0
VERTEX
  5
459
330
458
100
AcDbEntity
  8
Ebene 1
 62
   179
420
  1709851
370
    18
100
AcDbVertex
100
AcDb2dVertex
 10
93.71176484202346
 20
-139.9330606746522
 30
0.0
  0
VERTEX
  5
45A
330
458
100
AcDbEntity
  8
Ebene 1
 62
   179
420
  1709851
370
    18
100
AcDbVertex
100
AcDb2dVertex
 10
93.71176484202346
 20
-137.9221584399118
 30
0.0
  0
SEQEND
  5
45B
330
458
100
AcDbEntity
  8
Ebene 1
370
    18
  0
POLYLINE
  5
45C
330
2AC
100
AcDbEntity
  8
Ebene 1
 62
   179
420
  1709851
370
    18
100
AcDb2dPolyline
 66
     1
 10
0.0
 20
0.0
 30
0.0
  0
VERTEX
  5
45D
330
45C
100
AcDbEntity
  8
Ebene 1
 62
   179
420
  1709851
370
    18
100
AcDbVertex
100
AcDb2dVertex
 10
93.71176484202346
 20
-142.9385619759841
 30
0.0
  0
VERTEX
  5
45E
330
45C
100
AcDbEntity
  8
Ebene 1
 62
   179
420
  1709851
370
    18
100
AcDbVertex
100
AcDb2dVertex
 10
93.71176484202346
 20
-140.9276597412438
 30
0.0
  0
SEQEND
  5
45F
330
45C
100
AcDbEntity
  8
Ebene 1
370
    18
  0
POLYLINE
  5
460
330
2AC
100
AcDbEntity
  8
Ebene 1
 62
   179
420
  1709851
370
    18
100
AcDb2dPolyline
 66
     1
 10
0.0
 20
0.0
 30
0.0
  0
VERTEX
  5
461
330
460
100
AcDbEntity
  8
Ebene 1
 62
   179
420
  1709851
370
    18
100
AcDbVertex
100
AcDb2dVertex
 10
93.71176484202346
 20
-145.9230481948561
 30
0.0
  0
VERTEX
  5
462
330
460
100
AcDbEntity
  8
Ebene 1
 62
   179
420
  1709851
370
    18
100
AcDbVertex
100
AcDb2dVertex
 10
93.71176484202346
 20
-143.9335055521243
 30
0.0
  0
SEQEND
  5
463
330
460
100
AcDbEntity
  8
Ebene 1
370
    18
  0
POLYLINE
  5
464
330
2AC
100
AcDbEntity
  8
Ebene 1
 62
   179
420
  1709851
370
    18
100
AcDb2dPolyline
 66
     1
 10
0.0
 20
0.0
 30
0.0
  0
VERTEX
  5
465
330
464
100
AcDbEntity
  8
Ebene 1
 62
   179
420
  1709851
370
    18
100
AcDbVertex
100
AcDb2dVertex
 10
93.71176484202346
 20
-148.9287217509623
 30
0.0
  0
VERTEX
  5
466
330
464
100
AcDbEntity
  8
Ebene 1
 62
   179
420
  1709851
370
    18
100
AcDbVertex
100
AcDb2dVertex
 10
93.71176484202346
 20
-146.9390068534562
 30
0.0
  0
SEQEND
  5
467
330
464
100
AcDbEntity
  8
Ebene 1
370
    18
  0
POLYLINE
  5
468
330
2AC
100
AcDbEntity
  8
Ebene 1
 62
   179
420
  1709851
370
    18
100
AcDb2dPolyline
 66
     1
 10
0.0
 20
0.0
 30
0.0
  0
VERTEX
  5
469
330
468
100
AcDbEntity
  8
Ebene 1
 62
   179
420
  1709851
370
    18
100
AcDbVertex
100
AcDb2dVertex
 10
95.29926484162658
 20
-104.5209241817691
 30
0.0
  0
VERTEX
  5
46A
330
468
100
AcDbEntity
  8
Ebene 1
 62
   179
420
  1709851
370
    18
100
AcDbVertex
100
AcDb2dVertex
 10
79.29731307696387
 20
-99.52588023770534
 30
0.0
  0
VERTEX
  5
46B
330
468
100
AcDbEntity
  8
Ebene 1
 62
   179
420
  1709851
370
    18
100
AcDbVertex
100
AcDb2dVertex
 10
95.29926484162658
 20
-94.53049178409307
 30
0.0
  0
VERTEX
  5
46C
330
468
100
AcDbEntity
  8
Ebene 1
 62
   179
420
  1709851
370
    18
100
AcDbVertex
100
AcDb2dVertex
 10
79.29731307696387
 20
-89.53510333048081
 30
0.0
  0
VERTEX
  5
46D
330
468
100
AcDbEntity
  8
Ebene 1
 62
   179
420
  1709851
370
    18
100
AcDbVertex
100
AcDb2dVertex
 10
95.29926484162658
 20
-84.51869979440852
 30
0.0
  0
VERTEX
  5
46E
330
468
100
AcDbEntity
  8
Ebene 1
 62
   179
420
  1709851
370
    18
100
AcDbVertex
100
AcDb2dVertex
 10
79.29731307696387
 20
-79.52331134079625
 30
0.0
  0
VERTEX
  5
46F
330
468
100
AcDbEntity
  8
Ebene 1
 62
   179
420
  1709851
370
    18
100
AcDbVertex
100
AcDb2dVertex
 10
83.9750637268361
 20
-78.06259085505033
 30
0.0
  0
SEQEND
  5
470
330
468
100
AcDbEntity
  8
Ebene 1
370
    18
  0
POLYLINE
  5
471
330
2AC
100
AcDbEntity
  8
Ebene 1
 62
   179
420
  1709851
370
    18
100
AcDb2dPolyline
 66
     1
 10
0.0
 20
0.0
 30
0.0
  0
VERTEX
  5
472
330
471
100
AcDbEntity
  8
Ebene 1
 62
   179
420
  1709851
370
    18
100
AcDbVertex
100
AcDb2dVertex
 10
95.29926484162658
 20
-178.5200249119672
 30
0.0
  0
VERTEX
  5
473
330
471
100
AcDbEntity
  8
Ebene 1
 62
   179
420
  1709851
370
    18
100
AcDbVertex
100
AcDb2dVertex
 10
87.29820283190809
 20
-181.5255262132992
 30
0.0
  0
VERTEX
  5
474
330
471
100
AcDbEntity
  8
Ebene 1
 62
   179
420
  1709851
370
    18
100
AcDbVertex
100
AcDb2dVertex
 10
95.29926484162658
 20
-184.5096679226226
 30
0.0
  0
VERTEX
  5
475
330
471
100
AcDbEntity
  8
Ebene 1
 62
   179
420
  1709851
370
    18
100
AcDbVertex
100
AcDb2dVertex
 10
87.29820283190809
 20
-187.5158582430516
 30
0.0
  0
VERTEX
  5
476
330
471
100
AcDbEntity
  8
Ebene 1
 62
   179
420
  1709851
370
    18
100
AcDbVertex
100
AcDb2dVertex
 10
95.29926484162658
 20
-190.5213595443836
 30
0.0
  0
VERTEX
  5
477
330
471
100
AcDbEntity
  8
Ebene 1
 62
   179
420
  1709851
370
    18
100
AcDbVertex
100
AcDb2dVertex
 10
87.29820283190809
 20
-193.5268608457155
 30
0.0
  0
VERTEX
  5
478
330
471
100
AcDbEntity
  8
Ebene 1
 62
   179
420
  1709851
370
    18
100
AcDbVertex
100
AcDb2dVertex
 10
95.29926484162658
 20
-196.511691574136
 30
0.0
  0
VERTEX
  5
479
330
471
100
AcDbEntity
  8
Ebene 1
 62
   179
420
  1709851
370
    18
100
AcDbVertex
100
AcDb2dVertex
 10
87.29820283190809
 20
-199.5171928754679
 30
0.0
  0
VERTEX
  5
47A
330
471
100
AcDbEntity
  8
Ebene 1
 62
   179
420
  1709851
370
    18
100
AcDbVertex
100
AcDb2dVertex
 10
95.29926484162658
 20
-202.5226941767999
 30
0.0
  0
VERTEX
  5
47B
330
471
100
AcDbEntity
  8
Ebene 1
 62
   179
420
  1709851
370
    18
100
AcDbVertex
100
AcDb2dVertex
 10
87.29820283190809
 20
-205.5075249052204
 30
0.0
  0
VERTEX
  5
47C
330
471
100
AcDbEntity
  8
Ebene 1
 62
   179
420
  1709851
370
    18
100
AcDbVertex
100
AcDb2dVertex
 10
95.29926484162658
 20
-208.5130262065523
 30
0.0
  0
VERTEX
  5
47D
330
471
100
AcDbEntity
  8
Ebene 1
 62
   179
420
  1709851
370
    18
100
AcDbVertex
100
AcDb2dVertex
 10
87.29820283190809
 20
-211.5185275078843
 30
0.0
  0
VERTEX
  5
47E
330
471
100
AcDbEntity
  8
Ebene 1
 62
   179
420
  1709851
370
    18
100
AcDbVertex
100
AcDb2dVertex
 10
95.29926484162658
 20
-214.5240288092162
 30
0.0
  0
VERTEX
  5
47F
330
471
100
AcDbEntity
  8
Ebene 1
 62
   179
420
  1709851
370
    18
100
AcDbVertex
100
AcDb2dVertex
 10
87.29820283190809
 20
-217.5088595376367
 30
0.0
  0
VERTEX
  5
480
330
471
100
AcDbEntity
  8
Ebene 1
 62
   179
420
  1709851
370
    18
100
AcDbVertex
100
AcDb2dVertex
 10
95.29926484162658
 20
-220.5143608389687
 30
0.0
  0
VERTEX
  5
481
330
471
100
AcDbEntity
  8
Ebene 1
 62
   179
420
  1709851
370
    18
100
AcDbVertex
100
AcDb2dVertex
 10
89.5631808586856
 20
-222.6737466891232
 30
0.0
  0
SEQEND
  5
482
330
471
100
AcDbEntity
  8
Ebene 1
370
    18
  0
POLYLINE
  5
483
330
2AC
100
AcDbEntity
  8
Ebene 1
 62
   179
420
  1709851
370
    18
100
AcDb2dPolyline
 66
     1
 10
0.0
 20
0.0
 30
0.0
  0
VERTEX
  5
484
330
483
100
AcDbEntity
  8
Ebene 1
 62
   179
420
  1709851
370
    18
100
AcDbVertex
100
AcDb2dVertex
 10
86.3034315105422
 20
-178.5200249119672
 30
0.0
  0
VERTEX
  5
485
330
483
100
AcDbEntity
  8
Ebene 1
 62
   179
420
  1709851
370
    18
100
AcDbVertex
100
AcDb2dVertex
 10
86.3034315105422
 20
-222.6737466891232
 30
0.0
  0
SEQEND
  5
486
330
483
100
AcDbEntity
  8
Ebene 1
370
    18
  0
POLYLINE
  5
487
330
2AC
100
AcDbEntity
  8
Ebene 1
 62
   179
420
  1709851
370
    18
100
AcDb2dPolyline
 66
     1
 10
0.0
 20
0.0
 30
0.0
  0
VERTEX
  5
488
330
487
100
AcDbEntity
  8
Ebene 1
 62
   179
420
  1709851
370
    18
100
AcDbVertex
100
AcDb2dVertex
 10
87.29820283190809
 20
-178.5200249119672
 30
0.0
  0
VERTEX
  5
489
330
487
100
AcDbEntity
  8
Ebene 1
 62
   179
420
  1709851
370
    18
100
AcDbVertex
100
AcDb2dVertex
 10
87.29820283190809
 20
-222.6737466891232
 30
0.0
  0
SEQEND
  5
48A
330
487
100
AcDbEntity
  8
Ebene 1
370
    18
  0
POLYLINE
  5
48B
330
2AC
100
AcDbEntity
  8
Ebene 1
 62
   179
420
  1709851
370
    18
100
AcDb2dPolyline
 66
     1
 10
0.0
 20
0.0
 30
0.0
  0
VERTEX
  5
48C
330
48B
100
AcDbEntity
  8
Ebene 1
 62
   179
420
  1709851
370
    18
100
AcDbVertex
100
AcDb2dVertex
 10
84.71593151093907
 20
-178.5200249119672
 30
0.0
  0
VERTEX
  5
48D
330
48B
100
AcDbEntity
  8
Ebene 1
 62
   179
420
  1709851
370
    18
100
AcDbVertex
100
AcDb2dVertex
 10
84.71593151093907
 20
-222.6737466891232
 30
0.0
  0
SEQEND
  5
48E
330
48B
100
AcDbEntity
  8
Ebene 1
370
    18
  0
POLYLINE
  5
48F
330
2AC
100
AcDbEntity
  8
Ebene 1
 62
   179
420
  1709851
370
    18
100
AcDb2dPolyline
 66
     1
 10
0.0
 20
0.0
 30
0.0
  0
VERTEX
  5
490
330
48F
100
AcDbEntity
  8
Ebene 1
 62
   179
420
  1709851
370
    18
100
AcDbVertex
100
AcDb2dVertex
 10
86.3034315105422
 20
-180.1281954844818
 30
0.0
  0
VERTEX
  5
491
330
48F
100
AcDbEntity
  8
Ebene 1
 62
   179
420
  1709851
370
    18
100
AcDbVertex
100
AcDb2dVertex
 10
84.71593151093907
 20
-180.1281954844818
 30
0.0
  0
SEQEND
  5
492
330
48F
100
AcDbEntity
  8
Ebene 1
370
    18
  0
POLYLINE
  5
493
330
2AC
100
AcDbEntity
  8
Ebene 1
 62
   179
420
  1709851
370
    18
100
AcDb2dPolyline
 66
     1
 10
0.0
 20
0.0
 30
0.0
  0
VERTEX
  5
494
330
493
100
AcDbEntity
  8
Ebene 1
 62
   179
420
  1709851
370
    18
100
AcDbVertex
100
AcDb2dVertex
 10
72.37577173754842
 20
-78.06259085505033
 30
0.0
  0
VERTEX
  5
495
330
493
100
AcDbEntity
  8
Ebene 1
 62
   179
420
  1709851
370
    18
100
AcDbVertex
100
AcDb2dVertex
 10
72.39695907478271
 20
-177.5884710927557
 30
0.0
  0
SEQEND
  5
496
330
493
100
AcDbEntity
  8
Ebene 1
370
    18
  0
POLYLINE
  5
497
330
2AC
100
AcDbEntity
  8
Ebene 1
 62
   179
420
  1709851
370
    18
100
AcDb2dPolyline
 66
     1
 10
0.0
 20
0.0
 30
0.0
  0
VERTEX
  5
498
330
497
100
AcDbEntity
  8
Ebene 1
 62
   179
420
  1709851
370
    18
100
AcDbVertex
100
AcDb2dVertex
 10
71.78304305931118
 20
-78.06259085505033
 30
0.0
  0
VERTEX
  5
499
330
497
100
AcDbEntity
  8
Ebene 1
 62
   179
420
  1709851
370
    18
100
AcDbVertex
100
AcDb2dVertex
 10
71.78304305931118
 20
-178.1810275162186
 30
0.0
  0
SEQEND
  5
49A
330
497
100
AcDbEntity
  8
Ebene 1
370
    18
  0
POLYLINE
  5
49B
330
2AC
100
AcDbEntity
  8
Ebene 1
370
     0
100
AcDb2dPolyline
 66
     1
 10
0.0
 20
0.0
 30
0.0
  0
VERTEX
  5
49C
330
49B
100
AcDbEntity
  8
Ebene 1
370
     0
100
AcDbVertex
100
AcDb2dVertex
 10
65.26388887257292
 20
-222.9169704303819
 30
0.0
  0
VERTEX
  5
49D
330
49B
100
AcDbEntity
  8
Ebene 1
370
     0
100
AcDbVertex
100
AcDb2dVertex
 10
159.3921657587631
 20
-222.9169704303819
 30
0.0
  0
VERTEX
  5
49E
330
49B
100
AcDbEntity
  8
Ebene 1
370
     0
100
AcDbVertex
100
AcDb2dVertex
 10
159.3921657587631
 20
-77.81936711379169
 30
0.0
  0
VERTEX
  5
49F
330
49B
100
AcDbEntity
  8
Ebene 1
370
     0
100
AcDbVertex
100
AcDb2dVertex
 10
65.26388887257292
 20
-77.81936711379169
 30
0.0
  0
VERTEX
  5
4A0
330
49B
100
AcDbEntity
  8
Ebene 1
370
     0
100
AcDbVertex
100
AcDb2dVertex
 10
65.26388887257292
 20
-222.9169704303819
 30
0.0
  0
SEQEND
  5
4A1
330
49B
100
AcDbEntity
  8
Ebene 1
370
     0
  0
ENDBLK
  5
2AF
330
2AC
100
AcDbEntity
  8
0
100
AcDbBlockEnd
  0
ENDSEC
  0
SECTION
  2
ENTITIES
  0
POLYLINE
  5
3C
330
1F
100
AcDbEntity
  8
Ebene 1
370
     0
100
AcDb2dPolyline
 66
     1
 10
0.0
 20
0.0
 30
0.0
  0
VERTEX
  5
3D
330
3C
100
AcDbEntity
  8
Ebene 1
370
     0
100
AcDbVertex
100
AcDb2dVertex
 10
84.71610376571334
 20
-180.1288845035789
 30
0.0
  0
VERTEX
  5
3E
330
3C
100
AcDbEntity
  8
Ebene 1
370
     0
100
AcDbVertex
100
AcDb2dVertex
 10
84.71610376571334
 20
-222.6730576700262
 30
0.0
  0
VERTEX
  5
3F
330
3C
100
AcDbEntity
  8
Ebene 1
370
     0
100
AcDbVertex
100
AcDb2dVertex
 10
86.30360376531647
 20
-180.1288845035789
 30
0.0
  0
VERTEX
  5
40
330
3C
100
AcDbEntity
  8
Ebene 1
370
     0
100
AcDbVertex
100
AcDb2dVertex
 10
84.71610376571334
 20
-180.1288845035789
 30
0.0
  0
SEQEND
  5
41
330
3C
100
AcDbEntity
  8
Ebene 1
370
     0
  0
HATCH
  5
42
330
1F
100
AcDbEntity
  8
Ebene 1
 62
   254
420
 14803683
100
AcDbHatch
 10
0.0
 20
0.0
 30
0.0
210
0.0
220
0.0
230
1.0
  2
SOLID
 70
     1
 71
     0
 91
        1
 92
        1
 93
        3
 72
     1
 10
84.71610376571334
 20
-180.1288845035789
 11
84.71610376571334
 21
-222.6730576700262
 72
     1
 10
84.71610376571334
 20
-222.6730576700262
 11
86.30360376531647
 21
-180.1288845035789
 72
     1
 10
86.30360376531647
 20
-180.1288845035789
 11
84.71610376571334
 21
-180.1288845035789
 97
        0
 75
     2
 76
     1
 98
        0
  0
POLYLINE
  5
43
330
1F
100
AcDbEntity
  8
Ebene 1
370
     0
100
AcDb2dPolyline
 66
     1
 10
0.0
 20
0.0
 30
0.0
  0
VERTEX
  5
44
330
43
100
AcDbEntity
  8
Ebene 1
370
     0
100
AcDbVertex
100
AcDb2dVertex
 10
84.71610376571334
 20
-222.6730576700262
 30
0.0
  0
VERTEX
  5
45
330
43
100
AcDbEntity
  8
Ebene 1
370
     0
100
AcDbVertex
100
AcDb2dVertex
 10
86.30360376531647
 20
-222.6730576700262
 30
0.0
  0
VERTEX
  5
46
330
43
100
AcDbEntity
  8
Ebene 1
370
     0
100
AcDbVertex
100
AcDb2dVertex
 10
86.30360376531647
 20
-180.1288845035789
 30
0.0
  0
VERTEX
  5
47
330
43
100
AcDbEntity
  8
Ebene 1
370
     0
100
AcDbVertex
100
AcDb2dVertex
 10
84.71610376571334
 20
-222.6730576700262
 30
0.0
  0
SEQEND
  5
48
330
43
100
AcDbEntity
  8
Ebene 1
370
     0
  0
HATCH
  5
49
330
1F
100
AcDbEntity
  8
Ebene 1
 62
   254
420
 14803683
100
AcDbHatch
 10
0.0
 20
0.0
 30
0.0
210
0.0
220
0.0
230
1.0
  2
SOLID
 70
     1
 71
     0
 91
        1
 92
        1
 93
        3
 72
     1
 10
84.71610376571334
 20
-222.6730576700262
 11
86.30360376531647
 21
-222.6730576700262
 72
     1
 10
86.30360376531647
 20
-222.6730576700262
 11
86.30360376531647
 21
-180.1288845035789
 72
     1
 10
86.30360376531647
 20
-180.1288845035789
 11
84.71610376571334
 21
-222.6730576700262
 97
        0
 75
     2
 76
     1
 98
        0
  0
INSERT
  5
4B
330
1F
100
AcDbEntity
  8
Ebene 1
100
AcDbBlockReference
  2
block 2
 10
0.0
 20
0.0
 30
0.0
  0
POLYLINE
  5
C9
330
1F
100
AcDbEntity
  8
Ebene 1
370
     0
100
AcDb2dPolyline
 66
     1
 10
0.0
 20
0.0
 30
0.0
  0
VERTEX
  5
CA
330
C9
100
AcDbEntity
  8
Ebene 1
370
     0
100
AcDbVertex
100
AcDb2dVertex
 10
71.78304305931118
 20
-159.0889973560611
 30
0.0
  0
VERTEX
  5
CB
330
C9
100
AcDbEntity
  8
Ebene 1
370
     0
100
AcDbVertex
100
AcDb2dVertex
 10
70.91522350657675
 20
-165.0786403667165
 30
0.0
  0
VERTEX
  5
CC
330
C9
100
AcDbEntity
  8
Ebene 1
370
     0
100
AcDbVertex
100
AcDb2dVertex
 10
70.91522350657675
 20
-159.0889973560611
 30
0.0
  0
VERTEX
  5
CD
330
C9
100
AcDbEntity
  8
Ebene 1
370
     0
100
AcDbVertex
100
AcDb2dVertex
 10
71.78304305931118
 20
-159.0889973560611
 30
0.0
  0
SEQEND
  5
CE
330
C9
100
AcDbEntity
  8
Ebene 1
370
     0
  0
HATCH
  5
CF
330
1F
100
AcDbEntity
  8
Ebene 1
 62
     9
420
 12435136
100
AcDbHatch
 10
0.0
 20
0.0
 30
0.0
210
0.0
220
0.0
230
1.0
  2
SOLID
 70
     1
 71
     0
 91
        1
 92
        1
 93
        3
 72
     1
 10
71.78304305931118
 20
-159.0889973560611
 11
70.91522350657675
 21
-165.0786403667165
 72
     1
 10
70.91522350657675
 20
-165.0786403667165
 11
70.91522350657675
 21
-159.0889973560611
 72
     1
 10
70.91522350657675
 20
-159.0889973560611
 11
71.78304305931118
 21
-159.0889973560611
 97
        0
 75
     2
 76
     1
 98
        0
  0
POLYLINE
  5
D0
330
1F
100
AcDbEntity
  8
Ebene 1
370
     0
100
AcDb2dPolyline
 66
     1
 10
0.0
 20
0.0
 30
0.0
  0
VERTEX
  5
D1
330
D0
100
AcDbEntity
  8
Ebene 1
370
     0
100
AcDbVertex
100
AcDb2dVertex
 10
70.91522350657675
 20
-165.0793293858135
 30
0.0
  0
VERTEX
  5
D2
330
D0
100
AcDbEntity
  8
Ebene 1
370
     0
100
AcDbVertex
100
AcDb2dVertex
 10
71.78304305931118
 20
-159.0889973560611
 30
0.0
  0
VERTEX
  5
D3
330
D0
100
AcDbEntity
  8
Ebene 1
370
     0
100
AcDbVertex
100
AcDb2dVertex
 10
71.78304305931118
 20
-165.0793293858135
 30
0.0
  0
VERTEX
  5
D4
330
D0
100
AcDbEntity
  8
Ebene 1
370
     0
100
AcDbVertex
100
AcDb2dVertex
 10
70.91522350657675
 20
-165.0793293858135
 30
0.0
  0
SEQEND
  5
D5
330
D0
100
AcDbEntity
  8
Ebene 1
370
     0
  0
HATCH
  5
D6
330
1F
100
AcDbEntity
  8
Ebene 1
 62
     9
420
 12435136
100
AcDbHatch
 10
0.0
 20
0.0
 30
0.0
210
0.0
220
0.0
230
1.0
  2
SOLID
 70
     1
 71
     0
 91
        1
 92
        1
 93
        3
 72
     1
 10
70.91522350657675
 20
-165.0793293858135
 11
71.78304305931118
 21
-159.0889973560611
 72
     1
 10
71.78304305931118
 20
-159.0889973560611
 11
71.78304305931118
 21
-165.0793293858135
 72
     1
 10
71.78304305931118
 20
-165.0793293858135
 11
70.91522350657675
 21
-165.0793293858135
 97
        0
 75
     2
 76
     1
 98
        0
  0
POLYLINE
  5
D7
330
1F
100
AcDbEntity
  8
Ebene 1
370
     0
100
AcDb2dPolyline
 66
     1
 10
0.0
 20
0.0
 30
0.0
  0
VERTEX
  5
D8
330
D7
100
AcDbEntity
  8
Ebene 1
370
     0
100
AcDbVertex
100
AcDb2dVertex
 10
82.30298663307009
 20
-177.9267794694072
 30
0.0
  0
VERTEX
  5
D9
330
D7
100
AcDbEntity
  8
Ebene 1
370
     0
100
AcDbVertex
100
AcDb2dVertex
 10
81.3082153117042
 20
-178.5200249119672
 30
0.0
  0
VERTEX
  5
DA
330
D7
100
AcDbEntity
  8
Ebene 1
370
     0
100
AcDbVertex
100
AcDb2dVertex
 10
81.3082153117042
 20
-177.9267794694072
 30
0.0
  0
VERTEX
  5
DB
330
D7
100
AcDbEntity
  8
Ebene 1
370
     0
100
AcDbVertex
100
AcDb2dVertex
 10
82.30298663307009
 20
-177.9267794694072
 30
0.0
  0
SEQEND
  5
DC
330
D7
100
AcDbEntity
  8
Ebene 1
370
     0
  0
HATCH
  5
DD
330
1F
100
AcDbEntity
  8
Ebene 1
 62
   179
420
  1709851
100
AcDbHatch
 10
0.0
 20
0.0
 30
0.0
210
0.0
220
0.0
230
1.0
  2
SOLID
 70
     1
 71
     0
 91
        1
 92
        1
 93
        3
 72
     1
 10
82.30298663307009
 20
-177.9267794694072
 11
81.3082153117042
 21
-178.5200249119672
 72
     1
 10
81.3082153117042
 20
-178.5200249119672
 11
81.3082153117042
 21
-177.9267794694072
 72
     1
 10
81.3082153117042
 20
-177.9267794694072
 11
82.30298663307009
 21
-177.9267794694072
 97
        0
 75
     2
 76
     1
 98
        0
  0
POLYLINE
  5
DE
330
1F
100
AcDbEntity
  8
Ebene 1
370
     0
100
AcDb2dPolyline
 66
     1
 10
0.0
 20
0.0
 30
0.0
  0
VERTEX
  5
DF
330
DE
100
AcDbEntity
  8
Ebene 1
370
     0
100
AcDbVertex
100
AcDb2dVertex
 10
81.30804305692993
 20
-178.5200249119672
 30
0.0
  0
VERTEX
  5
E0
330
DE
100
AcDbEntity
  8
Ebene 1
370
     0
100
AcDbVertex
100
AcDb2dVertex
 10
82.30298663307009
 20
-177.9267794694072
 30
0.0
  0
VERTEX
  5
E1
330
DE
100
AcDbEntity
  8
Ebene 1
370
     0
100
AcDbVertex
100
AcDb2dVertex
 10
82.30298663307009
 20
-178.5200249119672
 30
0.0
  0
VERTEX
  5
E2
330
DE
100
AcDbEntity
  8
Ebene 1
370
     0
100
AcDbVertex
100
AcDb2dVertex
 10
81.30804305692993
 20
-178.5200249119672
 30
0.0
  0
SEQEND
  5
E3
330
DE
100
AcDbEntity
  8
Ebene 1
370
     0
  0
HATCH
  5
E4
330
1F
100
AcDbEntity
  8
Ebene 1
 62
   179
420
  1709851
100
AcDbHatch
 10
0.0
 20
0.0
 30
0.0
210
0.0
220
0.0
230
1.0
  2
SOLID
 70
     1
 71
     0
 91
        1
 92
        1
 93
        3
 72
     1
 10
81.30804305692993
 20
-178.5200249119672
 11
82.30298663307009
 21
-177.9267794694072
 72
     1
 10
82.30298663307009
 20
-177.9267794694072
 11
82.30298663307009
 21
-178.5200249119672
 72
     1
 10
82.30298663307009
 20
-178.5200249119672
 11
81.30804305692993
 21
-178.5200249119672
 97
        0
 75
     2
 76
     1
 98
        0
  0
POLYLINE
  5
E5
330
1F
100
AcDbEntity
  8
Ebene 1
370
     0
100
AcDb2dPolyline
 66
     1
 10
0.0
 20
0.0
 30
0.0
  0
VERTEX
  5
E6
330
E5
100
AcDbEntity
  8
Ebene 1
370
     0
100
AcDbVertex
100
AcDb2dVertex
 10
80.31327173556404
 20
-177.9267794694072
 30
0.0
  0
VERTEX
  5
E7
330
E5
100
AcDbEntity
  8
Ebene 1
370
     0
100
AcDbVertex
100
AcDb2dVertex
 10
79.29731307696387
 20
-178.5200249119672
 30
0.0
  0
VERTEX
  5
E8
330
E5
100
AcDbEntity
  8
Ebene 1
370
     0
100
AcDbVertex
100
AcDb2dVertex
 10
79.29731307696387
 20
-177.9267794694072
 30
0.0
  0
VERTEX
  5
E9
330
E5
100
AcDbEntity
  8
Ebene 1
370
     0
100
AcDbVertex
100
AcDb2dVertex
 10
80.31327173556404
 20
-177.9267794694072
 30
0.0
  0
SEQEND
  5
EA
330
E5
100
AcDbEntity
  8
Ebene 1
370
     0
  0
HATCH
  5
EB
330
1F
100
AcDbEntity
  8
Ebene 1
 62
   179
420
  1709851
100
AcDbHatch
 10
0.0
 20
0.0
 30
0.0
210
0.0
220
0.0
230
1.0
  2
SOLID
 70
     1
 71
     0
 91
        1
 92
        1
 93
        3
 72
     1
 10
80.31327173556404
 20
-177.9267794694072
 11
79.29731307696387
 21
-178.5200249119672
 72
     1
 10
79.29731307696387
 20
-178.5200249119672
 11
79.29731307696387
 21
-177.9267794694072
 72
     1
 10
79.29731307696387
 20
-177.9267794694072
 11
80.31327173556404
 21
-177.9267794694072
 97
        0
 75
     2
 76
     1
 98
        0
  0
POLYLINE
  5
EC
330
1F
100
AcDbEntity
  8
Ebene 1
370
     0
100
AcDb2dPolyline
 66
     1
 10
0.0
 20
0.0
 30
0.0
  0
VERTEX
  5
ED
330
EC
100
AcDbEntity
  8
Ebene 1
370
     0
100
AcDbVertex
100
AcDb2dVertex
 10
79.29731307696387
 20
-178.5200249119672
 30
0.0
  0
VERTEX
  5
EE
330
EC
100
AcDbEntity
  8
Ebene 1
370
     0
100
AcDbVertex
100
AcDb2dVertex
 10
80.31344399033831
 20
-177.9267794694072
 30
0.0
  0
VERTEX
  5
EF
330
EC
100
AcDbEntity
  8
Ebene 1
370
     0
100
AcDbVertex
100
AcDb2dVertex
 10
80.31344399033831
 20
-178.5200249119672
 30
0.0
  0
VERTEX
  5
F0
330
EC
100
AcDbEntity
  8
Ebene 1
370
     0
100
AcDbVertex
100
AcDb2dVertex
 10
79.29731307696387
 20
-178.5200249119672
 30
0.0
  0
SEQEND
  5
F1
330
EC
100
AcDbEntity
  8
Ebene 1
370
     0
  0
HATCH
  5
F2
330
1F
100
AcDbEntity
  8
Ebene 1
 62
   179
420
  1709851
100
AcDbHatch
 10
0.0
 20
0.0
 30
0.0
210
0.0
220
0.0
230
1.0
  2
SOLID
 70
     1
 71
     0
 91
        1
 92
        1
 93
        3
 72
     1
 10
79.29731307696387
 20
-178.5200249119672
 11
80.31344399033831
 21
-177.9267794694072
 72
     1
 10
80.31344399033831
 20
-177.9267794694072
 11
80.31344399033831
 21
-178.5200249119672
 72
     1
 10
80.31344399033831
 20
-178.5200249119672
 11
79.29731307696387
 21
-178.5200249119672
 97
        0
 75
     2
 76
     1
 98
        0
  0
POLYLINE
  5
F3
330
1F
100
AcDbEntity
  8
Ebene 1
370
     0
100
AcDb2dPolyline
 66
     1
 10
0.0
 20
0.0
 30
0.0
  0
VERTEX
  5
F4
330
F3
100
AcDbEntity
  8
Ebene 1
370
     0
100
AcDbVertex
100
AcDb2dVertex
 10
78.30236950082372
 20
-177.9267794694072
 30
0.0
  0
VERTEX
  5
F5
330
F3
100
AcDbEntity
  8
Ebene 1
370
     0
100
AcDbVertex
100
AcDb2dVertex
 10
77.30759817945783
 20
-178.5200249119672
 30
0.0
  0
VERTEX
  5
F6
330
F3
100
AcDbEntity
  8
Ebene 1
370
     0
100
AcDbVertex
100
AcDb2dVertex
 10
77.30759817945783
 20
-177.9267794694072
 30
0.0
  0
VERTEX
  5
F7
330
F3
100
AcDbEntity
  8
Ebene 1
370
     0
100
AcDbVertex
100
AcDb2dVertex
 10
78.30236950082372
 20
-177.9267794694072
 30
0.0
  0
SEQEND
  5
F8
330
F3
100
AcDbEntity
  8
Ebene 1
370
     0
  0
HATCH
  5
F9
330
1F
100
AcDbEntity
  8
Ebene 1
 62
   179
420
  1709851
100
AcDbHatch
 10
0.0
 20
0.0
 30
0.0
210
0.0
220
0.0
230
1.0
  2
SOLID
 70
     1
 71
     0
 91
        1
 92
        1
 93
        3
 72
     1
 10
78.30236950082372
 20
-177.9267794694072
 11
77.30759817945783
 21
-178.5200249119672
 72
     1
 10
77.30759817945783
 20
-178.5200249119672
 11
77.30759817945783
 21
-177.9267794694072
 72
     1
 10
77.30759817945783
 20
-177.9267794694072
 11
78.30236950082372
 21
-177.9267794694072
 97
        0
 75
     2
 76
     1
 98
        0
  0
POLYLINE
  5
FA
330
1F
100
AcDbEntity
  8
Ebene 1
370
     0
100
AcDb2dPolyline
 66
     1
 10
0.0
 20
0.0
 30
0.0
  0
VERTEX
  5
FB
330
FA
100
AcDbEntity
  8
Ebene 1
370
     0
100
AcDbVertex
100
AcDb2dVertex
 10
77.30777043423208
 20
-178.5200249119672
 30
0.0
  0
VERTEX
  5
FC
330
FA
100
AcDbEntity
  8
Ebene 1
370
     0
100
AcDbVertex
100
AcDb2dVertex
 10
78.30254175559799
 20
-177.9267794694072
 30
0.0
  0
VERTEX
  5
FD
330
FA
100
AcDbEntity
  8
Ebene 1
370
     0
100
AcDbVertex
100
AcDb2dVertex
 10
78.30254175559799
 20
-178.5200249119672
 30
0.0
  0
VERTEX
  5
FE
330
FA
100
AcDbEntity
  8
Ebene 1
370
     0
100
AcDbVertex
100
AcDb2dVertex
 10
77.30777043423208
 20
-178.5200249119672
 30
0.0
  0
SEQEND
  5
FF
330
FA
100
AcDbEntity
  8
Ebene 1
370
     0
  0
HATCH
  5
100
330
1F
100
AcDbEntity
  8
Ebene 1
 62
   179
420
  1709851
100
AcDbHatch
 10
0.0
 20
0.0
 30
0.0
210
0.0
220
0.0
230
1.0
  2
SOLID
 70
     1
 71
     0
 91
        1
 92
        1
 93
        3
 72
     1
 10
77.30777043423208
 20
-178.5200249119672
 11
78.30254175559799
 21
-177.9267794694072
 72
     1
 10
78.30254175559799
 20
-177.9267794694072
 11
78.30254175559799
 21
-178.5200249119672
 72
     1
 10
78.30254175559799
 20
-178.5200249119672
 11
77.30777043423208
 21
-178.5200249119672
 97
        0
 75
     2
 76
     1
 98
        0
  0
POLYLINE
  5
101
330
1F
100
AcDbEntity
  8
Ebene 1
370
     0
100
AcDb2dPolyline
 66
     1
 10
0.0
 20
0.0
 30
0.0
  0
VERTEX
  5
102
330
101
100
AcDbEntity
  8
Ebene 1
370
     0
100
AcDbVertex
100
AcDb2dVertex
 10
76.31282685809194
 20
-177.9267794694072
 30
0.0
  0
VERTEX
  5
103
330
101
100
AcDbEntity
  8
Ebene 1
370
     0
100
AcDbVertex
100
AcDb2dVertex
 10
75.29686819949175
 20
-178.5200249119672
 30
0.0
  0
VERTEX
  5
104
330
101
100
AcDbEntity
  8
Ebene 1
370
     0
100
AcDbVertex
100
AcDb2dVertex
 10
75.29686819949175
 20
-177.9267794694072
 30
0.0
  0
VERTEX
  5
105
330
101
100
AcDbEntity
  8
Ebene 1
370
     0
100
AcDbVertex
100
AcDb2dVertex
 10
76.31282685809194
 20
-177.9267794694072
 30
0.0
  0
SEQEND
  5
106
330
101
100
AcDbEntity
  8
Ebene 1
370
     0
  0
HATCH
  5
107
330
1F
100
AcDbEntity
  8
Ebene 1
 62
   179
420
  1709851
100
AcDbHatch
 10
0.0
 20
0.0
 30
0.0
210
0.0
220
0.0
230
1.0
  2
SOLID
 70
     1
 71
     0
 91
        1
 92
        1
 93
        3
 72
     1
 10
76.31282685809194
 20
-177.9267794694072
 11
75.29686819949175
 21
-178.5200249119672
 72
     1
 10
75.29686819949175
 20
-178.5200249119672
 11
75.29686819949175
 21
-177.9267794694072
 72
     1
 10
75.29686819949175
 20
-177.9267794694072
 11
76.31282685809194
 21
-177.9267794694072
 97
        0
 75
     2
 76
     1
 98
        0
  0
POLYLINE
  5
108
330
1F
100
AcDbEntity
  8
Ebene 1
370
     0
100
AcDb2dPolyline
 66
     1
 10
0.0
 20
0.0
 30
0.0
  0
VERTEX
  5
109
330
108
100
AcDbEntity
  8
Ebene 1
370
     0
100
AcDbVertex
100
AcDb2dVertex
 10
75.29686819949175
 20
-178.5200249119672
 30
0.0
  0
VERTEX
  5
10A
330
108
100
AcDbEntity
  8
Ebene 1
370
     0
100
AcDbVertex
100
AcDb2dVertex
 10
76.31282685809194
 20
-177.9267794694072
 30
0.0
  0
VERTEX
  5
10B
330
108
100
AcDbEntity
  8
Ebene 1
370
     0
100
AcDbVertex
100
AcDb2dVertex
 10
76.31282685809194
 20
-178.5200249119672
 30
0.0
  0
VERTEX
  5
10C
330
108
100
AcDbEntity
  8
Ebene 1
370
     0
100
AcDbVertex
100
AcDb2dVertex
 10
75.29686819949175
 20
-178.5200249119672
 30
0.0
  0
SEQEND
  5
10D
330
108
100
AcDbEntity
  8
Ebene 1
370
     0
  0
HATCH
  5
10E
330
1F
100
AcDbEntity
  8
Ebene 1
 62
   179
420
  1709851
100
AcDbHatch
 10
0.0
 20
0.0
 30
0.0
210
0.0
220
0.0
230
1.0
  2
SOLID
 70
     1
 71
     0
 91
        1
 92
        1
 93
        3
 72
     1
 10
75.29686819949175
 20
-178.5200249119672
 11
76.31282685809194
 21
-177.9267794694072
 72
     1
 10
76.31282685809194
 20
-177.9267794694072
 11
76.31282685809194
 21
-178.5200249119672
 72
     1
 10
76.31282685809194
 20
-178.5200249119672
 11
75.29686819949175
 21
-178.5200249119672
 97
        0
 75
     2
 76
     1
 98
        0
  0
POLYLINE
  5
10F
330
1F
100
AcDbEntity
  8
Ebene 1
370
     0
100
AcDb2dPolyline
 66
     1
 10
0.0
 20
0.0
 30
0.0
  0
VERTEX
  5
110
330
10F
100
AcDbEntity
  8
Ebene 1
370
     0
100
AcDbVertex
100
AcDb2dVertex
 10
95.29943709640084
 20
-170.518446137926
 30
0.0
  0
VERTEX
  5
111
330
10F
100
AcDbEntity
  8
Ebene 1
370
     0
100
AcDbVertex
100
AcDb2dVertex
 10
94.7067084181636
 20
-177.9267794694072
 30
0.0
  0
VERTEX
  5
112
330
10F
100
AcDbEntity
  8
Ebene 1
370
     0
100
AcDbVertex
100
AcDb2dVertex
 10
94.7067084181636
 20
-170.518446137926
 30
0.0
  0
VERTEX
  5
113
330
10F
100
AcDbEntity
  8
Ebene 1
370
     0
100
AcDbVertex
100
AcDb2dVertex
 10
95.29943709640084
 20
-170.518446137926
 30
0.0
  0
SEQEND
  5
114
330
10F
100
AcDbEntity
  8
Ebene 1
370
     0
  0
HATCH
  5
115
330
1F
100
AcDbEntity
  8
Ebene 1
 62
   179
420
  1709851
100
AcDbHatch
 10
0.0
 20
0.0
 30
0.0
210
0.0
220
0.0
230
1.0
  2
SOLID
 70
     1
 71
     0
 91
        1
 92
        1
 93
        3
 72
     1
 10
95.29943709640084
 20
-170.518446137926
 11
94.7067084181636
 21
-177.9267794694072
 72
     1
 10
94.7067084181636
 20
-177.9267794694072
 11
94.7067084181636
 21
-170.518446137926
 72
     1
 10
94.7067084181636
 20
-170.518446137926
 11
95.29943709640084
 21
-170.518446137926
 97
        0
 75
     2
 76
     1
 98
        0
  0
POLYLINE
  5
116
330
1F
100
AcDbEntity
  8
Ebene 1
370
     0
100
AcDb2dPolyline
 66
     1
 10
0.0
 20
0.0
 30
0.0
  0
VERTEX
  5
117
330
116
100
AcDbEntity
  8
Ebene 1
370
     0
100
AcDbVertex
100
AcDb2dVertex
 10
94.70653616338934
 20
-177.9267794694072
 30
0.0
  0
VERTEX
  5
118
330
116
100
AcDbEntity
  8
Ebene 1
370
     0
100
AcDbVertex
100
AcDb2dVertex
 10
83.29775795443598
 20
-178.5200249119672
 30
0.0
  0
VERTEX
  5
119
330
116
100
AcDbEntity
  8
Ebene 1
370
     0
100
AcDbVertex
100
AcDb2dVertex
 10
83.29775795443598
 20
-177.9267794694072
 30
0.0
  0
VERTEX
  5
11A
330
116
100
AcDbEntity
  8
Ebene 1
370
     0
100
AcDbVertex
100
AcDb2dVertex
 10
94.70653616338934
 20
-177.9267794694072
 30
0.0
  0
SEQEND
  5
11B
330
116
100
AcDbEntity
  8
Ebene 1
370
     0
  0
HATCH
  5
11C
330
1F
100
AcDbEntity
  8
Ebene 1
 62
   179
420
  1709851
100
AcDbHatch
 10
0.0
 20
0.0
 30
0.0
210
0.0
220
0.0
230
1.0
  2
SOLID
 70
     1
 71
     0
 91
        1
 92
        1
 93
        3
 72
     1
 10
94.70653616338934
 20
-177.9267794694072
 11
83.29775795443598
 21
-178.5200249119672
 72
     1
 10
83.29775795443598
 20
-178.5200249119672
 11
83.29775795443598
 21
-177.9267794694072
 72
     1
 10
83.29775795443598
 20
-177.9267794694072
 11
94.70653616338934
 21
-177.9267794694072
 97
        0
 75
     2
 76
     1
 98
        0
  0
POLYLINE
  5
11D
330
1F
100
AcDbEntity
  8
Ebene 1
370
     0
100
AcDb2dPolyline
 66
     1
 10
0.0
 20
0.0
 30
0.0
  0
VERTEX
  5
11E
330
11D
100
AcDbEntity
  8
Ebene 1
370
     0
100
AcDbVertex
100
AcDb2dVertex
 10
83.29775795443598
 20
-178.5200249119672
 30
0.0
  0
VERTEX
  5
11F
330
11D
100
AcDbEntity
  8
Ebene 1
370
     0
100
AcDbVertex
100
AcDb2dVertex
 10
94.7067084181636
 20
-177.9267794694072
 30
0.0
  0
VERTEX
  5
120
330
11D
100
AcDbEntity
  8
Ebene 1
370
     0
100
AcDbVertex
100
AcDb2dVertex
 10
95.29926484162658
 20
-178.5200249119672
 30
0.0
  0
VERTEX
  5
121
330
11D
100
AcDbEntity
  8
Ebene 1
370
     0
100
AcDbVertex
100
AcDb2dVertex
 10
83.29775795443598
 20
-178.5200249119672
 30
0.0
  0
SEQEND
  5
122
330
11D
100
AcDbEntity
  8
Ebene 1
370
     0
  0
HATCH
  5
123
330
1F
100
AcDbEntity
  8
Ebene 1
 62
   179
420
  1709851
100
AcDbHatch
 10
0.0
 20
0.0
 30
0.0
210
0.0
220
0.0
230
1.0
  2
SOLID
 70
     1
 71
     0
 91
        1
 92
        1
 93
        3
 72
     1
 10
83.29775795443598
 20
-178.5200249119672
 11
94.7067084181636
 21
-177.9267794694072
 72
     1
 10
94.7067084181636
 20
-177.9267794694072
 11
95.29926484162658
 21
-178.5200249119672
 72
     1
 10
95.29926484162658
 20
-178.5200249119672
 11
83.29775795443598
 21
-178.5200249119672
 97
        0
 75
     2
 76
     1
 98
        0
  0
POLYLINE
  5
124
330
1F
100
AcDbEntity
  8
Ebene 1
370
     0
100
AcDb2dPolyline
 66
     1
 10
0.0
 20
0.0
 30
0.0
  0
VERTEX
  5
125
330
124
100
AcDbEntity
  8
Ebene 1
370
     0
100
AcDbVertex
100
AcDb2dVertex
 10
95.29943709640084
 20
-178.5200249119672
 30
0.0
  0
VERTEX
  5
126
330
124
100
AcDbEntity
  8
Ebene 1
370
     0
100
AcDbVertex
100
AcDb2dVertex
 10
94.7067084181636
 20
-177.9267794694072
 30
0.0
  0
VERTEX
  5
127
330
124
100
AcDbEntity
  8
Ebene 1
370
     0
100
AcDbVertex
100
AcDb2dVertex
 10
95.29943709640084
 20
-170.518446137926
 30
0.0
  0
VERTEX
  5
128
330
124
100
AcDbEntity
  8
Ebene 1
370
     0
100
AcDbVertex
100
AcDb2dVertex
 10
95.29943709640084
 20
-178.5200249119672
 30
0.0
  0
SEQEND
  5
129
330
124
100
AcDbEntity
  8
Ebene 1
370
     0
  0
HATCH
  5
12A
330
1F
100
AcDbEntity
  8
Ebene 1
 62
   179
420
  1709851
100
AcDbHatch
 10
0.0
 20
0.0
 30
0.0
210
0.0
220
0.0
230
1.0
  2
SOLID
 70
     1
 71
     0
 91
        1
 92
        1
 93
        3
 72
     1
 10
95.29943709640084
 20
-178.5200249119672
 11
94.7067084181636
 21
-177.9267794694072
 72
     1
 10
94.7067084181636
 20
-177.9267794694072
 11
95.29943709640084
 21
-170.518446137926
 72
     1
 10
95.29943709640084
 20
-170.518446137926
 11
95.29943709640084
 21
-178.5200249119672
 97
        0
 75
     2
 76
     1
 98
        0
  0
POLYLINE
  5
12B
330
1F
100
AcDbEntity
  8
Ebene 1
370
     0
100
AcDb2dPolyline
 66
     1
 10
0.0
 20
0.0
 30
0.0
  0
VERTEX
  5
12C
330
12B
100
AcDbEntity
  8
Ebene 1
370
     0
100
AcDbVertex
100
AcDb2dVertex
 10
74.30192462335161
 20
-177.9267794694072
 30
0.0
  0
VERTEX
  5
12D
330
12B
100
AcDbEntity
  8
Ebene 1
370
     0
100
AcDbVertex
100
AcDb2dVertex
 10
72.8415486471542
 20
-178.5200249119672
 30
0.0
  0
VERTEX
  5
12E
330
12B
100
AcDbEntity
  8
Ebene 1
370
     0
100
AcDbVertex
100
AcDb2dVertex
 10
72.8415486471542
 20
-177.9267794694072
 30
0.0
  0
VERTEX
  5
12F
330
12B
100
AcDbEntity
  8
Ebene 1
370
     0
100
AcDbVertex
100
AcDb2dVertex
 10
74.30192462335161
 20
-177.9267794694072
 30
0.0
  0
SEQEND
  5
130
330
12B
100
AcDbEntity
  8
Ebene 1
370
     0
  0
HATCH
  5
131
330
1F
100
AcDbEntity
  8
Ebene 1
 62
   179
420
  1709851
100
AcDbHatch
 10
0.0
 20
0.0
 30
0.0
210
0.0
220
0.0
230
1.0
  2
SOLID
 70
     1
 71
     0
 91
        1
 92
        1
 93
        3
 72
     1
 10
74.30192462335161
 20
-177.9267794694072
 11
72.8415486471542
 21
-178.5200249119672
 72
     1
 10
72.8415486471542
 20
-178.5200249119672
 11
72.8415486471542
 21
-177.9267794694072
 72
     1
 10
72.8415486471542
 20
-177.9267794694072
 11
74.30192462335161
 21
-177.9267794694072
 97
        0
 75
     2
 76
     1
 98
        0
  0
POLYLINE
  5
132
330
1F
100
AcDbEntity
  8
Ebene 1
370
     0
100
AcDb2dPolyline
 66
     1
 10
0.0
 20
0.0
 30
0.0
  0
VERTEX
  5
133
330
132
100
AcDbEntity
  8
Ebene 1
370
     0
100
AcDbVertex
100
AcDb2dVertex
 10
72.84137639237994
 20
-178.5200249119672
 30
0.0
  0
VERTEX
  5
134
330
132
100
AcDbEntity
  8
Ebene 1
370
     0
100
AcDbVertex
100
AcDb2dVertex
 10
74.30192462335161
 20
-177.9267794694072
 30
0.0
  0
VERTEX
  5
135
330
132
100
AcDbEntity
  8
Ebene 1
370
     0
100
AcDbVertex
100
AcDb2dVertex
 10
74.30192462335161
 20
-178.5200249119672
 30
0.0
  0
VERTEX
  5
136
330
132
100
AcDbEntity
  8
Ebene 1
370
     0
100
AcDbVertex
100
AcDb2dVertex
 10
72.84137639237994
 20
-178.5200249119672
 30
0.0
  0
SEQEND
  5
137
330
132
100
AcDbEntity
  8
Ebene 1
370
     0
  0
HATCH
  5
138
330
1F
100
AcDbEntity
  8
Ebene 1
 62
   179
420
  1709851
100
AcDbHatch
 10
0.0
 20
0.0
 30
0.0
210
0.0
220
0.0
230
1.0
  2
SOLID
 70
     1
 71
     0
 91
        1
 92
        1
 93
        3
 72
     1
 10
72.84137639237994
 20
-178.5200249119672
 11
74.30192462335161
 21
-177.9267794694072
 72
     1
 10
74.30192462335161
 20
-177.9267794694072
 11
74.30192462335161
 21
-178.5200249119672
 72
     1
 10
74.30192462335161
 20
-178.5200249119672
 11
72.84137639237994
 21
-178.5200249119672
 97
        0
 75
     2
 76
     1
 98
        0
  0
POLYLINE
  5
139
330
1F
100
AcDbEntity
  8
Ebene 1
370
     0
100
AcDb2dPolyline
 66
     1
 10
0.0
 20
0.0
 30
0.0
  0
VERTEX
  5
13A
330
139
100
AcDbEntity
  8
Ebene 1
370
     0
100
AcDbVertex
100
AcDb2dVertex
 10
70.91522350657675
 20
-78.06259085505033
 30
0.0
  0
VERTEX
  5
13B
330
139
100
AcDbEntity
  8
Ebene 1
370
     0
100
AcDbVertex
100
AcDb2dVertex
 10
69.30653616973935
 20
-178.668164017833
 30
0.0
  0
VERTEX
  5
13C
330
139
100
AcDbEntity
  8
Ebene 1
370
     0
100
AcDbVertex
100
AcDb2dVertex
 10
69.30653616973935
 20
-78.06259085505033
 30
0.0
  0
VERTEX
  5
13D
330
139
100
AcDbEntity
  8
Ebene 1
370
     0
100
AcDbVertex
100
AcDb2dVertex
 10
70.91522350657675
 20
-78.06259085505033
 30
0.0
  0
SEQEND
  5
13E
330
139
100
AcDbEntity
  8
Ebene 1
370
     0
  0
HATCH
  5
13F
330
1F
100
AcDbEntity
  8
Ebene 1
 62
   254
420
 14803683
100
AcDbHatch
 10
0.0
 20
0.0
 30
0.0
210
0.0
220
0.0
230
1.0
  2
SOLID
 70
     1
 71
     0
 91
        1
 92
        1
 93
        3
 72
     1
 10
70.91522350657675
 20
-78.06259085505033
 11
69.30653616973935
 21
-178.668164017833
 72
     1
 10
69.30653616973935
 20
-178.668164017833
 11
69.30653616973935
 21
-78.06259085505033
 72
     1
 10
69.30653616973935
 20
-78.06259085505033
 11
70.91522350657675
 21
-78.06259085505033
 97
        0
 75
     2
 76
     1
 98
        0
  0
POLYLINE
  5
140
330
1F
100
AcDbEntity
  8
Ebene 1
370
     0
100
AcDb2dPolyline
 66
     1
 10
0.0
 20
0.0
 30
0.0
  0
VERTEX
  5
141
330
140
100
AcDbEntity
  8
Ebene 1
370
     0
100
AcDbVertex
100
AcDb2dVertex
 10
69.30653616973935
 20
-178.668164017833
 30
0.0
  0
VERTEX
  5
142
330
140
100
AcDbEntity
  8
Ebene 1
370
     0
100
AcDbVertex
100
AcDb2dVertex
 10
70.91522350657675
 20
-78.06259085505033
 30
0.0
  0
VERTEX
  5
143
330
140
100
AcDbEntity
  8
Ebene 1
370
     0
100
AcDbVertex
100
AcDb2dVertex
 10
70.91522350657675
 20
-178.668164017833
 30
0.0
  0
VERTEX
  5
144
330
140
100
AcDbEntity
  8
Ebene 1
370
     0
100
AcDbVertex
100
AcDb2dVertex
 10
69.30653616973935
 20
-178.668164017833
 30
0.0
  0
SEQEND
  5
145
330
140
100
AcDbEntity
  8
Ebene 1
370
     0
  0
HATCH
  5
146
330
1F
100
AcDbEntity
  8
Ebene 1
 62
   254
420
 14803683
100
AcDbHatch
 10
0.0
 20
0.0
 30
0.0
210
0.0
220
0.0
230
1.0
  2
SOLID
 70
     1
 71
     0
 91
        1
 92
        1
 93
        3
 72
     1
 10
69.30653616973935
 20
-178.668164017833
 11
70.91522350657675
 21
-78.06259085505033
 72
     1
 10
70.91522350657675
 20
-78.06259085505033
 11
70.91522350657675
 21
-178.668164017833
 72
     1
 10
70.91522350657675
 20
-178.668164017833
 11
69.30653616973935
 21
-178.668164017833
 97
        0
 75
     2
 76
     1
 98
        0
  0
INSERT
  5
148
330
1F
100
AcDbEntity
  8
Ebene 1
100
AcDbBlockReference
  2
block 3
 10
0.0
 20
0.0
 30
0.0
  0
POLYLINE
  5
197
330
1F
100
AcDbEntity
  8
Ebene 1
 62
   179
420
  1709851
370
    35
100
AcDb2dPolyline
 66
     1
 10
0.0
 20
0.0
 30
0.0
  0
VERTEX
  5
198
330
197
100
AcDbEntity
  8
Ebene 1
 62
   179
420
  1709851
370
    35
100
AcDbVertex
100
AcDb2dVertex
 10
109.0579426810689
 20
-174.6249999563438
 30
0.0
  0
VERTEX
  5
199
330
197
100
AcDbEntity
  8
Ebene 1
 62
   179
420
  1709851
370
    35
100
AcDbVertex
100
AcDb2dVertex
 10
109.3115017087832
 20
-174.6249999563438
 30
0.0
  0
SEQEND
  5
19A
330
197
100
AcDbEntity
  8
Ebene 1
370
    35
  0
POLYLINE
  5
19B
330
1F
100
AcDbEntity
  8
Ebene 1
 62
   179
420
  1709851
370
    35
100
AcDb2dPolyline
 66
     1
 10
0.0
 20
0.0
 30
0.0
  0
VERTEX
  5
19C
330
19B
100
AcDbEntity
  8
Ebene 1
 62
   179
420
  1709851
370
    35
100
AcDbVertex
100
AcDb2dVertex
 10
101.0567084165761
 20
-174.6249999563438
 30
0.0
  0
VERTEX
  5
19D
330
19B
100
AcDbEntity
  8
Ebene 1
 62
   179
420
  1709851
370
    35
100
AcDbVertex
100
AcDb2dVertex
 10
108.0629991049287
 20
-174.6249999563438
 30
0.0
  0
SEQEND
  5
19E
330
19B
100
AcDbEntity
  8
Ebene 1
370
    35
  0
POLYLINE
  5
19F
330
1F
100
AcDbEntity
  8
Ebene 1
 62
   179
420
  1709851
370
    35
100
AcDb2dPolyline
 66
     1
 10
0.0
 20
0.0
 30
0.0
  0
VERTEX
  5
1A0
330
19F
100
AcDbEntity
  8
Ebene 1
 62
   179
420
  1709851
370
    35
100
AcDbVertex
100
AcDb2dVertex
 10
99.06699351907007
 20
-174.6249999563438
 30
0.0
  0
VERTEX
  5
1A1
330
19F
100
AcDbEntity
  8
Ebene 1
 62
   179
420
  1709851
370
    35
100
AcDbVertex
100
AcDb2dVertex
 10
100.0619370952102
 20
-174.6249999563438
 30
0.0
  0
SEQEND
  5
1A2
330
19F
100
AcDbEntity
  8
Ebene 1
370
    35
  0
POLYLINE
  5
1A3
330
1F
100
AcDbEntity
  8
Ebene 1
 62
   179
420
  1709851
370
    35
100
AcDb2dPolyline
 66
     1
 10
0.0
 20
0.0
 30
0.0
  0
VERTEX
  5
1A4
330
1A3
100
AcDbEntity
  8
Ebene 1
 62
   179
420
  1709851
370
    35
100
AcDbVertex
100
AcDb2dVertex
 10
92.69580618342327
 20
-174.6249999563438
 30
0.0
  0
VERTEX
  5
1A5
330
1A3
100
AcDbEntity
  8
Ebene 1
 62
   179
420
  1709851
370
    35
100
AcDbVertex
100
AcDb2dVertex
 10
98.05103486046988
 20
-174.6249999563438
 30
0.0
  0
SEQEND
  5
1A6
330
1A3
100
AcDbEntity
  8
Ebene 1
370
    35
  0
INSERT
  5
1A8
330
1F
100
AcDbEntity
  8
Ebene 1
100
AcDbBlockReference
  2
block 4
 10
0.0
 20
0.0
 30
0.0
  0
POLYLINE
  5
1BA
330
1F
100
AcDbEntity
  8
Ebene 1
 62
   179
420
  1709851
370
    25
100
AcDb2dPolyline
 66
     1
 10
0.0
 20
0.0
 30
0.0
  0
VERTEX
  5
1BB
330
1BA
100
AcDbEntity
  8
Ebene 1
 62
   179
420
  1709851
370
    25
100
AcDbVertex
100
AcDb2dVertex
 10
69.30653616973935
 20
-178.668164017833
 30
0.0
  0
VERTEX
  5
1BC
330
1BA
100
AcDbEntity
  8
Ebene 1
 62
   179
420
  1709851
370
    25
100
AcDbVertex
100
AcDb2dVertex
 10
70.91522350657675
 20
-178.668164017833
 30
0.0
  0
SEQEND
  5
1BD
330
1BA
100
AcDbEntity
  8
Ebene 1
370
    25
  0
POLYLINE
  5
1BE
330
1F
100
AcDbEntity
  8
Ebene 1
 62
   179
420
  1709851
370
    35
100
AcDb2dPolyline
 66
     1
 10
0.0
 20
0.0
 30
0.0
  0
VERTEX
  5
1BF
330
1BE
100
AcDbEntity
  8
Ebene 1
 62
   179
420
  1709851
370
    35
100
AcDbVertex
100
AcDb2dVertex
 10
111.0685004062607
 20
-141.6900593721296
 30
0.0
  0
VERTEX
  5
1C0
330
1BE
100
AcDbEntity
  8
Ebene 1
 62
   179
420
  1709851
370
    35
100
AcDbVertex
100
AcDb2dVertex
 10
115.3018337385357
 20
-141.6900593721296
 30
0.0
  0
SEQEND
  5
1C1
330
1BE
100
AcDbEntity
  8
Ebene 1
370
    35
  0
POLYLINE
  5
1C2
330
1F
100
AcDbEntity
  8
Ebene 1
 62
   179
420
  1709851
370
    35
100
AcDb2dPolyline
 66
     1
 10
0.0
 20
0.0
 30
0.0
  0
VERTEX
  5
1C3
330
1C2
100
AcDbEntity
  8
Ebene 1
 62
   179
420
  1709851
370
    35
100
AcDbVertex
100
AcDb2dVertex
 10
109.0579426810689
 20
-141.6900593721296
 30
0.0
  0
VERTEX
  5
1C4
330
1C2
100
AcDbEntity
  8
Ebene 1
 62
   179
420
  1709851
370
    35
100
AcDbVertex
100
AcDb2dVertex
 10
110.0525417476605
 20
-141.6900593721296
 30
0.0
  0
SEQEND
  5
1C5
330
1C2
100
AcDbEntity
  8
Ebene 1
370
    35
  0
POLYLINE
  5
1C6
330
1F
100
AcDbEntity
  8
Ebene 1
 62
   179
420
  1709851
370
    35
100
AcDb2dPolyline
 66
     1
 10
0.0
 20
0.0
 30
0.0
  0
VERTEX
  5
1C7
330
1C6
100
AcDbEntity
  8
Ebene 1
 62
   179
420
  1709851
370
    35
100
AcDbVertex
100
AcDb2dVertex
 10
101.0567084165761
 20
-141.6900593721296
 30
0.0
  0
VERTEX
  5
1C8
330
1C6
100
AcDbEntity
  8
Ebene 1
 62
   179
420
  1709851
370
    35
100
AcDbVertex
100
AcDb2dVertex
 10
108.0629991049287
 20
-141.6900593721296
 30
0.0
  0
SEQEND
  5
1C9
330
1C6
100
AcDbEntity
  8
Ebene 1
370
    35
  0
POLYLINE
  5
1CA
330
1F
100
AcDbEntity
  8
Ebene 1
 62
   179
420
  1709851
370
    35
100
AcDb2dPolyline
 66
     1
 10
0.0
 20
0.0
 30
0.0
  0
VERTEX
  5
1CB
330
1CA
100
AcDbEntity
  8
Ebene 1
 62
   179
420
  1709851
370
    35
100
AcDbVertex
100
AcDb2dVertex
 10
99.06716577384432
 20
-141.6900593721296
 30
0.0
  0
VERTEX
  5
1CC
330
1CA
100
AcDbEntity
  8
Ebene 1
 62
   179
420
  1709851
370
    35
100
AcDbVertex
100
AcDb2dVertex
 10
100.0619370952102
 20
-141.6900593721296
 30
0.0
  0
SEQEND
  5
1CD
330
1CA
100
AcDbEntity
  8
Ebene 1
370
    35
  0
POLYLINE
  5
1CE
330
1F
100
AcDbEntity
  8
Ebene 1
 62
   179
420
  1709851
370
    35
100
AcDb2dPolyline
 66
     1
 10
0.0
 20
0.0
 30
0.0
  0
VERTEX
  5
1CF
330
1CE
100
AcDbEntity
  8
Ebene 1
 62
   179
420
  1709851
370
    35
100
AcDbVertex
100
AcDb2dVertex
 10
91.06610376412584
 20
-141.6900593721296
 30
0.0
  0
VERTEX
  5
1D0
330
1CE
100
AcDbEntity
  8
Ebene 1
 62
   179
420
  1709851
370
    35
100
AcDbVertex
100
AcDb2dVertex
 10
98.05103486046988
 20
-141.6900593721296
 30
0.0
  0
SEQEND
  5
1D1
330
1CE
100
AcDbEntity
  8
Ebene 1
370
    35
  0
POLYLINE
  5
1D2
330
1F
100
AcDbEntity
  8
Ebene 1
 62
   179
420
  1709851
370
    35
100
AcDb2dPolyline
 66
     1
 10
0.0
 20
0.0
 30
0.0
  0
VERTEX
  5
1D3
330
1D2
100
AcDbEntity
  8
Ebene 1
 62
   179
420
  1709851
370
    35
100
AcDbVertex
100
AcDb2dVertex
 10
89.7114922193256
 20
-141.6900593721296
 30
0.0
  0
VERTEX
  5
1D4
330
1D2
100
AcDbEntity
  8
Ebene 1
 62
   179
420
  1709851
370
    35
100
AcDbVertex
100
AcDb2dVertex
 10
89.7114922193256
 20
-141.6900593721296
 30
0.0
  0
VERTEX
  5
1D5
330
1D2
100
AcDbEntity
  8
Ebene 1
 62
   179
420
  1709851
370
    35
100
AcDbVertex
100
AcDb2dVertex
 10
90.07133244275995
 20
-141.6900593721296
 30
0.0
  0
SEQEND
  5
1D6
330
1D2
100
AcDbEntity
  8
Ebene 1
370
    35
  0
INSERT
  5
1D8
330
1F
100
AcDbEntity
  8
Ebene 1
100
AcDbBlockReference
  2
block 5
 10
0.0
 20
0.0
 30
0.0
  0
POLYLINE
  5
2A4
330
1F
100
AcDbEntity
  8
Ebene 1
 62
   179
420
  1709851
370
    25
100
AcDb2dPolyline
 66
     1
 10
0.0
 20
0.0
 30
0.0
  0
VERTEX
  5
2A5
330
2A4
100
AcDbEntity
  8
Ebene 1
 62
   179
420
  1709851
370
    25
100
AcDbVertex
100
AcDb2dVertex
 10
70.91522350657675
 20
-178.668164017833
 30
0.0
  0
VERTEX
  5
2A6
330
2A4
100
AcDbEntity
  8
Ebene 1
 62
   179
420
  1709851
370
    25
100
AcDbVertex
100
AcDb2dVertex
 10
70.91522350657675
 20
-78.06259085505033
 30
0.0
  0
SEQEND
  5
2A7
330
2A4
100
AcDbEntity
  8
Ebene 1
370
    25
  0
POLYLINE
  5
2A8
330
1F
100
AcDbEntity
  8
Ebene 1
 62
   179
420
  1709851
370
    25
100
AcDb2dPolyline
 66
     1
 10
0.0
 20
0.0
 30
0.0
  0
VERTEX
  5
2A9
330
2A8
100
AcDbEntity
  8
Ebene 1
 62
   179
420
  1709851
370
    25
100
AcDbVertex
100
AcDb2dVertex
 10
69.30653616973935
 20
-78.06259085505033
 30
0.0
  0
VERTEX
  5
2AA
330
2A8
100
AcDbEntity
  8
Ebene 1
 62
   179
420
  1709851
370
    25
100
AcDbVertex
100
AcDb2dVertex
 10
69.30653616973935
 20
-178.668164017833
 30
0.0
  0
SEQEND
  5
2AB
330
2A8
100
AcDbEntity
  8
Ebene 1
370
    25
  0
INSERT
  5
2AD
330
1F
100
AcDbEntity
  8
Ebene 1
100
AcDbBlockReference
  2
block 6
 10
0.0
 20
0.0
 30
0.0
  0
ENDSEC
  0
SECTION
  2
OBJECTS
  0
DICTIONARY
  5
C
330
0
100
AcDbDictionary
281
     1
  3
ACAD_GROUP
350
D
  3
ACAD_LAYOUT
350
1A
  3
ACAD_MLINESTYLE
350
17
  3
ACAD_PLOTSETTINGS
350
19
  3
ACAD_PLOTSTYLENAME
350
E
  3
ACAD_TABLESTYLE
350
4A2
  3
ACAD_VISUALSTYLE
350
2A
  0
DICTIONARY
  5
D
102
{ACAD_REACTORS
330
C
102
}
330
C
100
AcDbDictionary
281
     1
  0
DICTIONARY
  5
1A
102
{ACAD_REACTORS
330
C
102
}
330
C
100
AcDbDictionary
281
     1
  3
Layout1
350
1E
  3
Layout2
350
26
  3
Model
350
22
  0
DICTIONARY
  5
17
102
{ACAD_REACTORS
330
C
102
}
330
C
100
AcDbDictionary
281
     1
  3
Standard
350
18
  0
DICTIONARY
  5
19
102
{ACAD_REACTORS
330
C
102
}
330
C
100
AcDbDictionary
281
     1
  0
ACDBDICTIONARYWDFLT
  5
E
102
{ACAD_REACTORS
330
C
102
}
330
C
100
AcDbDictionary
281
     1
  3
Normal
350
F
100
AcDbDictionaryWithDefault
340
F
  0
DICTIONARY
  5
4A2
102
{ACAD_REACTORS
330
C
102
}
330
C
100
AcDbDictionary
281
     1
  0
DICTIONARY
  5
2A
102
{ACAD_REACTORS
330
C
102
}
330
C
100
AcDbDictionary
281
     1
  3
2dWireframe
350
2F
  3
3D Hidden
350
31
  3
3dWireframe
350
30
  3
Basic
350
32
  3
Brighten
350
36
  3
ColorChange
350
3A
  3
Conceptual
350
34
  3
Dim
350
35
  3
Facepattern
350
39
  3
Flat
350
2B
  3
FlatWithEdges
350
2C
  3
Gouraud
350
2D
  3
GouraudWithEdges
350
2E
  3
Linepattern
350
38
  3
Realistic
350
33
  3
Thicken
350
37
  0
LAYOUT
  5
1E
102
{ACAD_REACTORS
330
1A
102
}
330
1A
100
AcDbPlotSettings
  1

  2
none_device
  4

  6

 40
0.0
 41
0.0
 42
0.0
 43
0.0
 44
0.0
 45
0.0
 46
0.0
 47
0.0
 48
0.0
 49
0.0
140
0.0
141
0.0
142
1.0
143
1.0
 70
   688
 72
     0
 73
     0
 74
     5
  7

 75
    16
 76
     0
 77
     2
 78
   300
147
1.0
148
0.0
149
0.0
100
AcDbLayout
  1
Layout1
 70
     1
 71
     1
 10
0.0
 20
0.0
 11
12.0
 21
9.0
 12
0.0
 22
0.0
 32
0.0
 14
1.000000000000000E+20
 24
1.000000000000000E+20
 34
1.000000000000000E+20
 15
-1.000000000000000E+20
 25
-1.000000000000000E+20
 35
-1.000000000000000E+20
146
0.0
 13
0.0
 23
0.0
 33
0.0
 16
1.0
 26
0.0
 36
0.0
 17
0.0
 27
1.0
 37
0.0
 76
     0
330
1B
  0
LAYOUT
  5
26
102
{ACAD_REACTORS
330
1A
102
}
330
1A
100
AcDbPlotSettings
  1

  2
none_device
  4

  6

 40
0.0
 41
0.0
 42
0.0
 43
0.0
 44
0.0
 45
0.0
 46
0.0
 47
0.0
 48
0.0
 49
0.0
140
0.0
141
0.0
142
1.0
143
1.0
 70
   688
 72
     0
 73
     0
 74
     5
  7

 75
    16
 76
     0
 77
     2
 78
   300
147
1.0
148
0.0
149
0.0
100
AcDbLayout
  1
Layout2
 70
     1
 71
     2
 10
0.0
 20
0.0
 11
0.0
 21
0.0
 12
0.0
 22
0.0
 32
0.0
 14
0.0
 24
0.0
 34
0.0
 15
0.0
 25
0.0
 35
0.0
146
0.0
 13
0.0
 23
0.0
 33
0.0
 16
1.0
 26
0.0
 36
0.0
 17
0.0
 27
1.0
 37
0.0
 76
     0
330
23
  0
LAYOUT
  5
22
102
{ACAD_REACTORS
330
1A
102
}
330
1A
100
AcDbPlotSettings
  1

  2
none_device
  4

  6

 40
0.0
 41
0.0
 42
0.0
 43
0.0
 44
0.0
 45
0.0
 46
0.0
 47
0.0
 48
0.0
 49
0.0
140
0.0
141
0.0
142
1.0
143
1.0
 70
  1712
 72
     0
 73
     0
 74
     0
  7

 75
     0
 76
     0
 77
     2
 78
   300
147
1.0
148
0.0
149
0.0
100
AcDbLayout
  1
Model
 70
     1
 71
     0
 10
0.0
 20
0.0
 11
12.0
 21
9.0
 12
0.0
 22
0.0
 32
0.0
 14
1.000000000000000E+20
 24
1.000000000000000E+20
 34
1.000000000000000E+20
 15
-1.000000000000000E+20
 25
-1.000000000000000E+20
 35
-1.000000000000000E+20
146
0.0
 13
0.0
 23
0.0
 33
0.0
 16
1.0
 26
0.0
 36
0.0
 17
0.0
 27
1.0
 37
0.0
 76
     0
330
1F
331
29
  0
MLINESTYLE
  5
18
102
{ACAD_REACTORS
330
17
102
}
330
17
100
AcDbMlineStyle
  2
Standard
 70
     0
  3

 62
   256
 51
90.0
 52
90.0
 71
     2
 49
0.5
 62
   256
  6
BYLAYER
 49
-0.5
 62
   256
  6
BYLAYER
  0
ACDBPLACEHOLDER
  5
F
102
{ACAD_REACTORS
330
E
102
}
330
E
  0
VISUALSTYLE
  5
2F
102
{ACAD_REACTORS
330
2A
102
}
330
2A
100
AcDbVisualStyle
  2
2dWireframe
 70
     4
 71
     0
 72
     2
 73
     0
 90
        0
 40
-0.6
 41
-30.0
 62
     5
 63
     7
421
 16777215
 74
     1
 91
        4
 64
     7
 65
   257
 75
     1
175
     1
 42
1.0
 92
        0
 66
   257
 43
1.0
 76
     1
 77
     6
 78
     2
 67
     7
 79
     5
170
     0
171
     0
290
     0
174
     0
 93
        1
 44
0.0
173
     0
291
     0
 45
0.0
1001
ACAD
1000
AcDbSavedByObjectVersion
1070
     0
  0
VISUALSTYLE
  5
31
102
{ACAD_REACTORS
330
2A
102
}
330
2A
100
AcDbVisualStyle
  2
3D Hidden
 70
     6
 71
     1
 72
     2
 73
     2
 90
        0
 40
-0.6
 41
-30.0
 62
     5
 63
     7
421
 16777215
 74
     2
 91
        2
 64
     7
 65
   257
 75
     2
175
     1
 42
40.0
 92
        0
 66
   257
 43
1.0
 76
     1
 77
     6
 78
     2
 67
     7
 79
     3
170
     0
171
     0
290
     0
174
     0
 93
        1
 44
0.0
173
     0
291
     0
 45
0.0
1001
ACAD
1000
AcDbSavedByObjectVersion
1070
     0
  0
VISUALSTYLE
  5
30
102
{ACAD_REACTORS
330
2A
102
}
330
2A
100
AcDbVisualStyle
  2
3dWireframe
 70
     5
 71
     0
 72
     2
 73
     0
 90
        0
 40
-0.6
 41
-30.0
 62
     5
 63
     7
421
 16777215
 74
     1
 91
        4
 64
     7
 65
   257
 75
     1
175
     1
 42
1.0
 92
        0
 66
   257
 43
1.0
 76
     1
 77
     6
 78
     2
 67
     7
 79
     5
170
     0
171
     0
290
     0
174
     0
 93
        1
 44
0.0
173
     0
291
     0
 45
0.0
1001
ACAD
1000
AcDbSavedByObjectVersion
1070
     0
  0
VISUALSTYLE
  5
32
102
{ACAD_REACTORS
330
2A
102
}
330
2A
100
AcDbVisualStyle
  2
Basic
 70
     7
 71
     1
 72
     0
 73
     1
 90
        0
 40
-0.6
 41
-30.0
 62
     5
 63
     7
421
 16777215
 74
     0
 91
        4
 64
     7
 65
   257
 75
     1
175
     1
 42
1.0
 92
        8
 66
     7
 43
1.0
 76
     1
 77
     6
 78
     2
 67
     7
 79
     5
170
     0
171
     0
290
     0
174
     0
 93
        1
 44
0.0
173
     0
291
     1
 45
0.0
1001
ACAD
1000
AcDbSavedByObjectVersion
1070
     0
  0
VISUALSTYLE
  5
36
102
{ACAD_REACTORS
330
2A
102
}
330
2A
100
AcDbVisualStyle
  2
Brighten
 70
    12
 71
     2
 72
     2
 73
     0
 90
        0
 40
-0.6
 41
-30.0
 62
     5
 63
     7
421
 16777215
 74
     1
 91
        4
 64
     7
 65
   257
 75
     1
175
     1
 42
1.0
 92
        8
 66
     7
 43
1.0
 76
     1
 77
     6
 78
     2
 67
     7
 79
     5
170
     0
171
     0
290
     0
174
     0
 93
        1
 44
50.0
173
     0
291
     1
 45
0.0
1001
ACAD
1000
AcDbSavedByObjectVersion
1070
     0
  0
VISUALSTYLE
  5
3A
102
{ACAD_REACTORS
330
2A
102
}
330
2A
100
AcDbVisualStyle
  2
ColorChange
 70
    16
 71
     2
 72
     2
 73
     3
 90
        0
 40
-0.6
 41
-30.0
 62
     5
 63
     8
421
  8421504
 74
     1
 91
        4
 64
     7
 65
   257
 75
     1
175
     1
 42
1.0
 92
        8
 66
     8
424
  8421504
 43
1.0
 76
     1
 77
     6
 78
     2
 67
     7
 79
     5
170
     0
171
     0
290
     0
174
     0
 93
        1
 44
0.0
173
     0
291
     1
 45
0.0
1001
ACAD
1000
AcDbSavedByObjectVersion
1070
     0
  0
VISUALSTYLE
  5
34
102
{ACAD_REACTORS
330
2A
102
}
330
2A
100
AcDbVisualStyle
  2
Conceptual
 70
     9
 71
     3
 72
     2
 73
     0
 90
        0
 40
-0.6
 41
-30.0
 62
     5
 63
     7
421
 16777215
 74
     2
 91
        2
 64
     7
 65
   257
 75
     1
175
     1
 42
40.0
 92
        8
 66
     7
 43
1.0
 76
     1
 77
     6
 78
     2
 67
     7
 79
     3
170
     0
171
     0
290
     0
174
     0
 93
        1
 44
0.0
173
     0
291
     0
 45
0.0
1001
ACAD
1000
AcDbSavedByObjectVersion
1070
     0
  0
VISUALSTYLE
  5
35
102
{ACAD_REACTORS
330
2A
102
}
330
2A
100
AcDbVisualStyle
  2
Dim
 70
    11
 71
     2
 72
     2
 73
     0
 90
        0
 40
-0.6
 41
-30.0
 62
     5
 63
     7
421
 16777215
 74
     1
 91
        4
 64
     7
 65
   257
 75
     1
175
     1
 42
1.0
 92
        8
 66
     7
 43
1.0
 76
     1
 77
     6
 78
     2
 67
     7
 79
     5
170
     0
171
     0
290
     0
174
     0
 93
        1
 44
-50.0
173
     0
291
     1
 45
0.0
1001
ACAD
1000
AcDbSavedByObjectVersion
1070
     0
  0
VISUALSTYLE
  5
39
102
{ACAD_REACTORS
330
2A
102
}
330
2A
100
AcDbVisualStyle
  2
Facepattern
 70
    15
 71
     2
 72
     2
 73
     0
 90
        0
 40
-0.6
 41
-30.0
 62
     5
 63
     7
421
 16777215
 74
     1
 91
        4
 64
     7
 65
   257
 75
     1
175
     1
 42
1.0
 92
        8
 66
     7
 43
1.0
 76
     1
 77
     6
 78
     2
 67
     7
 79
     5
170
     0
171
     0
290
     0
174
     0
 93
        1
 44
0.0
173
     0
291
     1
 45
0.0
1001
ACAD
1000
AcDbSavedByObjectVersion
1070
     0
  0
VISUALSTYLE
  5
2B
102
{ACAD_REACTORS
330
2A
102
}
330
2A
100
AcDbVisualStyle
  2
Flat
 70
     0
 71
     2
 72
     1
 73
     1
 90
        2
 40
-0.6
 41
30.0
 62
     5
 63
     7
421
 16777215
 74
     0
 91
        4
 64
     7
 65
   257
 75
     1
175
     1
 42
1.0
 92
        8
 66
     7
 43
1.0
 76
     1
 77
     6
 78
     2
 67
     7
 79
     5
170
     0
171
     0
290
     0
174
     0
 93
       13
 44
0.0
173
     0
291
     1
 45
0.0
1001
ACAD
1000
AcDbSavedByObjectVersion
1070
     0
  0
VISUALSTYLE
  5
2C
102
{ACAD_REACTORS
330
2A
102
}
330
2A
100
AcDbVisualStyle
  2
FlatWithEdges
 70
     1
 71
     2
 72
     1
 73
     1
 90
        2
 40
-0.6
 41
30.0
 62
     5
 63
     7
421
 16777215
 74
     1
 91
        4
 64
     7
 65
   257
 75
     1
175
     1
 42
1.0
 92
        0
 66
   257
 43
1.0
 76
     1
 77
     6
 78
     2
 67
     7
 79
     5
170
     0
171
     0
290
     0
174
     0
 93
       13
 44
0.0
173
     0
291
     1
 45
0.0
1001
ACAD
1000
AcDbSavedByObjectVersion
1070
     0
  0
VISUALSTYLE
  5
2D
102
{ACAD_REACTORS
330
2A
102
}
330
2A
100
AcDbVisualStyle
  2
Gouraud
 70
     2
 71
     2
 72
     2
 73
     1
 90
        2
 40
-0.6
 41
30.0
 62
     5
 63
     7
421
 16777215
 74
     0
 91
        4
 64
     7
 65
   257
 75
     1
175
     1
 42
1.0
 92
        0
 66
     7
 43
1.0
 76
     1
 77
     6
 78
     2
 67
     7
 79
     5
170
     0
171
     0
290
     0
174
     0
 93
       13
 44
0.0
173
     0
291
     1
 45
0.0
1001
ACAD
1000
AcDbSavedByObjectVersion
1070
     0
  0
VISUALSTYLE
  5
2E
102
{ACAD_REACTORS
330
2A
102
}
330
2A
100
AcDbVisualStyle
  2
GouraudWithEdges
 70
     3
 71
     2
 72
     2
 73
     1
 90
        2
 40
-0.6
 41
30.0
 62
     5
 63
     7
421
 16777215
 74
     1
 91
        4
 64
     7
 65
   257
 75
     1
175
     1
 42
1.0
 92
        0
 66
   257
 43
1.0
 76
     1
 77
     6
 78
     2
 67
     7
 79
     5
170
     0
171
     0
290
     0
174
     0
 93
       13
 44
0.0
173
     0
291
     1
 45
0.0
1001
ACAD
1000
AcDbSavedByObjectVersion
1070
     0
  0
VISUALSTYLE
  5
38
102
{ACAD_REACTORS
330
2A
102
}
330
2A
100
AcDbVisualStyle
  2
Linepattern
 70
    14
 71
     2
 72
     2
 73
     0
 90
        0
 40
-0.6
 41
-30.0
 62
     5
 63
     7
421
 16777215
 74
     1
 91
        4
 64
     7
 65
   257
 75
     7
175
     7
 42
1.0
 92
        8
 66
     7
 43
1.0
 76
     1
 77
     6
 78
     2
 67
     7
 79
     5
170
     0
171
     0
290
     0
174
     0
 93
        1
 44
0.0
173
     0
291
     1
 45
0.0
1001
ACAD
1000
AcDbSavedByObjectVersion
1070
     0
  0
VISUALSTYLE
  5
33
102
{ACAD_REACTORS
330
2A
102
}
330
2A
100
AcDbVisualStyle
  2
Realistic
 70
     8
 71
     2
 72
     2
 73
     0
 90
        0
 40
-0.6
 41
-30.0
 62
     5
 63
     7
421
 16777215
 74
     1
 91
        0
 64
     7
 65
   257
 75
     1
175
     1
 42
1.0
 92
        8
 66
     8
424
  7895160
 43
1.0
 76
     1
 77
     6
 78
     2
 67
     7
 79
     5
170
     0
171
     0
290
     0
174
     0
 93
       13
 44
0.0
173
     0
291
     0
 45
0.0
1001
ACAD
1000
AcDbSavedByObjectVersion
1070
     0
  0
VISUALSTYLE
  5
37
102
{ACAD_REACTORS
330
2A
102
}
330
2A
100
AcDbVisualStyle
  2
Thicken
 70
    13
 71
     2
 72
     2
 73
     0
 90
        0
 40
-0.6
 41
-30.0
 62
     5
 63
     7
421
 16777215
 74
     1
 91
        4
 64
     7
 65
   257
 75
     1
175
     1
 42
1.0
 92
       12
 66
     7
 43
1.0
 76
     1
 77
     6
 78
     2
 67
     7
 79
     5
170
     0
171
     0
290
     0
174
     0
 93
        1
 44
0.0
173
     0
291
     1
 45
0.0
1001
ACAD
1000
AcDbSavedByObjectVersion
1070
     0
  0
ENDSEC
  0
EOF
