  0
SECTION
  2
HEADER
  9
$ACADVER
  1
AC1018
  9
$ACADMAINTVER
 70
     0
  9
$DWGCODEPAGE
  3
ANSI_932
  9
$INSBASE
 10
0.0
 20
0.0
 30
0.0
  9
$EXTMIN
 10
1.000000000000000E+20
 20
1.000000000000000E+20
 30
1.000000000000000E+20
  9
$EXTMAX
 10
-1.000000000000000E+20
 20
-1.000000000000000E+20
 30
-1.000000000000000E+20
  9
$LIMMIN
 10
0.0
 20
0.0
  9
$LIMMAX
 10
12.0
 20
9.0
  9
$ORTHOMODE
 70
     0
  9
$REGENMODE
 70
     1
  9
$FILLMODE
 70
     1
  9
$QTEXTMODE
 70
     0
  9
$MIRRTEXT
 70
     1
  9
$LTSCALE
 40
1.0
  9
$ATTMODE
 70
     1
  9
$TEXTSIZE
 40
0.2
  9
$TRACEWID
 40
0.05
  9
$TEXTSTYLE
  7
Standard
  9
$CLAYER
  8
0
  9
$CELTYPE
  6
ByLayer
  9
$CECOLOR
 62
   256
  9
$CELTSCALE
 40
1.0
  9
$DISPSILH
 70
     0
  9
$DIMSCALE
 40
1.0
  9
$DIMASZ
 40
0.18
  9
$DIMEXO
 40
0.0625
  9
$DIMDLI
 40
0.38
  9
$DIMRND
 40
0.0
  9
$DIMDLE
 40
0.0
  9
$DIMEXE
 40
0.18
  9
$DIMTP
 40
0.0
  9
$DIMTM
 40
0.0
  9
$DIMTXT
 40
0.18
  9
$DIMCEN
 40
0.09
  9
$DIMTSZ
 40
0.0
  9
$DIMTOL
 70
     0
  9
$DIMLIM
 70
     0
  9
$DIMTIH
 70
     1
  9
$DIMTOH
 70
     1
  9
$DIMSE1
 70
     0
  9
$DIMSE2
 70
     0
  9
$DIMTAD
 70
     0
  9
$DIMZIN
 70
     0
  9
$DIMBLK
  1

  9
$DIMASO
 70
     1
  9
$DIMSHO
 70
     1
  9
$DIMPOST
  1

  9
$DIMAPOST
  1

  9
$DIMALT
 70
     0
  9
$DIMALTD
 70
     2
  9
$DIMALTF
 40
25.4
  9
$DIMLFAC
 40
1.0
  9
$DIMTOFL
 70
     0
  9
$DIMTVP
 40
0.0
  9
$DIMTIX
 70
     0
  9
$DIMSOXD
 70
     0
  9
$DIMSAH
 70
     0
  9
$DIMBLK1
  1

  9
$DIMBLK2
  1

  9
$DIMSTYLE
  2
Standard
  9
$DIMCLRD
 70
     0
  9
$DIMCLRE
 70
     0
  9
$DIMCLRT
 70
     0
  9
$DIMTFAC
 40
1.0
  9
$DIMGAP
 40
0.09
  9
$DIMJUST
 70
     0
  9
$DIMSD1
 70
     0
  9
$DIMSD2
 70
     0
  9
$DIMTOLJ
 70
     1
  9
$DIMTZIN
 70
     0
  9
$DIMALTZ
 70
     0
  9
$DIMALTTZ
 70
     0
  9
$DIMUPT
 70
     0
  9
$DIMDEC
 70
     4
  9
$DIMTDEC
 70
     4
  9
$DIMALTU
 70
     2
  9
$DIMALTTD
 70
     2
  9
$DIMTXSTY
  7
Standard
  9
$DIMAUNIT
 70
     0
  9
$DIMADEC
 70
     0
  9
$DIMALTRND
 40
0.0
  9
$DIMAZIN
 70
     0
  9
$DIMDSEP
 70
    46
  9
$DIMATFIT
 70
     3
  9
$DIMFRAC
 70
     0
  9
$DIMLDRBLK
  1

  9
$DIMLUNIT
 70
     2
  9
$DIMLWD
 70
    -2
  9
$DIMLWE
 70
    -2
  9
$DIMTMOVE
 70
     0
  9
$LUNITS
 70
     2
  9
$LUPREC
 70
     4
  9
$SKETCHINC
 40
0.1
  9
$FILLETRAD
 40
0.5
  9
$AUNITS
 70
     0
  9
$AUPREC
 70
     0
  9
$MENU
  1
.
  9
$ELEVATION
 40
0.0
  9
$PELEVATION
 40
0.0
  9
$THICKNESS
 40
0.0
  9
$LIMCHECK
 70
     0
  9
$CHAMFERA
 40
0.5
  9
$CHAMFERB
 40
0.5
  9
$CHAMFERC
 40
1.0
  9
$CHAMFERD
 40
0.0
  9
$SKPOLY
 70
     0
  9
$TDCREATE
 40
2456077.609409722
  9
$TDUCREATE
 40
2456077.567743056
  9
$TDUPDATE
 40
2456077.609409734
  9
$TDUUPDATE
 40
2456077.567743067
  9
$TDINDWG
 40
0.0000000116
  9
$TDUSRTIMER
 40
0.0000000116
  9
$USRTIMER
 70
     1
  9
$ANGBASE
 50
0.0
  9
$ANGDIR
 70
     0
  9
$PDMODE
 70
     0
  9
$PDSIZE
 40
0.0
  9
$PLINEWID
 40
0.0
  9
$SPLFRAME
 70
     0
  9
$SPLINETYPE
 70
     6
  9
$SPLINESEGS
 70
     8
  9
$HANDSEED
  5
71E
  9
$SURFTAB1
 70
     6
  9
$SURFTAB2
 70
     6
  9
$SURFTYPE
 70
     6
  9
$SURFU
 70
     6
  9
$SURFV
 70
     6
  9
$UCSBASE
  2

  9
$UCSNAME
  2

  9
$UCSORG
 10
0.0
 20
0.0
 30
0.0
  9
$UCSXDIR
 10
1.0
 20
0.0
 30
0.0
  9
$UCSYDIR
 10
0.0
 20
1.0
 30
0.0
  9
$UCSORTHOREF
  2

  9
$UCSORTHOVIEW
 70
     0
  9
$UCSORGTOP
 10
0.0
 20
0.0
 30
0.0
  9
$UCSORGBOTTOM
 10
0.0
 20
0.0
 30
0.0
  9
$UCSORGLEFT
 10
0.0
 20
0.0
 30
0.0
  9
$UCSORGRIGHT
 10
0.0
 20
0.0
 30
0.0
  9
$UCSORGFRONT
 10
0.0
 20
0.0
 30
0.0
  9
$UCSORGBACK
 10
0.0
 20
0.0
 30
0.0
  9
$PUCSBASE
  2

  9
$PUCSNAME
  2

  9
$PUCSORG
 10
0.0
 20
0.0
 30
0.0
  9
$PUCSXDIR
 10
1.0
 20
0.0
 30
0.0
  9
$PUCSYDIR
 10
0.0
 20
1.0
 30
0.0
  9
$PUCSORTHOREF
  2

  9
$PUCSORTHOVIEW
 70
     0
  9
$PUCSORGTOP
 10
0.0
 20
0.0
 30
0.0
  9
$PUCSORGBOTTOM
 10
0.0
 20
0.0
 30
0.0
  9
$PUCSORGLEFT
 10
0.0
 20
0.0
 30
0.0
  9
$PUCSORGRIGHT
 10
0.0
 20
0.0
 30
0.0
  9
$PUCSORGFRONT
 10
0.0
 20
0.0
 30
0.0
  9
$PUCSORGBACK
 10
0.0
 20
0.0
 30
0.0
  9
$USERI1
 70
     0
  9
$USERI2
 70
     0
  9
$USERI3
 70
     0
  9
$USERI4
 70
     0
  9
$USERI5
 70
     0
  9
$USERR1
 40
0.0
  9
$USERR2
 40
0.0
  9
$USERR3
 40
0.0
  9
$USERR4
 40
0.0
  9
$USERR5
 40
0.0
  9
$WORLDVIEW
 70
     1
  9
$SHADEDGE
 70
     3
  9
$SHADEDIF
 70
    70
  9
$TILEMODE
 70
     1
  9
$MAXACTVP
 70
    64
  9
$PINSBASE
 10
0.0
 20
0.0
 30
0.0
  9
$PLIMCHECK
 70
     0
  9
$PEXTMIN
 10
1.000000000000000E+20
 20
1.000000000000000E+20
 30
1.000000000000000E+20
  9
$PEXTMAX
 10
-1.000000000000000E+20
 20
-1.000000000000000E+20
 30
-1.000000000000000E+20
  9
$PLIMMIN
 10
0.0
 20
0.0
  9
$PLIMMAX
 10
12.0
 20
9.0
  9
$UNITMODE
 70
     0
  9
$VISRETAIN
 70
     1
  9
$PLINEGEN
 70
     0
  9
$PSLTSCALE
 70
     1
  9
$TREEDEPTH
 70
  3020
  9
$CMLSTYLE
  2
Standard
  9
$CMLJUST
 70
     0
  9
$CMLSCALE
 40
1.0
  9
$PROXYGRAPHICS
 70
     1
  9
$MEASUREMENT
 70
     0
  9
$CELWEIGHT
370
    -1
  9
$ENDCAPS
280
     0
  9
$JOINSTYLE
280
     0
  9
$LWDISPLAY
290
     1
  9
$INSUNITS
 70
     1
  9
$HYPERLINKBASE
  1

  9
$STYLESHEET
  1

  9
$XEDIT
290
     1
  9
$CEPSNTYPE
380
     0
  9
$PSTYLEMODE
290
     1
  9
$FINGERPRINTGUID
  2
{675606FF-2933-1ED0-65A8-A6704CE60E1B}
  9
$VERSIONGUID
  2
{FAEB1C32-E019-11D5-929B-00C0DF256EC4}
  9
$EXTNAMES
290
     1
  9
$PSVPSCALE
 40
0.0
  9
$OLESTARTUP
290
     0
  9
$SORTENTS
280
   127
  9
$INDEXCTL
280
     0
  9
$HIDETEXT
280
     1
  9
$XCLIPFRAME
290
     0
  9
$HALOGAP
280
     0
  9
$OBSCOLOR
 70
   257
  9
$OBSLTYPE
280
     0
  9
$INTERSECTIONDISPLAY
280
     0
  9
$INTERSECTIONCOLOR
 70
   257
  9
$DIMASSOC
280
     2
  9
$PROJECTNAME
  1

  0
ENDSEC
  0
SECTION
  2
CLASSES
  0
CLASS
  1
ACDBDICTIONARYWDFLT
  2
AcDbDictionaryWithDefault
  3
ObjectDBX Classes
 90
        0
 91
        3
280
     0
281
     0
  0
CLASS
  1
VISUALSTYLE
  2
AcDbVisualStyle
  3
ObjectDBX Classes
 90
     4095
 91
        3
280
     0
281
     0
  0
ENDSEC
  0
SECTION
  2
TABLES
  0
TABLE
  2
VPORT
  5
8
330
0
100
AcDbSymbolTable
 70
     1
  0
VPORT
  5
29
330
8
100
AcDbSymbolTableRecord
100
AcDbViewportTableRecord
  2
*Active
 70
     0
 10
0.0
 20
0.0
 11
1.0
 21
1.0
 12
0.0
 22
0.0
 13
0.0
 23
0.0
 14
0.5
 24
0.5
 15
0.5
 25
0.5
 16
0.0
 26
0.0
 36
1.0
 17
105.0008259828644
 27
-148.4999796178229
 37
0.0
 40
296.9999592356459
 41
0.7070763662937379
 42
50.0
 43
0.0
 44
0.0
 50
0.0
 51
0.0
 71
     0
 72
   100
 73
     1
 74
     3
 75
     0
 76
     0
 77
     0
 78
     0
281
     0
 65
     1
110
0.0
120
0.0
130
0.0
111
1.0
121
0.0
131
0.0
112
0.0
122
1.0
132
0.0
 79
     0
146
0.0
  0
ENDTAB
  0
TABLE
  2
LTYPE
  5
5
330
0
100
AcDbSymbolTable
 70
     1
  0
LTYPE
  5
14
330
5
100
AcDbSymbolTableRecord
100
AcDbLinetypeTableRecord
  2
ByBlock
 70
     0
  3

 72
    65
 73
     0
 40
0.0
  0
LTYPE
  5
15
330
5
100
AcDbSymbolTableRecord
100
AcDbLinetypeTableRecord
  2
ByLayer
 70
     0
  3

 72
    65
 73
     0
 40
0.0
  0
LTYPE
  5
16
330
5
100
AcDbSymbolTableRecord
100
AcDbLinetypeTableRecord
  2
Continuous
 70
     0
  3
Solid line
 72
    65
 73
     0
 40
0.0
  0
ENDTAB
  0
TABLE
  2
LAYER
  5
2
330
0
100
AcDbSymbolTable
 70
     2
  0
LAYER
  5
10
330
2
100
AcDbSymbolTableRecord
100
AcDbLayerTableRecord
  2
0
 70
     0
 62
     7
  6
Continuous
370
    -3
390
F
  0
LAYER
  5
3B
330
2
100
AcDbSymbolTableRecord
100
AcDbLayerTableRecord
  2
Ebene 1
 70
     0
 62
     7
  6
Continuous
370
    -3
390
F
  0
ENDTAB
  0
TABLE
  2
STYLE
  5
3
330
0
100
AcDbSymbolTable
 70
     1
  0
STYLE
  5
11
330
3
100
AcDbSymbolTableRecord
100
AcDbTextStyleTableRecord
  2
Standard
 70
     0
 40
0.0
 41
1.0
 50
0.0
 71
     0
 42
0.2
  3
txt
  4

  0
ENDTAB
  0
TABLE
  2
VIEW
  5
6
330
0
100
AcDbSymbolTable
 70
     0
  0
ENDTAB
  0
TABLE
  2
UCS
  5
7
330
0
100
AcDbSymbolTable
 70
     0
  0
ENDTAB
  0
TABLE
  2
APPID
  5
9
330
0
100
AcDbSymbolTable
 70
     1
  0
APPID
  5
12
330
9
100
AcDbSymbolTableRecord
100
AcDbRegAppTableRecord
  2
ACAD
 70
     0
  0
ENDTAB
  0
TABLE
  2
DIMSTYLE
  5
A
330
0
100
AcDbSymbolTable
 70
     1
100
AcDbDimStyleTable
  0
DIMSTYLE
105
27
330
A
100
AcDbSymbolTableRecord
100
AcDbDimStyleTableRecord
  2
Standard
 70
     0
340
11
  0
ENDTAB
  0
TABLE
  2
BLOCK_RECORD
  5
1
330
0
100
AcDbSymbolTable
 70
     4
  0
BLOCK_RECORD
  5
1F
330
1
100
AcDbSymbolTableRecord
100
AcDbBlockTableRecord
  2
*Model_Space
340
22
  0
BLOCK_RECORD
  5
1B
330
1
100
AcDbSymbolTableRecord
100
AcDbBlockTableRecord
  2
*Paper_Space
340
1E
  0
BLOCK_RECORD
  5
23
330
1
100
AcDbSymbolTableRecord
100
AcDbBlockTableRecord
  2
*Paper_Space0
340
26
  0
BLOCK_RECORD
  5
3C
330
1
100
AcDbSymbolTableRecord
100
AcDbBlockTableRecord
  2
block 2
340
0
102
{BLKREFS
331
3D
102
}
  0
BLOCK_RECORD
  5
2FD
330
1
100
AcDbSymbolTableRecord
100
AcDbBlockTableRecord
  2
block 3
340
0
102
{BLKREFS
331
2FE
102
}
  0
BLOCK_RECORD
  5
694
330
1
100
AcDbSymbolTableRecord
100
AcDbBlockTableRecord
  2
block 4
340
0
102
{BLKREFS
331
695
102
}
  0
ENDTAB
  0
ENDSEC
  0
SECTION
  2
BLOCKS
  0
BLOCK
  5
20
330
1F
100
AcDbEntity
  8
0
100
AcDbBlockBegin
  2
*Model_Space
 70
     0
 71
     0
 10
0.0
 20
0.0
 30
0.0
  3
*Model_Space
  1

  0
ENDBLK
  5
21
330
1F
100
AcDbEntity
  8
0
100
AcDbBlockEnd
  0
BLOCK
  5
1C
330
1B
100
AcDbEntity
 67
     1
  8
0
100
AcDbBlockBegin
  2
*Paper_Space
 70
     0
 71
     0
 10
0.0
 20
0.0
 30
0.0
  3
*Paper_Space
  1

  0
ENDBLK
  5
1D
330
1B
100
AcDbEntity
 67
     1
  8
0
100
AcDbBlockEnd
  0
BLOCK
  5
24
330
23
100
AcDbEntity
  8
0
100
AcDbBlockBegin
  2
*Paper_Space0
 70
     0
 71
     0
 10
0.0
 20
0.0
 30
0.0
  3
*Paper_Space0
  1

  0
ENDBLK
  5
25
330
23
100
AcDbEntity
  8
0
100
AcDbBlockEnd
  0
BLOCK
  5
3E
330
3C
100
AcDbEntity
  8
0
100
AcDbBlockBegin
  2
block 2
 70
     0
 71
     0
 10
0.0
 20
0.0
 30
0.0
  3
block 2
  1

  0
POLYLINE
  5
40
330
3C
100
AcDbEntity
  8
Ebene 1
 62
   179
420
  1709851
370
    18
100
AcDb2dPolyline
 66
     1
 10
0.0
 20
0.0
 30
0.0
  0
VERTEX
  5
41
330
40
100
AcDbEntity
  8
Ebene 1
 62
   179
420
  1709851
370
    18
100
AcDbVertex
100
AcDb2dVertex
 10
33.75711262176905
 20
-117.8524101810404
 30
0.0
  0
VERTEX
  5
42
330
40
100
AcDbEntity
  8
Ebene 1
 62
   179
420
  1709851
370
    18
100
AcDbVertex
100
AcDb2dVertex
 10
34.39221597447487
 20
-117.2174790831088
 30
0.0
  0
SEQEND
  5
43
330
40
100
AcDbEntity
  8
Ebene 1
370
    18
  0
POLYLINE
  5
44
330
3C
100
AcDbEntity
  8
Ebene 1
 62
   179
420
  1709851
370
    18
100
AcDb2dPolyline
 66
     1
 10
0.0
 20
0.0
 30
0.0
  0
VERTEX
  5
45
330
44
100
AcDbEntity
  8
Ebene 1
 62
   179
420
  1709851
370
    18
100
AcDbVertex
100
AcDb2dVertex
 10
77.76269529305932
 20
-87.98653290986101
 30
0.0
  0
VERTEX
  5
46
330
44
100
AcDbEntity
  8
Ebene 1
 62
   179
420
  1709851
370
    18
100
AcDbVertex
100
AcDb2dVertex
 10
88.53654240408115
 20
-77.23404539084774
 30
0.0
  0
SEQEND
  5
47
330
44
100
AcDbEntity
  8
Ebene 1
370
    18
  0
POLYLINE
  5
48
330
3C
100
AcDbEntity
  8
Ebene 1
 62
   179
420
  1709851
370
    18
100
AcDb2dPolyline
 66
     1
 10
0.0
 20
0.0
 30
0.0
  0
VERTEX
  5
49
330
48
100
AcDbEntity
  8
Ebene 1
 62
   179
420
  1709851
370
    18
100
AcDbVertex
100
AcDb2dVertex
 10
33.75711262176905
 20
-131.9917710716028
 30
0.0
  0
VERTEX
  5
4A
330
48
100
AcDbEntity
  8
Ebene 1
 62
   179
420
  1709851
370
    18
100
AcDbVertex
100
AcDb2dVertex
 10
48.53157686503724
 20
-117.2174790831088
 30
0.0
  0
SEQEND
  5
4B
330
48
100
AcDbEntity
  8
Ebene 1
370
    18
  0
POLYLINE
  5
4C
330
3C
100
AcDbEntity
  8
Ebene 1
 62
   179
420
  1709851
370
    18
100
AcDb2dPolyline
 66
     1
 10
0.0
 20
0.0
 30
0.0
  0
VERTEX
  5
4D
330
4C
100
AcDbEntity
  8
Ebene 1
 62
   179
420
  1709851
370
    18
100
AcDbVertex
100
AcDb2dVertex
 10
77.76269529305932
 20
-102.1258938004234
 30
0.0
  0
VERTEX
  5
4E
330
4C
100
AcDbEntity
  8
Ebene 1
 62
   179
420
  1709851
370
    18
100
AcDbVertex
100
AcDb2dVertex
 10
102.6759032946435
 20
-77.23404539084774
 30
0.0
  0
SEQEND
  5
4F
330
4C
100
AcDbEntity
  8
Ebene 1
370
    18
  0
POLYLINE
  5
50
330
3C
100
AcDbEntity
  8
Ebene 1
 62
   179
420
  1709851
370
    18
100
AcDb2dPolyline
 66
     1
 10
0.0
 20
0.0
 30
0.0
  0
VERTEX
  5
51
330
50
100
AcDbEntity
  8
Ebene 1
 62
   179
420
  1709851
370
    18
100
AcDbVertex
100
AcDb2dVertex
 10
33.75711262176905
 20
-146.1311319621651
 30
0.0
  0
VERTEX
  5
52
330
50
100
AcDbEntity
  8
Ebene 1
 62
   179
420
  1709851
370
    18
100
AcDbVertex
100
AcDb2dVertex
 10
62.67093775559963
 20
-117.2174790831088
 30
0.0
  0
SEQEND
  5
53
330
50
100
AcDbEntity
  8
Ebene 1
370
    18
  0
POLYLINE
  5
54
330
3C
100
AcDbEntity
  8
Ebene 1
 62
   179
420
  1709851
370
    18
100
AcDb2dPolyline
 66
     1
 10
0.0
 20
0.0
 30
0.0
  0
VERTEX
  5
55
330
54
100
AcDbEntity
  8
Ebene 1
 62
   179
420
  1709851
370
    18
100
AcDbVertex
100
AcDb2dVertex
 10
77.76269529305932
 20
-116.2859252638973
 30
0.0
  0
VERTEX
  5
56
330
54
100
AcDbEntity
  8
Ebene 1
 62
   179
420
  1709851
370
    18
100
AcDbVertex
100
AcDb2dVertex
 10
116.8152641852059
 20
-77.23404539084774
 30
0.0
  0
SEQEND
  5
57
330
54
100
AcDbEntity
  8
Ebene 1
370
    18
  0
POLYLINE
  5
58
330
3C
100
AcDbEntity
  8
Ebene 1
 62
   179
420
  1709851
370
    18
100
AcDb2dPolyline
 66
     1
 10
0.0
 20
0.0
 30
0.0
  0
VERTEX
  5
59
330
58
100
AcDbEntity
  8
Ebene 1
 62
   179
420
  1709851
370
    18
100
AcDbVertex
100
AcDb2dVertex
 10
33.75711262176905
 20
-160.2706651075018
 30
0.0
  0
VERTEX
  5
5A
330
58
100
AcDbEntity
  8
Ebene 1
 62
   179
420
  1709851
370
    18
100
AcDbVertex
100
AcDb2dVertex
 10
76.81012639138775
 20
-117.2174790831088
 30
0.0
  0
SEQEND
  5
5B
330
58
100
AcDbEntity
  8
Ebene 1
370
    18
  0
POLYLINE
  5
5C
330
3C
100
AcDbEntity
  8
Ebene 1
 62
   179
420
  1709851
370
    18
100
AcDb2dPolyline
 66
     1
 10
0.0
 20
0.0
 30
0.0
  0
VERTEX
  5
5D
330
5C
100
AcDbEntity
  8
Ebene 1
 62
   179
420
  1709851
370
    18
100
AcDbVertex
100
AcDb2dVertex
 10
33.75711262176905
 20
-174.4100259980642
 30
0.0
  0
VERTEX
  5
5E
330
5C
100
AcDbEntity
  8
Ebene 1
 62
   179
420
  1709851
370
    18
100
AcDbVertex
100
AcDb2dVertex
 10
130.9542805662198
 20
-77.23404539084774
 30
0.0
  0
SEQEND
  5
5F
330
5C
100
AcDbEntity
  8
Ebene 1
370
    18
  0
POLYLINE
  5
60
330
3C
100
AcDbEntity
  8
Ebene 1
 62
   179
420
  1709851
370
    18
100
AcDb2dPolyline
 66
     1
 10
0.0
 20
0.0
 30
0.0
  0
VERTEX
  5
61
330
60
100
AcDbEntity
  8
Ebene 1
 62
   179
420
  1709851
370
    18
100
AcDbVertex
100
AcDb2dVertex
 10
45.10250107379382
 20
-177.2246690095133
 30
0.0
  0
VERTEX
  5
62
330
60
100
AcDbEntity
  8
Ebene 1
 62
   179
420
  1709851
370
    18
100
AcDbVertex
100
AcDb2dVertex
 10
137.7493869013265
 20
-84.55728486384332
 30
0.0
  0
SEQEND
  5
63
330
60
100
AcDbEntity
  8
Ebene 1
370
    18
  0
POLYLINE
  5
64
330
3C
100
AcDbEntity
  8
Ebene 1
 62
   179
420
  1709851
370
    18
100
AcDb2dPolyline
 66
     1
 10
0.0
 20
0.0
 30
0.0
  0
VERTEX
  5
65
330
64
100
AcDbEntity
  8
Ebene 1
 62
   179
420
  1709851
370
    18
100
AcDbVertex
100
AcDb2dVertex
 10
59.2418619643562
 20
-177.2246690095133
 30
0.0
  0
VERTEX
  5
66
330
64
100
AcDbEntity
  8
Ebene 1
 62
   179
420
  1709851
370
    18
100
AcDbVertex
100
AcDb2dVertex
 10
137.7493869013265
 20
-98.69664575440571
 30
0.0
  0
SEQEND
  5
67
330
64
100
AcDbEntity
  8
Ebene 1
370
    18
  0
POLYLINE
  5
68
330
3C
100
AcDbEntity
  8
Ebene 1
 62
   179
420
  1709851
370
    18
100
AcDb2dPolyline
 66
     1
 10
0.0
 20
0.0
 30
0.0
  0
VERTEX
  5
69
330
68
100
AcDbEntity
  8
Ebene 1
 62
   179
420
  1709851
370
    18
100
AcDbVertex
100
AcDb2dVertex
 10
73.38122285491859
 20
-177.2246690095133
 30
0.0
  0
VERTEX
  5
6A
330
68
100
AcDbEntity
  8
Ebene 1
 62
   179
420
  1709851
370
    18
100
AcDbVertex
100
AcDb2dVertex
 10
137.7493869013265
 20
-112.8360066449681
 30
0.0
  0
SEQEND
  5
6B
330
68
100
AcDbEntity
  8
Ebene 1
370
    18
  0
POLYLINE
  5
6C
330
3C
100
AcDbEntity
  8
Ebene 1
 62
   179
420
  1709851
370
    18
100
AcDb2dPolyline
 66
     1
 10
0.0
 20
0.0
 30
0.0
  0
VERTEX
  5
6D
330
6C
100
AcDbEntity
  8
Ebene 1
 62
   179
420
  1709851
370
    18
100
AcDbVertex
100
AcDb2dVertex
 10
87.52058374548096
 20
-177.2246690095133
 30
0.0
  0
VERTEX
  5
6E
330
6C
100
AcDbEntity
  8
Ebene 1
 62
   179
420
  1709851
370
    18
100
AcDbVertex
100
AcDb2dVertex
 10
137.7493869013265
 20
-126.975712045079
 30
0.0
  0
SEQEND
  5
6F
330
6C
100
AcDbEntity
  8
Ebene 1
370
    18
  0
POLYLINE
  5
70
330
3C
100
AcDbEntity
  8
Ebene 1
 62
   179
420
  1709851
370
    18
100
AcDb2dPolyline
 66
     1
 10
0.0
 20
0.0
 30
0.0
  0
VERTEX
  5
71
330
70
100
AcDbEntity
  8
Ebene 1
 62
   179
420
  1709851
370
    18
100
AcDbVertex
100
AcDb2dVertex
 10
101.6599446360433
 20
-177.2246690095133
 30
0.0
  0
VERTEX
  5
72
330
70
100
AcDbEntity
  8
Ebene 1
 62
   179
420
  1709851
370
    18
100
AcDbVertex
100
AcDb2dVertex
 10
137.7493869013265
 20
-141.1357435085529
 30
0.0
  0
SEQEND
  5
73
330
70
100
AcDbEntity
  8
Ebene 1
370
    18
  0
POLYLINE
  5
74
330
3C
100
AcDbEntity
  8
Ebene 1
 62
   179
420
  1709851
370
    18
100
AcDb2dPolyline
 66
     1
 10
0.0
 20
0.0
 30
0.0
  0
VERTEX
  5
75
330
74
100
AcDbEntity
  8
Ebene 1
 62
   179
420
  1709851
370
    18
100
AcDbVertex
100
AcDb2dVertex
 10
115.7993055266057
 20
-177.2246690095133
 30
0.0
  0
VERTEX
  5
76
330
74
100
AcDbEntity
  8
Ebene 1
 62
   179
420
  1709851
370
    18
100
AcDbVertex
100
AcDb2dVertex
 10
137.7493869013265
 20
-155.2752766538895
 30
0.0
  0
SEQEND
  5
77
330
74
100
AcDbEntity
  8
Ebene 1
370
    18
  0
POLYLINE
  5
78
330
3C
100
AcDbEntity
  8
Ebene 1
 62
   179
420
  1709851
370
    18
100
AcDb2dPolyline
 66
     1
 10
0.0
 20
0.0
 30
0.0
  0
VERTEX
  5
79
330
78
100
AcDbEntity
  8
Ebene 1
 62
   179
420
  1709851
370
    18
100
AcDbVertex
100
AcDb2dVertex
 10
129.9386664171681
 20
-177.2246690095133
 30
0.0
  0
VERTEX
  5
7A
330
78
100
AcDbEntity
  8
Ebene 1
 62
   179
420
  1709851
370
    18
100
AcDbVertex
100
AcDb2dVertex
 10
137.7493869013265
 20
-169.4146375444519
 30
0.0
  0
SEQEND
  5
7B
330
78
100
AcDbEntity
  8
Ebene 1
370
    18
  0
POLYLINE
  5
7C
330
3C
100
AcDbEntity
  8
Ebene 1
 62
   179
420
  1709851
370
    18
100
AcDb2dPolyline
 66
     1
 10
0.0
 20
0.0
 30
0.0
  0
VERTEX
  5
7D
330
7C
100
AcDbEntity
  8
Ebene 1
 62
   179
420
  1709851
370
    18
100
AcDbVertex
100
AcDb2dVertex
 10
77.76269529305932
 20
-80.91685246457982
 30
0.0
  0
VERTEX
  5
7E
330
7C
100
AcDbEntity
  8
Ebene 1
 62
   179
420
  1709851
370
    18
100
AcDbVertex
100
AcDb2dVertex
 10
81.44567462156567
 20
-77.23404539084774
 30
0.0
  0
SEQEND
  5
7F
330
7C
100
AcDbEntity
  8
Ebene 1
370
    18
  0
POLYLINE
  5
80
330
3C
100
AcDbEntity
  8
Ebene 1
 62
   179
420
  1709851
370
    18
100
AcDb2dPolyline
 66
     1
 10
0.0
 20
0.0
 30
0.0
  0
VERTEX
  5
81
330
80
100
AcDbEntity
  8
Ebene 1
 62
   179
420
  1709851
370
    18
100
AcDbVertex
100
AcDb2dVertex
 10
33.75711262176905
 20
-124.9220906263216
 30
0.0
  0
VERTEX
  5
82
330
80
100
AcDbEntity
  8
Ebene 1
 62
   179
420
  1709851
370
    18
100
AcDbVertex
100
AcDb2dVertex
 10
41.46189641975606
 20
-117.2174790831088
 30
0.0
  0
SEQEND
  5
83
330
80
100
AcDbEntity
  8
Ebene 1
370
    18
  0
POLYLINE
  5
84
330
3C
100
AcDbEntity
  8
Ebene 1
 62
   179
420
  1709851
370
    18
100
AcDb2dPolyline
 66
     1
 10
0.0
 20
0.0
 30
0.0
  0
VERTEX
  5
85
330
84
100
AcDbEntity
  8
Ebene 1
 62
   179
420
  1709851
370
    18
100
AcDbVertex
100
AcDb2dVertex
 10
77.76269529305932
 20
-95.0562133551422
 30
0.0
  0
VERTEX
  5
86
330
84
100
AcDbEntity
  8
Ebene 1
 62
   179
420
  1709851
370
    18
100
AcDbVertex
100
AcDb2dVertex
 10
95.60622284936234
 20
-77.23404539084774
 30
0.0
  0
SEQEND
  5
87
330
84
100
AcDbEntity
  8
Ebene 1
370
    18
  0
POLYLINE
  5
88
330
3C
100
AcDbEntity
  8
Ebene 1
 62
   179
420
  1709851
370
    18
100
AcDb2dPolyline
 66
     1
 10
0.0
 20
0.0
 30
0.0
  0
VERTEX
  5
89
330
88
100
AcDbEntity
  8
Ebene 1
 62
   179
420
  1709851
370
    18
100
AcDbVertex
100
AcDb2dVertex
 10
33.75711262176905
 20
-139.0614515168839
 30
0.0
  0
VERTEX
  5
8A
330
88
100
AcDbEntity
  8
Ebene 1
 62
   179
420
  1709851
370
    18
100
AcDbVertex
100
AcDb2dVertex
 10
55.60125731031844
 20
-117.2174790831088
 30
0.0
  0
SEQEND
  5
8B
330
88
100
AcDbEntity
  8
Ebene 1
370
    18
  0
POLYLINE
  5
8C
330
3C
100
AcDbEntity
  8
Ebene 1
 62
   179
420
  1709851
370
    18
100
AcDb2dPolyline
 66
     1
 10
0.0
 20
0.0
 30
0.0
  0
VERTEX
  5
8D
330
8C
100
AcDbEntity
  8
Ebene 1
 62
   179
420
  1709851
370
    18
100
AcDbVertex
100
AcDb2dVertex
 10
77.76269529305932
 20
-109.1955742457046
 30
0.0
  0
VERTEX
  5
8E
330
8C
100
AcDbEntity
  8
Ebene 1
 62
   179
420
  1709851
370
    18
100
AcDbVertex
100
AcDb2dVertex
 10
109.7455837399247
 20
-77.23404539084774
 30
0.0
  0
SEQEND
  5
8F
330
8C
100
AcDbEntity
  8
Ebene 1
370
    18
  0
POLYLINE
  5
90
330
3C
100
AcDbEntity
  8
Ebene 1
 62
   179
420
  1709851
370
    18
100
AcDb2dPolyline
 66
     1
 10
0.0
 20
0.0
 30
0.0
  0
VERTEX
  5
91
330
90
100
AcDbEntity
  8
Ebene 1
 62
   179
420
  1709851
370
    18
100
AcDbVertex
100
AcDb2dVertex
 10
33.75711262176905
 20
-153.2006401526721
 30
0.0
  0
VERTEX
  5
92
330
90
100
AcDbEntity
  8
Ebene 1
 62
   179
420
  1709851
370
    18
100
AcDbVertex
100
AcDb2dVertex
 10
69.74044594610656
 20
-117.2174790831088
 30
0.0
  0
SEQEND
  5
93
330
90
100
AcDbEntity
  8
Ebene 1
370
    18
  0
POLYLINE
  5
94
330
3C
100
AcDbEntity
  8
Ebene 1
 62
   179
420
  1709851
370
    18
100
AcDb2dPolyline
 66
     1
 10
0.0
 20
0.0
 30
0.0
  0
VERTEX
  5
95
330
94
100
AcDbEntity
  8
Ebene 1
 62
   179
420
  1709851
370
    18
100
AcDbVertex
100
AcDb2dVertex
 10
33.75711262176905
 20
-167.3400010432345
 30
0.0
  0
VERTEX
  5
96
330
94
100
AcDbEntity
  8
Ebene 1
 62
   179
420
  1709851
370
    18
100
AcDbVertex
100
AcDb2dVertex
 10
123.8849446304871
 20
-77.23404539084774
 30
0.0
  0
SEQEND
  5
97
330
94
100
AcDbEntity
  8
Ebene 1
370
    18
  0
POLYLINE
  5
98
330
3C
100
AcDbEntity
  8
Ebene 1
 62
   179
420
  1709851
370
    18
100
AcDb2dPolyline
 66
     1
 10
0.0
 20
0.0
 30
0.0
  0
VERTEX
  5
99
330
98
100
AcDbEntity
  8
Ebene 1
 62
   179
420
  1709851
370
    18
100
AcDbVertex
100
AcDb2dVertex
 10
38.03282062851263
 20
-177.2246690095133
 30
0.0
  0
VERTEX
  5
9A
330
98
100
AcDbEntity
  8
Ebene 1
 62
   179
420
  1709851
370
    18
100
AcDbVertex
100
AcDb2dVertex
 10
137.7493869013265
 20
-77.48760441856213
 30
0.0
  0
SEQEND
  5
9B
330
98
100
AcDbEntity
  8
Ebene 1
370
    18
  0
POLYLINE
  5
9C
330
3C
100
AcDbEntity
  8
Ebene 1
 62
   179
420
  1709851
370
    18
100
AcDb2dPolyline
 66
     1
 10
0.0
 20
0.0
 30
0.0
  0
VERTEX
  5
9D
330
9C
100
AcDbEntity
  8
Ebene 1
 62
   179
420
  1709851
370
    18
100
AcDbVertex
100
AcDb2dVertex
 10
52.17218151907501
 20
-177.2246690095133
 30
0.0
  0
VERTEX
  5
9E
330
9C
100
AcDbEntity
  8
Ebene 1
 62
   179
420
  1709851
370
    18
100
AcDbVertex
100
AcDb2dVertex
 10
137.7493869013265
 20
-91.62696530912451
 30
0.0
  0
SEQEND
  5
9F
330
9C
100
AcDbEntity
  8
Ebene 1
370
    18
  0
POLYLINE
  5
A0
330
3C
100
AcDbEntity
  8
Ebene 1
 62
   179
420
  1709851
370
    18
100
AcDb2dPolyline
 66
     1
 10
0.0
 20
0.0
 30
0.0
  0
VERTEX
  5
A1
330
A0
100
AcDbEntity
  8
Ebene 1
 62
   179
420
  1709851
370
    18
100
AcDbVertex
100
AcDb2dVertex
 10
66.3115424096374
 20
-177.2246690095133
 30
0.0
  0
VERTEX
  5
A2
330
A0
100
AcDbEntity
  8
Ebene 1
 62
   179
420
  1709851
370
    18
100
AcDbVertex
100
AcDb2dVertex
 10
137.7493869013265
 20
-105.7663261996869
 30
0.0
  0
SEQEND
  5
A3
330
A0
100
AcDbEntity
  8
Ebene 1
370
    18
  0
POLYLINE
  5
A4
330
3C
100
AcDbEntity
  8
Ebene 1
 62
   179
420
  1709851
370
    18
100
AcDb2dPolyline
 66
     1
 10
0.0
 20
0.0
 30
0.0
  0
VERTEX
  5
A5
330
A4
100
AcDbEntity
  8
Ebene 1
 62
   179
420
  1709851
370
    18
100
AcDbVertex
100
AcDb2dVertex
 10
80.45090330019978
 20
-177.2246690095133
 30
0.0
  0
VERTEX
  5
A6
330
A4
100
AcDbEntity
  8
Ebene 1
 62
   179
420
  1709851
370
    18
100
AcDbVertex
100
AcDb2dVertex
 10
137.7493869013265
 20
-119.9060315997978
 30
0.0
  0
SEQEND
  5
A7
330
A4
100
AcDbEntity
  8
Ebene 1
370
    18
  0
POLYLINE
  5
A8
330
3C
100
AcDbEntity
  8
Ebene 1
 62
   179
420
  1709851
370
    18
100
AcDb2dPolyline
 66
     1
 10
0.0
 20
0.0
 30
0.0
  0
VERTEX
  5
A9
330
A8
100
AcDbEntity
  8
Ebene 1
 62
   179
420
  1709851
370
    18
100
AcDbVertex
100
AcDb2dVertex
 10
94.59026419076216
 20
-177.2246690095133
 30
0.0
  0
VERTEX
  5
AA
330
A8
100
AcDbEntity
  8
Ebene 1
 62
   179
420
  1709851
370
    18
100
AcDbVertex
100
AcDb2dVertex
 10
137.7493869013265
 20
-134.0664075728202
 30
0.0
  0
SEQEND
  5
AB
330
A8
100
AcDbEntity
  8
Ebene 1
370
    18
  0
POLYLINE
  5
AC
330
3C
100
AcDbEntity
  8
Ebene 1
 62
   179
420
  1709851
370
    18
100
AcDb2dPolyline
 66
     1
 10
0.0
 20
0.0
 30
0.0
  0
VERTEX
  5
AD
330
AC
100
AcDbEntity
  8
Ebene 1
 62
   179
420
  1709851
370
    18
100
AcDbVertex
100
AcDb2dVertex
 10
108.729280571776
 20
-177.2246690095133
 30
0.0
  0
VERTEX
  5
AE
330
AC
100
AcDbEntity
  8
Ebene 1
 62
   179
420
  1709851
370
    18
100
AcDbVertex
100
AcDb2dVertex
 10
137.7493869013265
 20
-148.2054239538341
 30
0.0
  0
SEQEND
  5
AF
330
AC
100
AcDbEntity
  8
Ebene 1
370
    18
  0
POLYLINE
  5
B0
330
3C
100
AcDbEntity
  8
Ebene 1
 62
   179
420
  1709851
370
    18
100
AcDb2dPolyline
 66
     1
 10
0.0
 20
0.0
 30
0.0
  0
VERTEX
  5
B1
330
B0
100
AcDbEntity
  8
Ebene 1
 62
   179
420
  1709851
370
    18
100
AcDbVertex
100
AcDb2dVertex
 10
122.8686414623384
 20
-177.2246690095133
 30
0.0
  0
VERTEX
  5
B2
330
B0
100
AcDbEntity
  8
Ebene 1
 62
   179
420
  1709851
370
    18
100
AcDbVertex
100
AcDb2dVertex
 10
137.7493869013265
 20
-162.3446125896222
 30
0.0
  0
SEQEND
  5
B3
330
B0
100
AcDbEntity
  8
Ebene 1
370
    18
  0
POLYLINE
  5
B4
330
3C
100
AcDbEntity
  8
Ebene 1
 62
   179
420
  1709851
370
    18
100
AcDb2dPolyline
 66
     1
 10
0.0
 20
0.0
 30
0.0
  0
VERTEX
  5
B5
330
B4
100
AcDbEntity
  8
Ebene 1
 62
   179
420
  1709851
370
    18
100
AcDbVertex
100
AcDb2dVertex
 10
137.0080023529008
 20
-177.2246690095133
 30
0.0
  0
VERTEX
  5
B6
330
B4
100
AcDbEntity
  8
Ebene 1
 62
   179
420
  1709851
370
    18
100
AcDbVertex
100
AcDb2dVertex
 10
137.7493869013265
 20
-176.4839734801846
 30
0.0
  0
SEQEND
  5
B7
330
B4
100
AcDbEntity
  8
Ebene 1
370
    18
  0
POLYLINE
  5
B8
330
3C
100
AcDbEntity
  8
Ebene 1
370
     0
100
AcDb2dPolyline
 66
     1
 10
0.0
 20
0.0
 30
0.0
  0
VERTEX
  5
B9
330
B8
100
AcDbEntity
  8
Ebene 1
370
     0
100
AcDbVertex
100
AcDb2dVertex
 10
33.51388888051042
 20
-215.155859321211
 30
0.0
  0
VERTEX
  5
BA
330
B8
100
AcDbEntity
  8
Ebene 1
370
     0
100
AcDbVertex
100
AcDb2dVertex
 10
175.6795436843787
 20
-215.155859321211
 30
0.0
  0
VERTEX
  5
BB
330
B8
100
AcDbEntity
  8
Ebene 1
370
     0
100
AcDbVertex
100
AcDb2dVertex
 10
175.6795436843787
 20
-76.99013263049206
 30
0.0
  0
VERTEX
  5
BC
330
B8
100
AcDbEntity
  8
Ebene 1
370
     0
100
AcDbVertex
100
AcDb2dVertex
 10
33.51388888051042
 20
-76.99013263049206
 30
0.0
  0
VERTEX
  5
BD
330
B8
100
AcDbEntity
  8
Ebene 1
370
     0
100
AcDbVertex
100
AcDb2dVertex
 10
33.51388888051042
 20
-215.155859321211
 30
0.0
  0
SEQEND
  5
BE
330
B8
100
AcDbEntity
  8
Ebene 1
370
     0
  0
ENDBLK
  5
3F
330
3C
100
AcDbEntity
  8
0
100
AcDbBlockEnd
  0
BLOCK
  5
2FF
330
2FD
100
AcDbEntity
  8
0
100
AcDbBlockBegin
  2
block 3
 70
     0
 71
     0
 10
0.0
 20
0.0
 30
0.0
  3
block 3
  1

  0
POLYLINE
  5
301
330
2FD
100
AcDbEntity
  8
Ebene 1
 62
   179
420
  1709851
370
    50
100
AcDb2dPolyline
 66
     1
 10
0.0
 20
0.0
 30
0.0
  0
VERTEX
  5
302
330
301
100
AcDbEntity
  8
Ebene 1
 62
   179
420
  1709851
370
    50
100
AcDbVertex
100
AcDb2dVertex
 10
33.75728487654332
 20
-117.2174790831088
 30
0.0
  0
VERTEX
  5
303
330
301
100
AcDbEntity
  8
Ebene 1
 62
   179
420
  1709851
370
    50
100
AcDbVertex
100
AcDb2dVertex
 10
77.7628675478336
 20
-117.2174790831088
 30
0.0
  0
SEQEND
  5
304
330
301
100
AcDbEntity
  8
Ebene 1
370
    50
  0
POLYLINE
  5
305
330
2FD
100
AcDbEntity
  8
Ebene 1
 62
   179
420
  1709851
370
    50
100
AcDb2dPolyline
 66
     1
 10
0.0
 20
0.0
 30
0.0
  0
VERTEX
  5
306
330
305
100
AcDbEntity
  8
Ebene 1
 62
   179
420
  1709851
370
    50
100
AcDbVertex
100
AcDb2dVertex
 10
137.749042391778
 20
-77.23404539084774
 30
0.0
  0
VERTEX
  5
307
330
305
100
AcDbEntity
  8
Ebene 1
 62
   179
420
  1709851
370
    50
100
AcDbVertex
100
AcDb2dVertex
 10
137.749042391778
 20
-177.2246690095133
 30
0.0
  0
SEQEND
  5
308
330
305
100
AcDbEntity
  8
Ebene 1
370
    50
  0
POLYLINE
  5
309
330
2FD
100
AcDbEntity
  8
Ebene 1
 62
   179
420
  1709851
370
    50
100
AcDb2dPolyline
 66
     1
 10
0.0
 20
0.0
 30
0.0
  0
VERTEX
  5
30A
330
309
100
AcDbEntity
  8
Ebene 1
 62
   179
420
  1709851
370
    50
100
AcDbVertex
100
AcDb2dVertex
 10
77.7628675478336
 20
-77.23404539084774
 30
0.0
  0
VERTEX
  5
30B
330
309
100
AcDbEntity
  8
Ebene 1
 62
   179
420
  1709851
370
    50
100
AcDbVertex
100
AcDb2dVertex
 10
77.7628675478336
 20
-117.2174790831088
 30
0.0
  0
SEQEND
  5
30C
330
309
100
AcDbEntity
  8
Ebene 1
370
    50
  0
POLYLINE
  5
30D
330
2FD
100
AcDbEntity
  8
Ebene 1
 62
   179
420
  1709851
370
    50
100
AcDb2dPolyline
 66
     1
 10
0.0
 20
0.0
 30
0.0
  0
VERTEX
  5
30E
330
30D
100
AcDbEntity
  8
Ebene 1
 62
   179
420
  1709851
370
    50
100
AcDbVertex
100
AcDb2dVertex
 10
33.75728487654332
 20
-177.2246690095133
 30
0.0
  0
VERTEX
  5
30F
330
30D
100
AcDbEntity
  8
Ebene 1
 62
   179
420
  1709851
370
    50
100
AcDbVertex
100
AcDb2dVertex
 10
137.749042391778
 20
-177.2246690095133
 30
0.0
  0
SEQEND
  5
310
330
30D
100
AcDbEntity
  8
Ebene 1
370
    50
  0
POLYLINE
  5
311
330
2FD
100
AcDbEntity
  8
Ebene 1
 62
   179
420
  1709851
370
    18
100
AcDb2dPolyline
 66
     1
 10
0.0
 20
0.0
 30
0.0
  0
VERTEX
  5
312
330
311
100
AcDbEntity
  8
Ebene 1
 62
   179
420
  1709851
370
    18
100
AcDbVertex
100
AcDb2dVertex
 10
162.2602077502336
 20
-77.23370088129921
 30
0.0
  0
VERTEX
  5
313
330
311
100
AcDbEntity
  8
Ebene 1
 62
   179
420
  1709851
370
    18
100
AcDbVertex
100
AcDb2dVertex
 10
162.2602077502336
 20
-199.725276642777
 30
0.0
  0
VERTEX
  5
314
330
311
100
AcDbEntity
  8
Ebene 1
 62
   179
420
  1709851
370
    18
100
AcDbVertex
100
AcDb2dVertex
 10
167.2555962038458
 20
-199.725276642777
 30
0.0
  0
SEQEND
  5
315
330
311
100
AcDbEntity
  8
Ebene 1
370
    18
  0
POLYLINE
  5
316
330
2FD
100
AcDbEntity
  8
Ebene 1
 62
   179
420
  1709851
370
    18
100
AcDb2dPolyline
 66
     1
 10
0.0
 20
0.0
 30
0.0
  0
VERTEX
  5
317
330
316
100
AcDbEntity
  8
Ebene 1
 62
   179
420
  1709851
370
    18
100
AcDbVertex
100
AcDb2dVertex
 10
162.6198757188936
 20
-199.725276642777
 30
0.0
  0
VERTEX
  5
318
330
316
100
AcDbEntity
  8
Ebene 1
 62
   179
420
  1709851
370
    18
100
AcDbVertex
100
AcDb2dVertex
 10
162.6198757188936
 20
-77.23370088129921
 30
0.0
  0
SEQEND
  5
319
330
316
100
AcDbEntity
  8
Ebene 1
370
    18
  0
POLYLINE
  5
31A
330
2FD
100
AcDbEntity
  8
Ebene 1
 62
   179
420
  1709851
370
    18
100
AcDb2dPolyline
 66
     1
 10
0.0
 20
0.0
 30
0.0
  0
VERTEX
  5
31B
330
31A
100
AcDbEntity
  8
Ebene 1
 62
   179
420
  1709851
370
    18
100
AcDbVertex
100
AcDb2dVertex
 10
160.2703205979533
 20
-206.7312228215811
 30
0.0
  0
VERTEX
  5
31C
330
31A
100
AcDbEntity
  8
Ebene 1
 62
   179
420
  1709851
370
    18
100
AcDbVertex
100
AcDb2dVertex
 10
160.2703205979533
 20
-201.7151637950573
 30
0.0
  0
SEQEND
  5
31D
330
31A
100
AcDbEntity
  8
Ebene 1
370
    18
  0
POLYLINE
  5
31E
330
2FD
100
AcDbEntity
  8
Ebene 1
 62
   179
420
  1709851
370
    18
100
AcDb2dPolyline
 66
     1
 10
0.0
 20
0.0
 30
0.0
  0
VERTEX
  5
31F
330
31E
100
AcDbEntity
  8
Ebene 1
 62
   179
420
  1709851
370
    18
100
AcDbVertex
100
AcDb2dVertex
 10
33.75728487654332
 20
-201.7144747759603
 30
0.0
  0
VERTEX
  5
320
330
31E
100
AcDbEntity
  8
Ebene 1
 62
   179
420
  1709851
370
    18
100
AcDbVertex
100
AcDb2dVertex
 10
160.2703205979533
 20
-201.7144747759603
 30
0.0
  0
SEQEND
  5
321
330
31E
100
AcDbEntity
  8
Ebene 1
370
    18
  0
POLYLINE
  5
322
330
2FD
100
AcDbEntity
  8
Ebene 1
 62
   179
420
  1709851
370
    18
100
AcDb2dPolyline
 66
     1
 10
0.0
 20
0.0
 30
0.0
  0
VERTEX
  5
323
330
322
100
AcDbEntity
  8
Ebene 1
 62
   179
420
  1709851
370
    18
100
AcDbVertex
100
AcDb2dVertex
 10
160.2703205979533
 20
-202.0748317637174
 30
0.0
  0
VERTEX
  5
324
330
322
100
AcDbEntity
  8
Ebene 1
 62
   179
420
  1709851
370
    18
100
AcDbVertex
100
AcDb2dVertex
 10
33.75728487654332
 20
-202.0748317637174
 30
0.0
  0
SEQEND
  5
325
330
322
100
AcDbEntity
  8
Ebene 1
370
    18
  0
POLYLINE
  5
326
330
2FD
100
AcDbEntity
  8
Ebene 1
 62
   179
420
  1709851
370
    18
100
AcDb2dPolyline
 66
     1
 10
0.0
 20
0.0
 30
0.0
  0
VERTEX
  5
327
330
326
100
AcDbEntity
  8
Ebene 1
 62
   179
420
  1709851
370
    18
100
AcDbVertex
100
AcDb2dVertex
 10
175.2141112843215
 20
-77.23370088129921
 30
0.0
  0
VERTEX
  5
328
330
326
100
AcDbEntity
  8
Ebene 1
 62
   179
420
  1709851
370
    18
100
AcDbVertex
100
AcDb2dVertex
 10
175.5947943354416
 20
-77.23370088129921
 30
0.0
  0
SEQEND
  5
329
330
326
100
AcDbEntity
  8
Ebene 1
370
    18
  0
POLYLINE
  5
32A
330
2FD
100
AcDbEntity
  8
Ebene 1
 62
   179
420
  1709851
370
    18
100
AcDb2dPolyline
 66
     1
 10
0.0
 20
0.0
 30
0.0
  0
VERTEX
  5
32B
330
32A
100
AcDbEntity
  8
Ebene 1
 62
   179
420
  1709851
370
    18
100
AcDbVertex
100
AcDb2dVertex
 10
167.2132215293773
 20
-77.23370088129921
 30
0.0
  0
VERTEX
  5
32C
330
32A
100
AcDbEntity
  8
Ebene 1
 62
   179
420
  1709851
370
    18
100
AcDbVertex
100
AcDb2dVertex
 10
174.1981526257213
 20
-77.23370088129921
 30
0.0
  0
SEQEND
  5
32D
330
32A
100
AcDbEntity
  8
Ebene 1
370
    18
  0
POLYLINE
  5
32E
330
2FD
100
AcDbEntity
  8
Ebene 1
 62
   179
420
  1709851
370
    18
100
AcDb2dPolyline
 66
     1
 10
0.0
 20
0.0
 30
0.0
  0
VERTEX
  5
32F
330
32E
100
AcDbEntity
  8
Ebene 1
 62
   179
420
  1709851
370
    18
100
AcDbVertex
100
AcDb2dVertex
 10
165.2023192946369
 20
-77.23370088129921
 30
0.0
  0
VERTEX
  5
330
330
32E
100
AcDbEntity
  8
Ebene 1
 62
   179
420
  1709851
370
    18
100
AcDbVertex
100
AcDb2dVertex
 10
166.1972628707771
 20
-77.23370088129921
 30
0.0
  0
SEQEND
  5
331
330
32E
100
AcDbEntity
  8
Ebene 1
370
    18
  0
POLYLINE
  5
332
330
2FD
100
AcDbEntity
  8
Ebene 1
 62
   179
420
  1709851
370
    18
100
AcDb2dPolyline
 66
     1
 10
0.0
 20
0.0
 30
0.0
  0
VERTEX
  5
333
330
332
100
AcDbEntity
  8
Ebene 1
 62
   179
420
  1709851
370
    18
100
AcDbVertex
100
AcDb2dVertex
 10
157.2014295396927
 20
-77.23370088129921
 30
0.0
  0
VERTEX
  5
334
330
332
100
AcDbEntity
  8
Ebene 1
 62
   179
420
  1709851
370
    18
100
AcDbVertex
100
AcDb2dVertex
 10
164.2073757184968
 20
-77.23370088129921
 30
0.0
  0
SEQEND
  5
335
330
332
100
AcDbEntity
  8
Ebene 1
370
    18
  0
POLYLINE
  5
336
330
2FD
100
AcDbEntity
  8
Ebene 1
 62
   179
420
  1709851
370
    18
100
AcDb2dPolyline
 66
     1
 10
0.0
 20
0.0
 30
0.0
  0
VERTEX
  5
337
330
336
100
AcDbEntity
  8
Ebene 1
 62
   179
420
  1709851
370
    18
100
AcDbVertex
100
AcDb2dVertex
 10
155.2115423874124
 20
-77.23370088129921
 30
0.0
  0
VERTEX
  5
338
330
336
100
AcDbEntity
  8
Ebene 1
 62
   179
420
  1709851
370
    18
100
AcDbVertex
100
AcDb2dVertex
 10
156.2064859635526
 20
-77.23370088129921
 30
0.0
  0
SEQEND
  5
339
330
336
100
AcDbEntity
  8
Ebene 1
370
    18
  0
POLYLINE
  5
33A
330
2FD
100
AcDbEntity
  8
Ebene 1
 62
   179
420
  1709851
370
    18
100
AcDb2dPolyline
 66
     1
 10
0.0
 20
0.0
 30
0.0
  0
VERTEX
  5
33B
330
33A
100
AcDbEntity
  8
Ebene 1
 62
   179
420
  1709851
370
    18
100
AcDbVertex
100
AcDb2dVertex
 10
147.2106526324682
 20
-77.23370088129921
 30
0.0
  0
VERTEX
  5
33C
330
33A
100
AcDbEntity
  8
Ebene 1
 62
   179
420
  1709851
370
    18
100
AcDbVertex
100
AcDb2dVertex
 10
154.2169433208208
 20
-77.23370088129921
 30
0.0
  0
SEQEND
  5
33D
330
33A
100
AcDbEntity
  8
Ebene 1
370
    18
  0
POLYLINE
  5
33E
330
2FD
100
AcDbEntity
  8
Ebene 1
 62
   179
420
  1709851
370
    18
100
AcDb2dPolyline
 66
     1
 10
0.0
 20
0.0
 30
0.0
  0
VERTEX
  5
33F
330
33E
100
AcDbEntity
  8
Ebene 1
 62
   179
420
  1709851
370
    18
100
AcDbVertex
100
AcDb2dVertex
 10
145.1997503977279
 20
-77.23370088129921
 30
0.0
  0
VERTEX
  5
340
330
33E
100
AcDbEntity
  8
Ebene 1
 62
   179
420
  1709851
370
    18
100
AcDbVertex
100
AcDb2dVertex
 10
146.215709056328
 20
-77.23370088129921
 30
0.0
  0
SEQEND
  5
341
330
33E
100
AcDbEntity
  8
Ebene 1
370
    18
  0
POLYLINE
  5
342
330
2FD
100
AcDbEntity
  8
Ebene 1
 62
   179
420
  1709851
370
    18
100
AcDb2dPolyline
 66
     1
 10
0.0
 20
0.0
 30
0.0
  0
VERTEX
  5
343
330
342
100
AcDbEntity
  8
Ebene 1
 62
   179
420
  1709851
370
    18
100
AcDbVertex
100
AcDb2dVertex
 10
137.1988606427836
 20
-77.23370088129921
 30
0.0
  0
VERTEX
  5
344
330
342
100
AcDbEntity
  8
Ebene 1
 62
   179
420
  1709851
370
    18
100
AcDbVertex
100
AcDb2dVertex
 10
144.2048068215877
 20
-77.23370088129921
 30
0.0
  0
SEQEND
  5
345
330
342
100
AcDbEntity
  8
Ebene 1
370
    18
  0
POLYLINE
  5
346
330
2FD
100
AcDbEntity
  8
Ebene 1
 62
   179
420
  1709851
370
    18
100
AcDb2dPolyline
 66
     1
 10
0.0
 20
0.0
 30
0.0
  0
VERTEX
  5
347
330
346
100
AcDbEntity
  8
Ebene 1
 62
   179
420
  1709851
370
    18
100
AcDbVertex
100
AcDb2dVertex
 10
135.2089734905033
 20
-77.23370088129921
 30
0.0
  0
VERTEX
  5
348
330
346
100
AcDbEntity
  8
Ebene 1
 62
   179
420
  1709851
370
    18
100
AcDbVertex
100
AcDb2dVertex
 10
136.2039170666435
 20
-77.23370088129921
 30
0.0
  0
SEQEND
  5
349
330
346
100
AcDbEntity
  8
Ebene 1
370
    18
  0
POLYLINE
  5
34A
330
2FD
100
AcDbEntity
  8
Ebene 1
 62
   179
420
  1709851
370
    18
100
AcDb2dPolyline
 66
     1
 10
0.0
 20
0.0
 30
0.0
  0
VERTEX
  5
34B
330
34A
100
AcDbEntity
  8
Ebene 1
 62
   179
420
  1709851
370
    18
100
AcDbVertex
100
AcDb2dVertex
 10
127.2080837355591
 20
-77.23370088129921
 30
0.0
  0
VERTEX
  5
34C
330
34A
100
AcDbEntity
  8
Ebene 1
 62
   179
420
  1709851
370
    18
100
AcDbVertex
100
AcDb2dVertex
 10
134.2143744239117
 20
-77.23370088129921
 30
0.0
  0
SEQEND
  5
34D
330
34A
100
AcDbEntity
  8
Ebene 1
370
    18
  0
POLYLINE
  5
34E
330
2FD
100
AcDbEntity
  8
Ebene 1
 62
   179
420
  1709851
370
    18
100
AcDb2dPolyline
 66
     1
 10
0.0
 20
0.0
 30
0.0
  0
VERTEX
  5
34F
330
34E
100
AcDbEntity
  8
Ebene 1
 62
   179
420
  1709851
370
    18
100
AcDbVertex
100
AcDb2dVertex
 10
125.2185410928273
 20
-77.23370088129921
 30
0.0
  0
VERTEX
  5
350
330
34E
100
AcDbEntity
  8
Ebene 1
 62
   179
420
  1709851
370
    18
100
AcDbVertex
100
AcDb2dVertex
 10
126.2131401594189
 20
-77.23370088129921
 30
0.0
  0
SEQEND
  5
351
330
34E
100
AcDbEntity
  8
Ebene 1
370
    18
  0
POLYLINE
  5
352
330
2FD
100
AcDbEntity
  8
Ebene 1
 62
   179
420
  1709851
370
    18
100
AcDb2dPolyline
 66
     1
 10
0.0
 20
0.0
 30
0.0
  0
VERTEX
  5
353
330
352
100
AcDbEntity
  8
Ebene 1
 62
   179
420
  1709851
370
    18
100
AcDbVertex
100
AcDb2dVertex
 10
117.2173068283346
 20
-77.23370088129921
 30
0.0
  0
VERTEX
  5
354
330
352
100
AcDbEntity
  8
Ebene 1
 62
   179
420
  1709851
370
    18
100
AcDbVertex
100
AcDb2dVertex
 10
124.2025824342271
 20
-77.23370088129921
 30
0.0
  0
SEQEND
  5
355
330
352
100
AcDbEntity
  8
Ebene 1
370
    18
  0
POLYLINE
  5
356
330
2FD
100
AcDbEntity
  8
Ebene 1
 62
   179
420
  1709851
370
    18
100
AcDb2dPolyline
 66
     1
 10
0.0
 20
0.0
 30
0.0
  0
VERTEX
  5
357
330
356
100
AcDbEntity
  8
Ebene 1
 62
   179
420
  1709851
370
    18
100
AcDbVertex
100
AcDb2dVertex
 10
115.2067491031428
 20
-77.23370088129921
 30
0.0
  0
VERTEX
  5
358
330
356
100
AcDbEntity
  8
Ebene 1
 62
   179
420
  1709851
370
    18
100
AcDbVertex
100
AcDb2dVertex
 10
116.2016926792829
 20
-77.23370088129921
 30
0.0
  0
SEQEND
  5
359
330
356
100
AcDbEntity
  8
Ebene 1
370
    18
  0
POLYLINE
  5
35A
330
2FD
100
AcDbEntity
  8
Ebene 1
 62
   179
420
  1709851
370
    18
100
AcDb2dPolyline
 66
     1
 10
0.0
 20
0.0
 30
0.0
  0
VERTEX
  5
35B
330
35A
100
AcDbEntity
  8
Ebene 1
 62
   179
420
  1709851
370
    18
100
AcDbVertex
100
AcDb2dVertex
 10
107.2058593481985
 20
-77.23370088129921
 30
0.0
  0
VERTEX
  5
35C
330
35A
100
AcDbEntity
  8
Ebene 1
 62
   179
420
  1709851
370
    18
100
AcDbVertex
100
AcDb2dVertex
 10
114.2114610174541
 20
-77.23370088129921
 30
0.0
  0
SEQEND
  5
35D
330
35A
100
AcDbEntity
  8
Ebene 1
370
    18
  0
POLYLINE
  5
35E
330
2FD
100
AcDbEntity
  8
Ebene 1
 62
   179
420
  1709851
370
    18
100
AcDb2dPolyline
 66
     1
 10
0.0
 20
0.0
 30
0.0
  0
VERTEX
  5
35F
330
35E
100
AcDbEntity
  8
Ebene 1
 62
   179
420
  1709851
370
    18
100
AcDbVertex
100
AcDb2dVertex
 10
105.2156276863697
 20
-77.23370088129921
 30
0.0
  0
VERTEX
  5
360
330
35E
100
AcDbEntity
  8
Ebene 1
 62
   179
420
  1709851
370
    18
100
AcDbVertex
100
AcDb2dVertex
 10
106.2109157720584
 20
-77.23370088129921
 30
0.0
  0
SEQEND
  5
361
330
35E
100
AcDbEntity
  8
Ebene 1
370
    18
  0
POLYLINE
  5
362
330
2FD
100
AcDbEntity
  8
Ebene 1
 62
   179
420
  1709851
370
    18
100
AcDb2dPolyline
 66
     1
 10
0.0
 20
0.0
 30
0.0
  0
VERTEX
  5
363
330
362
100
AcDbEntity
  8
Ebene 1
 62
   179
420
  1709851
370
    18
100
AcDbVertex
100
AcDb2dVertex
 10
97.21491018619975
 20
-77.23370088129921
 30
0.0
  0
VERTEX
  5
364
330
362
100
AcDbEntity
  8
Ebene 1
 62
   179
420
  1709851
370
    18
100
AcDbVertex
100
AcDb2dVertex
 10
104.2212008745523
 20
-77.23370088129921
 30
0.0
  0
SEQEND
  5
365
330
362
100
AcDbEntity
  8
Ebene 1
370
    18
  0
POLYLINE
  5
366
330
2FD
100
AcDbEntity
  8
Ebene 1
 62
   179
420
  1709851
370
    18
100
AcDb2dPolyline
 66
     1
 10
0.0
 20
0.0
 30
0.0
  0
VERTEX
  5
367
330
366
100
AcDbEntity
  8
Ebene 1
 62
   179
420
  1709851
370
    18
100
AcDbVertex
100
AcDb2dVertex
 10
95.20418020623369
 20
-77.23370088129921
 30
0.0
  0
VERTEX
  5
368
330
366
100
AcDbEntity
  8
Ebene 1
 62
   179
420
  1709851
370
    18
100
AcDbVertex
100
AcDb2dVertex
 10
96.22013886483386
 20
-77.23370088129921
 30
0.0
  0
SEQEND
  5
369
330
366
100
AcDbEntity
  8
Ebene 1
370
    18
  0
POLYLINE
  5
36A
330
2FD
100
AcDbEntity
  8
Ebene 1
 62
   179
420
  1709851
370
    18
100
AcDb2dPolyline
 66
     1
 10
0.0
 20
0.0
 30
0.0
  0
VERTEX
  5
36B
330
36A
100
AcDbEntity
  8
Ebene 1
 62
   179
420
  1709851
370
    18
100
AcDbVertex
100
AcDb2dVertex
 10
87.20311819651519
 20
-77.23370088129921
 30
0.0
  0
VERTEX
  5
36C
330
36A
100
AcDbEntity
  8
Ebene 1
 62
   179
420
  1709851
370
    18
100
AcDbVertex
100
AcDb2dVertex
 10
94.20923663009353
 20
-77.23370088129921
 30
0.0
  0
SEQEND
  5
36D
330
36A
100
AcDbEntity
  8
Ebene 1
370
    18
  0
POLYLINE
  5
36E
330
2FD
100
AcDbEntity
  8
Ebene 1
 62
   179
420
  1709851
370
    18
100
AcDb2dPolyline
 66
     1
 10
0.0
 20
0.0
 30
0.0
  0
VERTEX
  5
36F
330
36E
100
AcDbEntity
  8
Ebene 1
 62
   179
420
  1709851
370
    18
100
AcDbVertex
100
AcDb2dVertex
 10
85.21340329900916
 20
-77.23370088129921
 30
0.0
  0
VERTEX
  5
370
330
36E
100
AcDbEntity
  8
Ebene 1
 62
   179
420
  1709851
370
    18
100
AcDbVertex
100
AcDb2dVertex
 10
86.2083468751493
 20
-77.23370088129921
 30
0.0
  0
SEQEND
  5
371
330
36E
100
AcDbEntity
  8
Ebene 1
370
    18
  0
POLYLINE
  5
372
330
2FD
100
AcDbEntity
  8
Ebene 1
 62
   179
420
  1709851
370
    18
100
AcDb2dPolyline
 66
     1
 10
0.0
 20
0.0
 30
0.0
  0
VERTEX
  5
373
330
372
100
AcDbEntity
  8
Ebene 1
 62
   179
420
  1709851
370
    18
100
AcDbVertex
100
AcDb2dVertex
 10
77.21251354406493
 20
-77.23370088129921
 30
0.0
  0
VERTEX
  5
374
330
372
100
AcDbEntity
  8
Ebene 1
 62
   179
420
  1709851
370
    18
100
AcDbVertex
100
AcDb2dVertex
 10
84.21863197764326
 20
-77.23370088129921
 30
0.0
  0
SEQEND
  5
375
330
372
100
AcDbEntity
  8
Ebene 1
370
    18
  0
POLYLINE
  5
376
330
2FD
100
AcDbEntity
  8
Ebene 1
 62
   179
420
  1709851
370
    18
100
AcDb2dPolyline
 66
     1
 10
0.0
 20
0.0
 30
0.0
  0
VERTEX
  5
377
330
376
100
AcDbEntity
  8
Ebene 1
 62
   179
420
  1709851
370
    18
100
AcDbVertex
100
AcDb2dVertex
 10
75.22279864655889
 20
-77.23370088129921
 30
0.0
  0
VERTEX
  5
378
330
376
100
AcDbEntity
  8
Ebene 1
 62
   179
420
  1709851
370
    18
100
AcDbVertex
100
AcDb2dVertex
 10
76.21756996792477
 20
-77.23370088129921
 30
0.0
  0
SEQEND
  5
379
330
376
100
AcDbEntity
  8
Ebene 1
370
    18
  0
POLYLINE
  5
37A
330
2FD
100
AcDbEntity
  8
Ebene 1
 62
   179
420
  1709851
370
    18
100
AcDb2dPolyline
 66
     1
 10
0.0
 20
0.0
 30
0.0
  0
VERTEX
  5
37B
330
37A
100
AcDbEntity
  8
Ebene 1
 62
   179
420
  1709851
370
    18
100
AcDbVertex
100
AcDb2dVertex
 10
73.76225041558722
 20
-77.23370088129921
 30
0.0
  0
VERTEX
  5
37C
330
37A
100
AcDbEntity
  8
Ebene 1
 62
   179
420
  1709851
370
    18
100
AcDbVertex
100
AcDb2dVertex
 10
73.76225041558722
 20
-77.23370088129921
 30
0.0
  0
VERTEX
  5
37D
330
37A
100
AcDbEntity
  8
Ebene 1
 62
   179
420
  1709851
370
    18
100
AcDbVertex
100
AcDb2dVertex
 10
74.20683998795872
 20
-77.23370088129921
 30
0.0
  0
SEQEND
  5
37E
330
37A
100
AcDbEntity
  8
Ebene 1
370
    18
  0
POLYLINE
  5
37F
330
2FD
100
AcDbEntity
  8
Ebene 1
 62
   179
420
  1709851
370
    18
100
AcDb2dPolyline
 66
     1
 10
0.0
 20
0.0
 30
0.0
  0
VERTEX
  5
380
330
37F
100
AcDbEntity
  8
Ebene 1
 62
   179
420
  1709851
370
    18
100
AcDbVertex
100
AcDb2dVertex
 10
33.75728487654332
 20
-120.4562133487922
 30
0.0
  0
VERTEX
  5
381
330
37F
100
AcDbEntity
  8
Ebene 1
 62
   179
420
  1709851
370
    18
100
AcDbVertex
100
AcDb2dVertex
 10
33.75728487654332
 20
-113.4712822524482
 30
0.0
  0
SEQEND
  5
382
330
37F
100
AcDbEntity
  8
Ebene 1
370
    18
  0
POLYLINE
  5
383
330
2FD
100
AcDbEntity
  8
Ebene 1
 62
   179
420
  1709851
370
    18
100
AcDb2dPolyline
 66
     1
 10
0.0
 20
0.0
 30
0.0
  0
VERTEX
  5
384
330
383
100
AcDbEntity
  8
Ebene 1
 62
   179
420
  1709851
370
    18
100
AcDbVertex
100
AcDb2dVertex
 10
33.75728487654332
 20
-122.4671155835325
 30
0.0
  0
VERTEX
  5
385
330
383
100
AcDbEntity
  8
Ebene 1
 62
   179
420
  1709851
370
    18
100
AcDbVertex
100
AcDb2dVertex
 10
33.75728487654332
 20
-121.4508124153838
 30
0.0
  0
SEQEND
  5
386
330
383
100
AcDbEntity
  8
Ebene 1
370
    18
  0
POLYLINE
  5
387
330
2FD
100
AcDbEntity
  8
Ebene 1
 62
   179
420
  1709851
370
    18
100
AcDb2dPolyline
 66
     1
 10
0.0
 20
0.0
 30
0.0
  0
VERTEX
  5
388
330
387
100
AcDbEntity
  8
Ebene 1
 62
   179
420
  1709851
370
    18
100
AcDbVertex
100
AcDb2dVertex
 10
33.75728487654332
 20
-130.4680053384768
 30
0.0
  0
VERTEX
  5
389
330
387
100
AcDbEntity
  8
Ebene 1
 62
   179
420
  1709851
370
    18
100
AcDbVertex
100
AcDb2dVertex
 10
33.75728487654332
 20
-123.4617146501242
 30
0.0
  0
SEQEND
  5
38A
330
387
100
AcDbEntity
  8
Ebene 1
370
    18
  0
POLYLINE
  5
38B
330
2FD
100
AcDbEntity
  8
Ebene 1
 62
   179
420
  1709851
370
    18
100
AcDb2dPolyline
 66
     1
 10
0.0
 20
0.0
 30
0.0
  0
VERTEX
  5
38C
330
38B
100
AcDbEntity
  8
Ebene 1
 62
   179
420
  1709851
370
    18
100
AcDbVertex
100
AcDb2dVertex
 10
33.75728487654332
 20
-132.4575479812085
 30
0.0
  0
VERTEX
  5
38D
330
38B
100
AcDbEntity
  8
Ebene 1
 62
   179
420
  1709851
370
    18
100
AcDbVertex
100
AcDb2dVertex
 10
33.75728487654332
 20
-131.4629489146169
 30
0.0
  0
SEQEND
  5
38E
330
38B
100
AcDbEntity
  8
Ebene 1
370
    18
  0
POLYLINE
  5
38F
330
2FD
100
AcDbEntity
  8
Ebene 1
 62
   179
420
  1709851
370
    18
100
AcDb2dPolyline
 66
     1
 10
0.0
 20
0.0
 30
0.0
  0
VERTEX
  5
390
330
38F
100
AcDbEntity
  8
Ebene 1
 62
   179
420
  1709851
370
    18
100
AcDbVertex
100
AcDb2dVertex
 10
33.75728487654332
 20
-140.4587822457013
 30
0.0
  0
VERTEX
  5
391
330
38F
100
AcDbEntity
  8
Ebene 1
 62
   179
420
  1709851
370
    18
100
AcDbVertex
100
AcDb2dVertex
 10
33.75728487654332
 20
-133.4524915573487
 30
0.0
  0
SEQEND
  5
392
330
38F
100
AcDbEntity
  8
Ebene 1
370
    18
  0
POLYLINE
  5
393
330
2FD
100
AcDbEntity
  8
Ebene 1
 62
   179
420
  1709851
370
    18
100
AcDb2dPolyline
 66
     1
 10
0.0
 20
0.0
 30
0.0
  0
VERTEX
  5
394
330
393
100
AcDbEntity
  8
Ebene 1
 62
   179
420
  1709851
370
    18
100
AcDbVertex
100
AcDb2dVertex
 10
33.75728487654332
 20
-142.4483248884331
 30
0.0
  0
VERTEX
  5
395
330
393
100
AcDbEntity
  8
Ebene 1
 62
   179
420
  1709851
370
    18
100
AcDbVertex
100
AcDb2dVertex
 10
33.75728487654332
 20
-141.4533813122929
 30
0.0
  0
SEQEND
  5
396
330
393
100
AcDbEntity
  8
Ebene 1
370
    18
  0
POLYLINE
  5
397
330
2FD
100
AcDbEntity
  8
Ebene 1
 62
   179
420
  1709851
370
    18
100
AcDb2dPolyline
 66
     1
 10
0.0
 20
0.0
 30
0.0
  0
VERTEX
  5
398
330
397
100
AcDbEntity
  8
Ebene 1
 62
   179
420
  1709851
370
    18
100
AcDbVertex
100
AcDb2dVertex
 10
33.75728487654332
 20
-150.4493868981515
 30
0.0
  0
VERTEX
  5
399
330
397
100
AcDbEntity
  8
Ebene 1
 62
   179
420
  1709851
370
    18
100
AcDbVertex
100
AcDb2dVertex
 10
33.75728487654332
 20
-143.4642835470332
 30
0.0
  0
SEQEND
  5
39A
330
397
100
AcDbEntity
  8
Ebene 1
370
    18
  0
POLYLINE
  5
39B
330
2FD
100
AcDbEntity
  8
Ebene 1
 62
   179
420
  1709851
370
    18
100
AcDb2dPolyline
 66
     1
 10
0.0
 20
0.0
 30
0.0
  0
VERTEX
  5
39C
330
39B
100
AcDbEntity
  8
Ebene 1
 62
   179
420
  1709851
370
    18
100
AcDbVertex
100
AcDb2dVertex
 10
33.75728487654332
 20
-152.4599446233433
 30
0.0
  0
VERTEX
  5
39D
330
39B
100
AcDbEntity
  8
Ebene 1
 62
   179
420
  1709851
370
    18
100
AcDbVertex
100
AcDb2dVertex
 10
33.75728487654332
 20
-151.4650010472032
 30
0.0
  0
SEQEND
  5
39E
330
39B
100
AcDbEntity
  8
Ebene 1
370
    18
  0
POLYLINE
  5
39F
330
2FD
100
AcDbEntity
  8
Ebene 1
 62
   179
420
  1709851
370
    18
100
AcDb2dPolyline
 66
     1
 10
0.0
 20
0.0
 30
0.0
  0
VERTEX
  5
3A0
330
39F
100
AcDbEntity
  8
Ebene 1
 62
   179
420
  1709851
370
    18
100
AcDbVertex
100
AcDb2dVertex
 10
33.75728487654332
 20
-160.4608343782876
 30
0.0
  0
VERTEX
  5
3A1
330
39F
100
AcDbEntity
  8
Ebene 1
 62
   179
420
  1709851
370
    18
100
AcDbVertex
100
AcDb2dVertex
 10
33.75728487654332
 20
-153.4548881994835
 30
0.0
  0
SEQEND
  5
3A2
330
39F
100
AcDbEntity
  8
Ebene 1
370
    18
  0
POLYLINE
  5
3A3
330
2FD
100
AcDbEntity
  8
Ebene 1
 62
   179
420
  1709851
370
    18
100
AcDb2dPolyline
 66
     1
 10
0.0
 20
0.0
 30
0.0
  0
VERTEX
  5
3A4
330
3A3
100
AcDbEntity
  8
Ebene 1
 62
   179
420
  1709851
370
    18
100
AcDbVertex
100
AcDb2dVertex
 10
33.75728487654332
 20
-162.4507215305679
 30
0.0
  0
VERTEX
  5
3A5
330
3A3
100
AcDbEntity
  8
Ebene 1
 62
   179
420
  1709851
370
    18
100
AcDbVertex
100
AcDb2dVertex
 10
33.75728487654332
 20
-161.4557779544277
 30
0.0
  0
SEQEND
  5
3A6
330
3A3
100
AcDbEntity
  8
Ebene 1
370
    18
  0
POLYLINE
  5
3A7
330
2FD
100
AcDbEntity
  8
Ebene 1
 62
   179
420
  1709851
370
    18
100
AcDb2dPolyline
 66
     1
 10
0.0
 20
0.0
 30
0.0
  0
VERTEX
  5
3A8
330
3A7
100
AcDbEntity
  8
Ebene 1
 62
   179
420
  1709851
370
    18
100
AcDbVertex
100
AcDb2dVertex
 10
33.75728487654332
 20
-170.4516112855121
 30
0.0
  0
VERTEX
  5
3A9
330
3A7
100
AcDbEntity
  8
Ebene 1
 62
   179
420
  1709851
370
    18
100
AcDbVertex
100
AcDb2dVertex
 10
33.75728487654332
 20
-163.4663356796195
 30
0.0
  0
SEQEND
  5
3AA
330
3A7
100
AcDbEntity
  8
Ebene 1
370
    18
  0
POLYLINE
  5
3AB
330
2FD
100
AcDbEntity
  8
Ebene 1
 62
   179
420
  1709851
370
    18
100
AcDb2dPolyline
 66
     1
 10
0.0
 20
0.0
 30
0.0
  0
VERTEX
  5
3AC
330
3AB
100
AcDbEntity
  8
Ebene 1
 62
   179
420
  1709851
370
    18
100
AcDbVertex
100
AcDb2dVertex
 10
33.75728487654332
 20
-172.4621690107039
 30
0.0
  0
VERTEX
  5
3AD
330
3AB
100
AcDbEntity
  8
Ebene 1
 62
   179
420
  1709851
370
    18
100
AcDbVertex
100
AcDb2dVertex
 10
33.75728487654332
 20
-171.4465548616523
 30
0.0
  0
SEQEND
  5
3AE
330
3AB
100
AcDbEntity
  8
Ebene 1
370
    18
  0
POLYLINE
  5
3AF
330
2FD
100
AcDbEntity
  8
Ebene 1
 62
   179
420
  1709851
370
    18
100
AcDb2dPolyline
 66
     1
 10
0.0
 20
0.0
 30
0.0
  0
VERTEX
  5
3B0
330
3AF
100
AcDbEntity
  8
Ebene 1
 62
   179
420
  1709851
370
    18
100
AcDbVertex
100
AcDb2dVertex
 10
33.75728487654332
 20
-180.4637477847452
 30
0.0
  0
VERTEX
  5
3B1
330
3AF
100
AcDbEntity
  8
Ebene 1
 62
   179
420
  1709851
370
    18
100
AcDbVertex
100
AcDb2dVertex
 10
33.75728487654332
 20
-173.4578016059411
 30
0.0
  0
SEQEND
  5
3B2
330
3AF
100
AcDbEntity
  8
Ebene 1
370
    18
  0
POLYLINE
  5
3B3
330
2FD
100
AcDbEntity
  8
Ebene 1
 62
   179
420
  1709851
370
    18
100
AcDb2dPolyline
 66
     1
 10
0.0
 20
0.0
 30
0.0
  0
VERTEX
  5
3B4
330
3B3
100
AcDbEntity
  8
Ebene 1
 62
   179
420
  1709851
370
    18
100
AcDbVertex
100
AcDb2dVertex
 10
33.75728487654332
 20
-182.4536349370255
 30
0.0
  0
VERTEX
  5
3B5
330
3B3
100
AcDbEntity
  8
Ebene 1
 62
   179
420
  1709851
370
    18
100
AcDbVertex
100
AcDb2dVertex
 10
33.75728487654332
 20
-181.4580023417883
 30
0.0
  0
SEQEND
  5
3B6
330
3B3
100
AcDbEntity
  8
Ebene 1
370
    18
  0
POLYLINE
  5
3B7
330
2FD
100
AcDbEntity
  8
Ebene 1
 62
   179
420
  1709851
370
    18
100
AcDb2dPolyline
 66
     1
 10
0.0
 20
0.0
 30
0.0
  0
VERTEX
  5
3B8
330
3B7
100
AcDbEntity
  8
Ebene 1
 62
   179
420
  1709851
370
    18
100
AcDbVertex
100
AcDb2dVertex
 10
33.75728487654332
 20
-190.4538356728727
 30
0.0
  0
VERTEX
  5
3B9
330
3B7
100
AcDbEntity
  8
Ebene 1
 62
   179
420
  1709851
370
    18
100
AcDbVertex
100
AcDb2dVertex
 10
33.75728487654332
 20
-183.4478894940686
 30
0.0
  0
SEQEND
  5
3BA
330
3B7
100
AcDbEntity
  8
Ebene 1
370
    18
  0
POLYLINE
  5
3BB
330
2FD
100
AcDbEntity
  8
Ebene 1
 62
   179
420
  1709851
370
    18
100
AcDb2dPolyline
 66
     1
 10
0.0
 20
0.0
 30
0.0
  0
VERTEX
  5
3BC
330
3BB
100
AcDbEntity
  8
Ebene 1
 62
   179
420
  1709851
370
    18
100
AcDbVertex
100
AcDb2dVertex
 10
33.75728487654332
 20
-192.443722825153
 30
0.0
  0
VERTEX
  5
3BD
330
3BB
100
AcDbEntity
  8
Ebene 1
 62
   179
420
  1709851
370
    18
100
AcDbVertex
100
AcDb2dVertex
 10
33.75728487654332
 20
-191.4494682681099
 30
0.0
  0
SEQEND
  5
3BE
330
3BB
100
AcDbEntity
  8
Ebene 1
370
    18
  0
POLYLINE
  5
3BF
330
2FD
100
AcDbEntity
  8
Ebene 1
 62
   179
420
  1709851
370
    18
100
AcDb2dPolyline
 66
     1
 10
0.0
 20
0.0
 30
0.0
  0
VERTEX
  5
3C0
330
3BF
100
AcDbEntity
  8
Ebene 1
 62
   179
420
  1709851
370
    18
100
AcDbVertex
100
AcDb2dVertex
 10
33.75728487654332
 20
-200.4453015991942
 30
0.0
  0
VERTEX
  5
3C1
330
3BF
100
AcDbEntity
  8
Ebene 1
 62
   179
420
  1709851
370
    18
100
AcDbVertex
100
AcDb2dVertex
 10
33.75728487654332
 20
-193.4600259933017
 30
0.0
  0
SEQEND
  5
3C2
330
3BF
100
AcDbEntity
  8
Ebene 1
370
    18
  0
POLYLINE
  5
3C3
330
2FD
100
AcDbEntity
  8
Ebene 1
 62
   179
420
  1709851
370
    18
100
AcDb2dPolyline
 66
     1
 10
0.0
 20
0.0
 30
0.0
  0
VERTEX
  5
3C4
330
3C3
100
AcDbEntity
  8
Ebene 1
 62
   179
420
  1709851
370
    18
100
AcDbVertex
100
AcDb2dVertex
 10
33.75728487654332
 20
-202.455859324386
 30
0.0
  0
VERTEX
  5
3C5
330
3C3
100
AcDbEntity
  8
Ebene 1
 62
   179
420
  1709851
370
    18
100
AcDbVertex
100
AcDb2dVertex
 10
33.75728487654332
 20
-201.4609157482459
 30
0.0
  0
SEQEND
  5
3C6
330
3C3
100
AcDbEntity
  8
Ebene 1
370
    18
  0
POLYLINE
  5
3C7
330
2FD
100
AcDbEntity
  8
Ebene 1
 62
   179
420
  1709851
370
    18
100
AcDb2dPolyline
 66
     1
 10
0.0
 20
0.0
 30
0.0
  0
VERTEX
  5
3C8
330
3C7
100
AcDbEntity
  8
Ebene 1
 62
   179
420
  1709851
370
    18
100
AcDbVertex
100
AcDb2dVertex
 10
33.75728487654332
 20
-210.4567490793303
 30
0.0
  0
VERTEX
  5
3C9
330
3C7
100
AcDbEntity
  8
Ebene 1
 62
   179
420
  1709851
370
    18
100
AcDbVertex
100
AcDb2dVertex
 10
33.75728487654332
 20
-203.4508029005262
 30
0.0
  0
SEQEND
  5
3CA
330
3C7
100
AcDbEntity
  8
Ebene 1
370
    18
  0
POLYLINE
  5
3CB
330
2FD
100
AcDbEntity
  8
Ebene 1
 62
   179
420
  1709851
370
    18
100
AcDb2dPolyline
 66
     1
 10
0.0
 20
0.0
 30
0.0
  0
VERTEX
  5
3CC
330
3CB
100
AcDbEntity
  8
Ebene 1
 62
   179
420
  1709851
370
    18
100
AcDbVertex
100
AcDb2dVertex
 10
33.75728487654332
 20
-212.4466362316106
 30
0.0
  0
VERTEX
  5
3CD
330
3CB
100
AcDbEntity
  8
Ebene 1
 62
   179
420
  1709851
370
    18
100
AcDbVertex
100
AcDb2dVertex
 10
33.75728487654332
 20
-211.4516926554704
 30
0.0
  0
SEQEND
  5
3CE
330
3CB
100
AcDbEntity
  8
Ebene 1
370
    18
  0
POLYLINE
  5
3CF
330
2FD
100
AcDbEntity
  8
Ebene 1
 62
   179
420
  1709851
370
    18
100
AcDb2dPolyline
 66
     1
 10
0.0
 20
0.0
 30
0.0
  0
VERTEX
  5
3D0
330
3CF
100
AcDbEntity
  8
Ebene 1
 62
   179
420
  1709851
370
    18
100
AcDbVertex
100
AcDb2dVertex
 10
33.75728487654332
 20
-215.0711099722739
 30
0.0
  0
VERTEX
  5
3D1
330
3CF
100
AcDbEntity
  8
Ebene 1
 62
   179
420
  1709851
370
    18
100
AcDbVertex
100
AcDb2dVertex
 10
33.75728487654332
 20
-215.0711099722739
 30
0.0
  0
VERTEX
  5
3D2
330
3CF
100
AcDbEntity
  8
Ebene 1
 62
   179
420
  1709851
370
    18
100
AcDbVertex
100
AcDb2dVertex
 10
33.75728487654332
 20
-213.4622503806622
 30
0.0
  0
SEQEND
  5
3D3
330
3CF
100
AcDbEntity
  8
Ebene 1
370
    18
  0
POLYLINE
  5
3D4
330
2FD
100
AcDbEntity
  8
Ebene 1
 62
   179
420
  1709851
370
    25
100
AcDb2dPolyline
 66
     1
 10
0.0
 20
0.0
 30
0.0
  0
VERTEX
  5
3D5
330
3D4
100
AcDbEntity
  8
Ebene 1
 62
   179
420
  1709851
370
    25
100
AcDbVertex
100
AcDb2dVertex
 10
172.1452202260609
 20
-204.8054144453264
 30
0.0
  0
VERTEX
  5
3D6
330
3D4
100
AcDbEntity
  8
Ebene 1
 62
   179
420
  1709851
370
    25
100
AcDbVertex
100
AcDb2dVertex
 10
172.1452202260609
 20
-77.23404539084774
 30
0.0
  0
SEQEND
  5
3D7
330
3D4
100
AcDbEntity
  8
Ebene 1
370
    25
  0
POLYLINE
  5
3D8
330
2FD
100
AcDbEntity
  8
Ebene 1
 62
   179
420
  1709851
370
    25
100
AcDb2dPolyline
 66
     1
 10
0.0
 20
0.0
 30
0.0
  0
VERTEX
  5
3D9
330
3D8
100
AcDbEntity
  8
Ebene 1
 62
   179
420
  1709851
370
    25
100
AcDbVertex
100
AcDb2dVertex
 10
173.7533907985755
 20
-77.23404539084774
 30
0.0
  0
VERTEX
  5
3DA
330
3D8
100
AcDbEntity
  8
Ebene 1
 62
   179
420
  1709851
370
    25
100
AcDbVertex
100
AcDb2dVertex
 10
173.7533907985755
 20
-204.8054144453264
 30
0.0
  0
SEQEND
  5
3DB
330
3D8
100
AcDbEntity
  8
Ebene 1
370
    25
  0
POLYLINE
  5
3DC
330
2FD
100
AcDbEntity
  8
Ebene 1
 62
   179
420
  1709851
370
    25
100
AcDb2dPolyline
 66
     1
 10
0.0
 20
0.0
 30
0.0
  0
VERTEX
  5
3DD
330
3DC
100
AcDbEntity
  8
Ebene 1
 62
   179
420
  1709851
370
    25
100
AcDbVertex
100
AcDb2dVertex
 10
173.7533907985755
 20
-204.8054144453264
 30
0.0
  0
VERTEX
  5
3DE
330
3DC
100
AcDbEntity
  8
Ebene 1
 62
   179
420
  1709851
370
    25
100
AcDbVertex
100
AcDb2dVertex
 10
172.1452202260609
 20
-204.8054144453264
 30
0.0
  0
SEQEND
  5
3DF
330
3DC
100
AcDbEntity
  8
Ebene 1
370
    25
  0
POLYLINE
  5
3E0
330
2FD
100
AcDbEntity
  8
Ebene 1
 62
   179
420
  1709851
370
    25
100
AcDb2dPolyline
 66
     1
 10
0.0
 20
0.0
 30
0.0
  0
VERTEX
  5
3E1
330
3E0
100
AcDbEntity
  8
Ebene 1
 62
   179
420
  1709851
370
    25
100
AcDbVertex
100
AcDb2dVertex
 10
165.3504584005027
 20
-211.6205023342477
 30
0.0
  0
VERTEX
  5
3E2
330
3E0
100
AcDbEntity
  8
Ebene 1
 62
   179
420
  1709851
370
    25
100
AcDbVertex
100
AcDb2dVertex
 10
33.75711262176905
 20
-211.6205023342477
 30
0.0
  0
SEQEND
  5
3E3
330
3E0
100
AcDbEntity
  8
Ebene 1
370
    25
  0
POLYLINE
  5
3E4
330
2FD
100
AcDbEntity
  8
Ebene 1
 62
   179
420
  1709851
370
    25
100
AcDb2dPolyline
 66
     1
 10
0.0
 20
0.0
 30
0.0
  0
VERTEX
  5
3E5
330
3E4
100
AcDbEntity
  8
Ebene 1
 62
   179
420
  1709851
370
    25
100
AcDbVertex
100
AcDb2dVertex
 10
33.75711262176905
 20
-213.2080023338508
 30
0.0
  0
VERTEX
  5
3E6
330
3E4
100
AcDbEntity
  8
Ebene 1
 62
   179
420
  1709851
370
    25
100
AcDbVertex
100
AcDb2dVertex
 10
165.3504584005027
 20
-213.2080023338508
 30
0.0
  0
SEQEND
  5
3E7
330
3E4
100
AcDbEntity
  8
Ebene 1
370
    25
  0
POLYLINE
  5
3E8
330
2FD
100
AcDbEntity
  8
Ebene 1
 62
   179
420
  1709851
370
    25
100
AcDb2dPolyline
 66
     1
 10
0.0
 20
0.0
 30
0.0
  0
VERTEX
  5
3E9
330
3E8
100
AcDbEntity
  8
Ebene 1
 62
   179
420
  1709851
370
    25
100
AcDbVertex
100
AcDb2dVertex
 10
165.3504584005027
 20
-213.2080023338508
 30
0.0
  0
VERTEX
  5
3EA
330
3E8
100
AcDbEntity
  8
Ebene 1
 62
   179
420
  1709851
370
    25
100
AcDbVertex
100
AcDb2dVertex
 10
165.3504584005027
 20
-211.6205023342477
 30
0.0
  0
SEQEND
  5
3EB
330
3E8
100
AcDbEntity
  8
Ebene 1
370
    25
  0
POLYLINE
  5
3EC
330
2FD
100
AcDbEntity
  8
Ebene 1
 62
   179
420
  1709851
370
    18
100
AcDb2dPolyline
 66
     1
 10
0.0
 20
0.0
 30
0.0
  0
VERTEX
  5
3ED
330
3EC
100
AcDbEntity
  8
Ebene 1
 62
   179
420
  1709851
370
    18
100
AcDbVertex
100
AcDb2dVertex
 10
121.1119872744095
 20
-192.3169433112958
 30
0.0
  0
VERTEX
  5
3EE
330
3EC
100
AcDbEntity
  8
Ebene 1
 62
   179
420
  1709851
370
    18
100
AcDbVertex
100
AcDb2dVertex
 10
120.7099446312808
 20
-192.3169433112958
 30
0.0
  0
VERTEX
  5
3EF
330
3EC
100
AcDbEntity
  8
Ebene 1
 62
   179
420
  1709851
370
    18
100
AcDbVertex
100
AcDb2dVertex
 10
120.7099446312808
 20
-191.53352859795
 30
0.0
  0
VERTEX
  5
3F0
330
3EC
100
AcDbEntity
  8
Ebene 1
 62
   179
420
  1709851
370
    18
100
AcDbVertex
100
AcDb2dVertex
 10
121.5140299175382
 20
-190.7294433116926
 30
0.0
  0
SEQEND
  5
3F1
330
3EC
100
AcDbEntity
  8
Ebene 1
370
    18
  0
POLYLINE
  5
3F2
330
2FD
100
AcDbEntity
  8
Ebene 1
 62
   179
420
  1709851
370
    18
100
AcDb2dPolyline
 66
     1
 10
0.0
 20
0.0
 30
0.0
  0
VERTEX
  5
3F3
330
3F2
100
AcDbEntity
  8
Ebene 1
 62
   179
420
  1709851
370
    18
100
AcDbVertex
100
AcDb2dVertex
 10
122.0011664191525
 20
-198.222525992111
 30
0.0
  0
VERTEX
  5
3F4
330
3F2
100
AcDbEntity
  8
Ebene 1
 62
   179
420
  1709851
370
    18
100
AcDbVertex
100
AcDb2dVertex
 10
122.0011664191525
 20
-177.2246690095133
 30
0.0
  0
SEQEND
  5
3F5
330
3F2
100
AcDbEntity
  8
Ebene 1
370
    18
  0
POLYLINE
  5
3F6
330
2FD
100
AcDbEntity
  8
Ebene 1
 62
   179
420
  1709851
370
    18
100
AcDb2dPolyline
 66
     1
 10
0.0
 20
0.0
 30
0.0
  0
VERTEX
  5
3F7
330
3F6
100
AcDbEntity
  8
Ebene 1
 62
   179
420
  1709851
370
    18
100
AcDbVertex
100
AcDb2dVertex
 10
121.5140299175382
 20
-179.0243868910078
 30
0.0
  0
VERTEX
  5
3F8
330
3F6
100
AcDbEntity
  8
Ebene 1
 62
   179
420
  1709851
370
    18
100
AcDbVertex
100
AcDb2dVertex
 10
121.5140299175382
 20
-198.222525992111
 30
0.0
  0
SEQEND
  5
3F9
330
3F6
100
AcDbEntity
  8
Ebene 1
370
    18
  0
POLYLINE
  5
3FA
330
2FD
100
AcDbEntity
  8
Ebene 1
 62
   179
420
  1709851
370
    18
100
AcDb2dPolyline
 66
     1
 10
0.0
 20
0.0
 30
0.0
  0
VERTEX
  5
3FB
330
3FA
100
AcDbEntity
  8
Ebene 1
 62
   179
420
  1709851
370
    18
100
AcDbVertex
100
AcDb2dVertex
 10
121.5140299175382
 20
-198.222525992111
 30
0.0
  0
VERTEX
  5
3FC
330
3FA
100
AcDbEntity
  8
Ebene 1
 62
   179
420
  1709851
370
    18
100
AcDbVertex
100
AcDb2dVertex
 10
122.0011664191525
 20
-198.222525992111
 30
0.0
  0
SEQEND
  5
3FD
330
3FA
100
AcDbEntity
  8
Ebene 1
370
    18
  0
POLYLINE
  5
3FE
330
2FD
100
AcDbEntity
  8
Ebene 1
 62
   179
420
  1709851
370
    18
100
AcDb2dPolyline
 66
     1
 10
0.0
 20
0.0
 30
0.0
  0
VERTEX
  5
3FF
330
3FE
100
AcDbEntity
  8
Ebene 1
 62
   179
420
  1709851
370
    18
100
AcDbVertex
100
AcDb2dVertex
 10
122.9961099952926
 20
-195.216335671682
 30
0.0
  0
VERTEX
  5
400
330
3FE
100
AcDbEntity
  8
Ebene 1
 62
   179
420
  1709851
370
    18
100
AcDbVertex
100
AcDb2dVertex
 10
120.0112792668722
 20
-195.216335671682
 30
0.0
  0
SEQEND
  5
401
330
3FE
100
AcDbEntity
  8
Ebene 1
370
    18
  0
POLYLINE
  5
402
330
2FD
100
AcDbEntity
  8
Ebene 1
 62
   179
420
  1709851
370
    18
100
AcDb2dPolyline
 66
     1
 10
0.0
 20
0.0
 30
0.0
  0
VERTEX
  5
403
330
402
100
AcDbEntity
  8
Ebene 1
 62
   179
420
  1709851
370
    18
100
AcDbVertex
100
AcDb2dVertex
 10
114.0002766642083
 20
-177.2246690095133
 30
0.0
  0
VERTEX
  5
404
330
402
100
AcDbEntity
  8
Ebene 1
 62
   179
420
  1709851
370
    18
100
AcDbVertex
100
AcDb2dVertex
 10
114.0002766642083
 20
-178.2203016047505
 30
0.0
  0
SEQEND
  5
405
330
402
100
AcDbEntity
  8
Ebene 1
370
    18
  0
POLYLINE
  5
406
330
2FD
100
AcDbEntity
  8
Ebene 1
 62
   179
420
  1709851
370
    18
100
AcDb2dPolyline
 66
     1
 10
0.0
 20
0.0
 30
0.0
  0
VERTEX
  5
407
330
406
100
AcDbEntity
  8
Ebene 1
 62
   179
420
  1709851
370
    18
100
AcDbVertex
100
AcDb2dVertex
 10
114.0002766642083
 20
-178.2203016047505
 30
0.0
  0
VERTEX
  5
408
330
406
100
AcDbEntity
  8
Ebene 1
 62
   179
420
  1709851
370
    18
100
AcDbVertex
100
AcDb2dVertex
 10
114.0002766642083
 20
-179.0243868910078
 30
0.0
  0
SEQEND
  5
409
330
406
100
AcDbEntity
  8
Ebene 1
370
    18
  0
POLYLINE
  5
40A
330
2FD
100
AcDbEntity
  8
Ebene 1
 62
   179
420
  1709851
370
    18
100
AcDb2dPolyline
 66
     1
 10
0.0
 20
0.0
 30
0.0
  0
VERTEX
  5
40B
330
40A
100
AcDbEntity
  8
Ebene 1
 62
   179
420
  1709851
370
    18
100
AcDbVertex
100
AcDb2dVertex
 10
114.0002766642083
 20
-179.0243868910078
 30
0.0
  0
VERTEX
  5
40C
330
40A
100
AcDbEntity
  8
Ebene 1
 62
   179
420
  1709851
370
    18
100
AcDbVertex
100
AcDb2dVertex
 10
121.5140299175382
 20
-179.0243868910078
 30
0.0
  0
SEQEND
  5
40D
330
40A
100
AcDbEntity
  8
Ebene 1
370
    18
  0
POLYLINE
  5
40E
330
2FD
100
AcDbEntity
  8
Ebene 1
 62
   179
420
  1709851
370
    18
100
AcDb2dPolyline
 66
     1
 10
0.0
 20
0.0
 30
0.0
  0
VERTEX
  5
40F
330
40E
100
AcDbEntity
  8
Ebene 1
 62
   179
420
  1709851
370
    18
100
AcDbVertex
100
AcDb2dVertex
 10
114.0002766642083
 20
-178.2203016047505
 30
0.0
  0
VERTEX
  5
410
330
40E
100
AcDbEntity
  8
Ebene 1
 62
   179
420
  1709851
370
    18
100
AcDbVertex
100
AcDb2dVertex
 10
122.0011664191525
 20
-178.2203016047505
 30
0.0
  0
SEQEND
  5
411
330
40E
100
AcDbEntity
  8
Ebene 1
370
    18
  0
POLYLINE
  5
412
330
2FD
100
AcDbEntity
  8
Ebene 1
 62
   179
420
  1709851
370
    18
100
AcDb2dPolyline
 66
     1
 10
0.0
 20
0.0
 30
0.0
  0
VERTEX
  5
413
330
412
100
AcDbEntity
  8
Ebene 1
 62
   179
420
  1709851
370
    18
100
AcDbVertex
100
AcDb2dVertex
 10
120.0960286158093
 20
-202.730777944109
 30
0.0
  0
VERTEX
  5
414
330
412
100
AcDbEntity
  8
Ebene 1
 62
   179
420
  1709851
370
    18
100
AcDbVertex
100
AcDb2dVertex
 10
120.0960286158093
 20
-200.2330837173029
 30
0.0
  0
SEQEND
  5
415
330
412
100
AcDbEntity
  8
Ebene 1
370
    18
  0
POLYLINE
  5
416
330
2FD
100
AcDbEntity
  8
Ebene 1
 62
   179
420
  1709851
370
    18
100
AcDb2dPolyline
 66
     1
 10
0.0
 20
0.0
 30
0.0
  0
VERTEX
  5
417
330
416
100
AcDbEntity
  8
Ebene 1
 62
   179
420
  1709851
370
    18
100
AcDbVertex
100
AcDb2dVertex
 10
121.1119872744095
 20
-201.3341362343887
 30
0.0
  0
VERTEX
  5
418
330
416
100
AcDbEntity
  8
Ebene 1
 62
   179
420
  1709851
370
    18
100
AcDbVertex
100
AcDb2dVertex
 10
113.3016112997996
 20
-201.3341362343887
 30
0.0
  0
SEQEND
  5
419
330
416
100
AcDbEntity
  8
Ebene 1
370
    18
  0
POLYLINE
  5
41A
330
2FD
100
AcDbEntity
  8
Ebene 1
 62
   179
420
  1709851
370
    18
100
AcDb2dPolyline
 66
     1
 10
0.0
 20
0.0
 30
0.0
  0
VERTEX
  5
41B
330
41A
100
AcDbEntity
  8
Ebene 1
 62
   179
420
  1709851
370
    18
100
AcDbVertex
100
AcDb2dVertex
 10
129.303390809688
 20
-201.3341362343887
 30
0.0
  0
VERTEX
  5
41C
330
41A
100
AcDbEntity
  8
Ebene 1
 62
   179
420
  1709851
370
    18
100
AcDbVertex
100
AcDb2dVertex
 10
121.5140299175382
 20
-201.3341362343887
 30
0.0
  0
SEQEND
  5
41D
330
41A
100
AcDbEntity
  8
Ebene 1
370
    18
  0
POLYLINE
  5
41E
330
2FD
100
AcDbEntity
  8
Ebene 1
 62
   179
420
  1709851
370
    18
100
AcDb2dPolyline
 66
     1
 10
0.0
 20
0.0
 30
0.0
  0
VERTEX
  5
41F
330
41E
100
AcDbEntity
  8
Ebene 1
 62
   179
420
  1709851
370
    18
100
AcDbVertex
100
AcDb2dVertex
 10
121.1119872744095
 20
-201.3341362343887
 30
0.0
  0
VERTEX
  5
420
330
41E
100
AcDbEntity
  8
Ebene 1
 62
   179
420
  1709851
370
    18
100
AcDbVertex
100
AcDb2dVertex
 10
121.1119872744095
 20
-192.3169433112958
 30
0.0
  0
SEQEND
  5
421
330
41E
100
AcDbEntity
  8
Ebene 1
370
    18
  0
POLYLINE
  5
422
330
2FD
100
AcDbEntity
  8
Ebene 1
 62
   179
420
  1709851
370
    18
100
AcDb2dPolyline
 66
     1
 10
0.0
 20
0.0
 30
0.0
  0
VERTEX
  5
423
330
422
100
AcDbEntity
  8
Ebene 1
 62
   179
420
  1709851
370
    18
100
AcDbVertex
100
AcDb2dVertex
 10
121.5140299175382
 20
-190.7294433116926
 30
0.0
  0
VERTEX
  5
424
330
422
100
AcDbEntity
  8
Ebene 1
 62
   179
420
  1709851
370
    18
100
AcDbVertex
100
AcDb2dVertex
 10
121.5140299175382
 20
-201.3341362343887
 30
0.0
  0
SEQEND
  5
425
330
422
100
AcDbEntity
  8
Ebene 1
370
    18
  0
POLYLINE
  5
426
330
2FD
100
AcDbEntity
  8
Ebene 1
 62
   179
420
  1709851
370
    18
100
AcDb2dPolyline
 66
     1
 10
0.0
 20
0.0
 30
0.0
  0
VERTEX
  5
427
330
426
100
AcDbEntity
  8
Ebene 1
 62
   179
420
  1709851
370
    18
100
AcDbVertex
100
AcDb2dVertex
 10
129.303390809688
 20
-201.3341362343887
 30
0.0
  0
VERTEX
  5
428
330
426
100
AcDbEntity
  8
Ebene 1
 62
   179
420
  1709851
370
    18
100
AcDbVertex
100
AcDb2dVertex
 10
129.303390809688
 20
-201.7151637950573
 30
0.0
  0
SEQEND
  5
429
330
426
100
AcDbEntity
  8
Ebene 1
370
    18
  0
POLYLINE
  5
42A
330
2FD
100
AcDbEntity
  8
Ebene 1
 62
   179
420
  1709851
370
    18
100
AcDb2dPolyline
 66
     1
 10
0.0
 20
0.0
 30
0.0
  0
VERTEX
  5
42B
330
42A
100
AcDbEntity
  8
Ebene 1
 62
   179
420
  1709851
370
    18
100
AcDbVertex
100
AcDb2dVertex
 10
113.3016112997996
 20
-201.3341362343887
 30
0.0
  0
VERTEX
  5
42C
330
42A
100
AcDbEntity
  8
Ebene 1
 62
   179
420
  1709851
370
    18
100
AcDbVertex
100
AcDb2dVertex
 10
113.3016112997996
 20
-201.7151637950573
 30
0.0
  0
SEQEND
  5
42D
330
42A
100
AcDbEntity
  8
Ebene 1
370
    18
  0
POLYLINE
  5
42E
330
2FD
100
AcDbEntity
  8
Ebene 1
 62
   179
420
  1709851
370
    18
100
AcDb2dPolyline
 66
     1
 10
0.0
 20
0.0
 30
0.0
  0
VERTEX
  5
42F
330
42E
100
AcDbEntity
  8
Ebene 1
 62
   179
420
  1709851
370
    18
100
AcDbVertex
100
AcDb2dVertex
 10
166.3874321415629
 20
-170.0705837248435
 30
0.0
  0
VERTEX
  5
430
330
42E
100
AcDbEntity
  8
Ebene 1
 62
   179
420
  1709851
370
    18
100
AcDbVertex
100
AcDb2dVertex
 10
164.7368868945797
 20
-170.0705837248435
 30
0.0
  0
SEQEND
  5
431
330
42E
100
AcDbEntity
  8
Ebene 1
370
    18
  0
POLYLINE
  5
432
330
2FD
100
AcDbEntity
  8
Ebene 1
 62
   179
420
  1709851
370
    18
100
AcDb2dPolyline
 66
     1
 10
0.0
 20
0.0
 30
0.0
  0
VERTEX
  5
433
330
432
100
AcDbEntity
  8
Ebene 1
 62
   179
420
  1709851
370
    18
100
AcDbVertex
100
AcDb2dVertex
 10
164.7368868945797
 20
-170.0705837248435
 30
0.0
  0
VERTEX
  5
434
330
432
100
AcDbEntity
  8
Ebene 1
 62
   179
420
  1709851
370
    18
100
AcDbVertex
100
AcDb2dVertex
 10
164.7368868945797
 20
-170.8746690111008
 30
0.0
  0
SEQEND
  5
435
330
432
100
AcDbEntity
  8
Ebene 1
370
    18
  0
POLYLINE
  5
436
330
2FD
100
AcDbEntity
  8
Ebene 1
 62
   179
420
  1709851
370
    18
100
AcDb2dPolyline
 66
     1
 10
0.0
 20
0.0
 30
0.0
  0
VERTEX
  5
437
330
436
100
AcDbEntity
  8
Ebene 1
 62
   179
420
  1709851
370
    18
100
AcDbVertex
100
AcDb2dVertex
 10
164.7368868945797
 20
-170.8746690111008
 30
0.0
  0
VERTEX
  5
438
330
436
100
AcDbEntity
  8
Ebene 1
 62
   179
420
  1709851
370
    18
100
AcDbVertex
100
AcDb2dVertex
 10
164.1226263695596
 20
-170.8746690111008
 30
0.0
  0
SEQEND
  5
439
330
436
100
AcDbEntity
  8
Ebene 1
370
    18
  0
POLYLINE
  5
43A
330
2FD
100
AcDbEntity
  8
Ebene 1
 62
   179
420
  1709851
370
    18
100
AcDb2dPolyline
 66
     1
 10
0.0
 20
0.0
 30
0.0
  0
VERTEX
  5
43B
330
43A
100
AcDbEntity
  8
Ebene 1
 62
   179
420
  1709851
370
    18
100
AcDbVertex
100
AcDb2dVertex
 10
164.1226263695596
 20
-170.8746690111008
 30
0.0
  0
VERTEX
  5
43C
330
43A
100
AcDbEntity
  8
Ebene 1
 62
   179
420
  1709851
370
    18
100
AcDbVertex
100
AcDb2dVertex
 10
164.1226263695596
 20
-170.0705837248435
 30
0.0
  0
SEQEND
  5
43D
330
43A
100
AcDbEntity
  8
Ebene 1
370
    18
  0
POLYLINE
  5
43E
330
2FD
100
AcDbEntity
  8
Ebene 1
 62
   179
420
  1709851
370
    18
100
AcDb2dPolyline
 66
     1
 10
0.0
 20
0.0
 30
0.0
  0
VERTEX
  5
43F
330
43E
100
AcDbEntity
  8
Ebene 1
 62
   179
420
  1709851
370
    18
100
AcDbVertex
100
AcDb2dVertex
 10
163.3605712482224
 20
-175.6585286019187
 30
0.0
  0
VERTEX
  5
440
330
43E
100
AcDbEntity
  8
Ebene 1
 62
   179
420
  1709851
370
    18
100
AcDbVertex
100
AcDb2dVertex
 10
163.3605712482224
 20
-175.1720811194014
 30
0.0
  0
VERTEX
  5
441
330
43E
100
AcDbEntity
  8
Ebene 1
 62
   179
420
  1709851
370
    18
100
AcDbVertex
100
AcDb2dVertex
 10
164.1226263695596
 20
-175.1720811194014
 30
0.0
  0
VERTEX
  5
442
330
43E
100
AcDbEntity
  8
Ebene 1
 62
   179
420
  1709851
370
    18
100
AcDbVertex
100
AcDb2dVertex
 10
164.1226263695596
 20
-174.3673068140471
 30
0.0
  0
VERTEX
  5
443
330
43E
100
AcDbEntity
  8
Ebene 1
 62
   179
420
  1709851
370
    18
100
AcDbVertex
100
AcDb2dVertex
 10
164.7368868945797
 20
-174.3673068140471
 30
0.0
  0
SEQEND
  5
444
330
43E
100
AcDbEntity
  8
Ebene 1
370
    18
  0
POLYLINE
  5
445
330
2FD
100
AcDbEntity
  8
Ebene 1
 62
   179
420
  1709851
370
    18
100
AcDb2dPolyline
 66
     1
 10
0.0
 20
0.0
 30
0.0
  0
VERTEX
  5
446
330
445
100
AcDbEntity
  8
Ebene 1
 62
   179
420
  1709851
370
    18
100
AcDbVertex
100
AcDb2dVertex
 10
167.2552516942973
 20
-172.9706651043268
 30
0.0
  0
VERTEX
  5
447
330
445
100
AcDbEntity
  8
Ebene 1
 62
   179
420
  1709851
370
    18
100
AcDbVertex
100
AcDb2dVertex
 10
167.7000135214431
 20
-172.9706651043268
 30
0.0
  0
SEQEND
  5
448
330
445
100
AcDbEntity
  8
Ebene 1
370
    18
  0
POLYLINE
  5
449
330
2FD
100
AcDbEntity
  8
Ebene 1
 62
   179
420
  1709851
370
    18
100
AcDb2dPolyline
 66
     1
 10
0.0
 20
0.0
 30
0.0
  0
VERTEX
  5
44A
330
449
100
AcDbEntity
  8
Ebene 1
 62
   179
420
  1709851
370
    18
100
AcDbVertex
100
AcDb2dVertex
 10
167.2552516942973
 20
-172.2506401479096
 30
0.0
  0
VERTEX
  5
44B
330
449
100
AcDbEntity
  8
Ebene 1
 62
   179
420
  1709851
370
    18
100
AcDbVertex
100
AcDb2dVertex
 10
167.7000135214431
 20
-172.2506401479096
 30
0.0
  0
SEQEND
  5
44C
330
449
100
AcDbEntity
  8
Ebene 1
370
    18
  0
POLYLINE
  5
44D
330
2FD
100
AcDbEntity
  8
Ebene 1
 62
   179
420
  1709851
370
    18
100
AcDb2dPolyline
 66
     1
 10
0.0
 20
0.0
 30
0.0
  0
VERTEX
  5
44E
330
44D
100
AcDbEntity
  8
Ebene 1
 62
   179
420
  1709851
370
    18
100
AcDbVertex
100
AcDb2dVertex
 10
167.5094997411088
 20
-173.2035535591297
 30
0.0
  0
VERTEX
  5
44F
330
44D
100
AcDbEntity
  8
Ebene 1
 62
   179
420
  1709851
370
    18
100
AcDbVertex
100
AcDb2dVertex
 10
167.5094997411088
 20
-171.9970811201952
 30
0.0
  0
SEQEND
  5
450
330
44D
100
AcDbEntity
  8
Ebene 1
370
    18
  0
POLYLINE
  5
451
330
2FD
100
AcDbEntity
  8
Ebene 1
 62
   179
420
  1709851
370
    18
100
AcDb2dPolyline
 66
     1
 10
0.0
 20
0.0
 30
0.0
  0
VERTEX
  5
452
330
451
100
AcDbEntity
  8
Ebene 1
 62
   179
420
  1709851
370
    18
100
AcDbVertex
100
AcDb2dVertex
 10
167.2552516942973
 20
-172.9706651043268
 30
0.0
  0
VERTEX
  5
453
330
451
100
AcDbEntity
  8
Ebene 1
 62
   179
420
  1709851
370
    18
100
AcDbVertex
100
AcDb2dVertex
 10
167.5094997411088
 20
-173.2035535591297
 30
0.0
  0
VERTEX
  5
454
330
451
100
AcDbEntity
  8
Ebene 1
 62
   179
420
  1709851
370
    18
100
AcDbVertex
100
AcDb2dVertex
 10
167.7000135214431
 20
-173.2035535591297
 30
0.0
  0
SEQEND
  5
455
330
451
100
AcDbEntity
  8
Ebene 1
370
    18
  0
POLYLINE
  5
456
330
2FD
100
AcDbEntity
  8
Ebene 1
 62
   179
420
  1709851
370
    18
100
AcDb2dPolyline
 66
     1
 10
0.0
 20
0.0
 30
0.0
  0
VERTEX
  5
457
330
456
100
AcDbEntity
  8
Ebene 1
 62
   179
420
  1709851
370
    18
100
AcDbVertex
100
AcDb2dVertex
 10
167.7000135214431
 20
-171.9970811201952
 30
0.0
  0
VERTEX
  5
458
330
456
100
AcDbEntity
  8
Ebene 1
 62
   179
420
  1709851
370
    18
100
AcDbVertex
100
AcDb2dVertex
 10
167.5094997411088
 20
-171.9970811201952
 30
0.0
  0
VERTEX
  5
459
330
456
100
AcDbEntity
  8
Ebene 1
 62
   179
420
  1709851
370
    18
100
AcDbVertex
100
AcDb2dVertex
 10
167.2552516942973
 20
-172.2506401479096
 30
0.0
  0
SEQEND
  5
45A
330
456
100
AcDbEntity
  8
Ebene 1
370
    18
  0
POLYLINE
  5
45B
330
2FD
100
AcDbEntity
  8
Ebene 1
 62
   179
420
  1709851
370
    18
100
AcDb2dPolyline
 66
     1
 10
0.0
 20
0.0
 30
0.0
  0
VERTEX
  5
45C
330
45B
100
AcDbEntity
  8
Ebene 1
 62
   179
420
  1709851
370
    18
100
AcDbVertex
100
AcDb2dVertex
 10
168.0596814901031
 20
-171.5099446185808
 30
0.0
  0
VERTEX
  5
45D
330
45B
100
AcDbEntity
  8
Ebene 1
 62
   179
420
  1709851
370
    18
100
AcDbVertex
100
AcDb2dVertex
 10
167.9962917331746
 20
-171.7214734813752
 30
0.0
  0
VERTEX
  5
45E
330
45B
100
AcDbEntity
  8
Ebene 1
 62
   179
420
  1709851
370
    18
100
AcDbVertex
100
AcDb2dVertex
 10
168.0173068156346
 20
-171.9330023441695
 30
0.0
  0
VERTEX
  5
45F
330
45B
100
AcDbEntity
  8
Ebene 1
 62
   179
420
  1709851
370
    18
100
AcDbVertex
100
AcDb2dVertex
 10
168.0596814901031
 20
-172.0818304691323
 30
0.0
  0
SEQEND
  5
460
330
45B
100
AcDbEntity
  8
Ebene 1
370
    18
  0
POLYLINE
  5
461
330
2FD
100
AcDbEntity
  8
Ebene 1
 62
   179
420
  1709851
370
    18
100
AcDb2dPolyline
 66
     1
 10
0.0
 20
0.0
 30
0.0
  0
VERTEX
  5
462
330
461
100
AcDbEntity
  8
Ebene 1
 62
   179
420
  1709851
370
    18
100
AcDbVertex
100
AcDb2dVertex
 10
168.0596814901031
 20
-172.0811414500353
 30
0.0
  0
VERTEX
  5
463
330
461
100
AcDbEntity
  8
Ebene 1
 62
   179
420
  1709851
370
    18
100
AcDbVertex
100
AcDb2dVertex
 10
167.9962917331746
 20
-172.4835286027125
 30
0.0
  0
VERTEX
  5
464
330
461
100
AcDbEntity
  8
Ebene 1
 62
   179
420
  1709851
370
    18
100
AcDbVertex
100
AcDb2dVertex
 10
168.0173068156346
 20
-172.8645561633811
 30
0.0
  0
VERTEX
  5
465
330
461
100
AcDbEntity
  8
Ebene 1
 62
   179
420
  1709851
370
    18
100
AcDbVertex
100
AcDb2dVertex
 10
168.0596814901031
 20
-173.139474783104
 30
0.0
  0
SEQEND
  5
466
330
461
100
AcDbEntity
  8
Ebene 1
370
    18
  0
POLYLINE
  5
467
330
2FD
100
AcDbEntity
  8
Ebene 1
 62
   179
420
  1709851
370
    18
100
AcDb2dPolyline
 66
     1
 10
0.0
 20
0.0
 30
0.0
  0
VERTEX
  5
468
330
467
100
AcDbEntity
  8
Ebene 1
 62
   179
420
  1709851
370
    18
100
AcDbVertex
100
AcDb2dVertex
 10
168.0596814901031
 20
-173.139474783104
 30
0.0
  0
VERTEX
  5
469
330
467
100
AcDbEntity
  8
Ebene 1
 62
   179
420
  1709851
370
    18
100
AcDbVertex
100
AcDb2dVertex
 10
167.9962917331746
 20
-173.3516926649954
 30
0.0
  0
VERTEX
  5
46A
330
467
100
AcDbEntity
  8
Ebene 1
 62
   179
420
  1709851
370
    18
100
AcDbVertex
100
AcDb2dVertex
 10
168.0173068156346
 20
-173.5632215277898
 30
0.0
  0
VERTEX
  5
46B
330
467
100
AcDbEntity
  8
Ebene 1
 62
   179
420
  1709851
370
    18
100
AcDbVertex
100
AcDb2dVertex
 10
168.0596814901031
 20
-173.7327202256641
 30
0.0
  0
SEQEND
  5
46C
330
467
100
AcDbEntity
  8
Ebene 1
370
    18
  0
POLYLINE
  5
46D
330
2FD
100
AcDbEntity
  8
Ebene 1
 62
   179
420
  1709851
370
    18
100
AcDb2dPolyline
 66
     1
 10
0.0
 20
0.0
 30
0.0
  0
VERTEX
  5
46E
330
46D
100
AcDbEntity
  8
Ebene 1
 62
   179
420
  1709851
370
    18
100
AcDbVertex
100
AcDb2dVertex
 10
168.7793619369718
 20
-173.7327202256641
 30
0.0
  0
VERTEX
  5
46F
330
46D
100
AcDbEntity
  8
Ebene 1
 62
   179
420
  1709851
370
    18
100
AcDbVertex
100
AcDb2dVertex
 10
168.8427516939004
 20
-173.5205023437726
 30
0.0
  0
VERTEX
  5
470
330
46D
100
AcDbEntity
  8
Ebene 1
 62
   179
420
  1709851
370
    18
100
AcDbVertex
100
AcDb2dVertex
 10
168.8427516939004
 20
-173.2883029080668
 30
0.0
  0
VERTEX
  5
471
330
46D
100
AcDbEntity
  8
Ebene 1
 62
   179
420
  1709851
370
    18
100
AcDbVertex
100
AcDb2dVertex
 10
168.7793619369718
 20
-173.139474783104
 30
0.0
  0
SEQEND
  5
472
330
46D
100
AcDbEntity
  8
Ebene 1
370
    18
  0
POLYLINE
  5
473
330
2FD
100
AcDbEntity
  8
Ebene 1
 62
   179
420
  1709851
370
    18
100
AcDb2dPolyline
 66
     1
 10
0.0
 20
0.0
 30
0.0
  0
VERTEX
  5
474
330
473
100
AcDbEntity
  8
Ebene 1
 62
   179
420
  1709851
370
    18
100
AcDbVertex
100
AcDb2dVertex
 10
168.7793619369718
 20
-173.139474783104
 30
0.0
  0
VERTEX
  5
475
330
473
100
AcDbEntity
  8
Ebene 1
 62
   179
420
  1709851
370
    18
100
AcDbVertex
100
AcDb2dVertex
 10
168.8427516939004
 20
-172.7591362415324
 30
0.0
  0
VERTEX
  5
476
330
473
100
AcDbEntity
  8
Ebene 1
 62
   179
420
  1709851
370
    18
100
AcDbVertex
100
AcDb2dVertex
 10
168.8427516939004
 20
-172.3567490888553
 30
0.0
  0
VERTEX
  5
477
330
473
100
AcDbEntity
  8
Ebene 1
 62
   179
420
  1709851
370
    18
100
AcDbVertex
100
AcDb2dVertex
 10
168.7793619369718
 20
-172.0811414500353
 30
0.0
  0
SEQEND
  5
478
330
473
100
AcDbEntity
  8
Ebene 1
370
    18
  0
POLYLINE
  5
479
330
2FD
100
AcDbEntity
  8
Ebene 1
 62
   179
420
  1709851
370
    18
100
AcDb2dPolyline
 66
     1
 10
0.0
 20
0.0
 30
0.0
  0
VERTEX
  5
47A
330
479
100
AcDbEntity
  8
Ebene 1
 62
   179
420
  1709851
370
    18
100
AcDbVertex
100
AcDb2dVertex
 10
168.7793619369718
 20
-172.0811414500353
 30
0.0
  0
VERTEX
  5
47B
330
479
100
AcDbEntity
  8
Ebene 1
 62
   179
420
  1709851
370
    18
100
AcDbVertex
100
AcDb2dVertex
 10
168.8427516939004
 20
-171.870301606338
 30
0.0
  0
VERTEX
  5
47C
330
479
100
AcDbEntity
  8
Ebene 1
 62
   179
420
  1709851
370
    18
100
AcDbVertex
100
AcDb2dVertex
 10
168.8427516939004
 20
-171.6580837244466
 30
0.0
  0
VERTEX
  5
47D
330
479
100
AcDbEntity
  8
Ebene 1
 62
   179
420
  1709851
370
    18
100
AcDbVertex
100
AcDb2dVertex
 10
168.7793619369718
 20
-171.5099446185808
 30
0.0
  0
SEQEND
  5
47E
330
479
100
AcDbEntity
  8
Ebene 1
370
    18
  0
POLYLINE
  5
47F
330
2FD
100
AcDbEntity
  8
Ebene 1
 62
   179
420
  1709851
370
    18
100
AcDb2dPolyline
 66
     1
 10
0.0
 20
0.0
 30
0.0
  0
VERTEX
  5
480
330
47F
100
AcDbEntity
  8
Ebene 1
 62
   179
420
  1709851
370
    18
100
AcDbVertex
100
AcDb2dVertex
 10
167.9962917331746
 20
-173.4578016059411
 30
0.0
  0
VERTEX
  5
481
330
47F
100
AcDbEntity
  8
Ebene 1
 62
   179
420
  1709851
370
    18
100
AcDbVertex
100
AcDb2dVertex
 10
167.7844183608317
 20
-173.4578016059411
 30
0.0
  0
VERTEX
  5
482
330
47F
100
AcDbEntity
  8
Ebene 1
 62
   179
420
  1709851
370
    18
100
AcDbVertex
100
AcDb2dVertex
 10
167.7000135214431
 20
-173.2669433160583
 30
0.0
  0
VERTEX
  5
483
330
47F
100
AcDbEntity
  8
Ebene 1
 62
   179
420
  1709851
370
    18
100
AcDbVertex
100
AcDb2dVertex
 10
167.7000135214431
 20
-171.9543619361781
 30
0.0
  0
VERTEX
  5
484
330
47F
100
AcDbEntity
  8
Ebene 1
 62
   179
420
  1709851
370
    18
100
AcDbVertex
100
AcDb2dVertex
 10
167.7844183608317
 20
-171.7641926653923
 30
0.0
  0
VERTEX
  5
485
330
47F
100
AcDbEntity
  8
Ebene 1
 62
   179
420
  1709851
370
    18
100
AcDbVertex
100
AcDb2dVertex
 10
167.9962917331746
 20
-171.7641926653923
 30
0.0
  0
VERTEX
  5
486
330
47F
100
AcDbEntity
  8
Ebene 1
 62
   179
420
  1709851
370
    18
100
AcDbVertex
100
AcDb2dVertex
 10
167.9962917331746
 20
-173.4578016059411
 30
0.0
  0
SEQEND
  5
487
330
47F
100
AcDbEntity
  8
Ebene 1
370
    18
  0
SPLINE
  5
488
330
2FD
100
AcDbEntity
  8
Ebene 1
 62
   179
420
  1709851
370
    18
100
AcDbSpline
210
0.0
220
0.0
230
1.0
 70
    27
 71
     3
 72
    11
 73
     7
 74
     0
 42
0.0000000001
 43
0.0000000001
 40
0.0
 40
0.0
 40
0.0
 40
0.0
 40
1.0
 40
1.0
 40
1.0
 40
2.0
 40
2.0
 40
2.0
 40
2.0
 10
168.0596814901031
 20
-173.7327202256641
 30
0.0
 10
168.0596814901031
 20
-173.7327202256641
 30
0.0
 10
168.7793619369718
 20
-173.7327202256641
 30
0.0
 10
168.7793619369718
 20
-173.7327202256641
 30
0.0
 10
168.7793619369718
 20
-173.7327202256641
 30
0.0
 10
168.0596814901031
 20
-173.7327202256641
 30
0.0
 10
168.0596814901031
 20
-173.7327202256641
 30
0.0
  0
POLYLINE
  5
489
330
2FD
100
AcDbEntity
  8
Ebene 1
 62
   179
420
  1709851
370
    18
100
AcDb2dPolyline
 66
     1
 10
0.0
 20
0.0
 30
0.0
  0
VERTEX
  5
48A
330
489
100
AcDbEntity
  8
Ebene 1
 62
   179
420
  1709851
370
    18
100
AcDbVertex
100
AcDb2dVertex
 10
168.0596814901031
 20
-173.139474783104
 30
0.0
  0
VERTEX
  5
48B
330
489
100
AcDbEntity
  8
Ebene 1
 62
   179
420
  1709851
370
    18
100
AcDbVertex
100
AcDb2dVertex
 10
168.7793619369718
 20
-173.139474783104
 30
0.0
  0
SEQEND
  5
48C
330
489
100
AcDbEntity
  8
Ebene 1
370
    18
  0
POLYLINE
  5
48D
330
2FD
100
AcDbEntity
  8
Ebene 1
 62
   179
420
  1709851
370
    18
100
AcDb2dPolyline
 66
     1
 10
0.0
 20
0.0
 30
0.0
  0
VERTEX
  5
48E
330
48D
100
AcDbEntity
  8
Ebene 1
 62
   179
420
  1709851
370
    18
100
AcDbVertex
100
AcDb2dVertex
 10
168.0596814901031
 20
-172.0811414500353
 30
0.0
  0
VERTEX
  5
48F
330
48D
100
AcDbEntity
  8
Ebene 1
 62
   179
420
  1709851
370
    18
100
AcDbVertex
100
AcDb2dVertex
 10
168.7793619369718
 20
-172.0811414500353
 30
0.0
  0
SEQEND
  5
490
330
48D
100
AcDbEntity
  8
Ebene 1
370
    18
  0
POLYLINE
  5
491
330
2FD
100
AcDbEntity
  8
Ebene 1
 62
   179
420
  1709851
370
    18
100
AcDb2dPolyline
 66
     1
 10
0.0
 20
0.0
 30
0.0
  0
VERTEX
  5
492
330
491
100
AcDbEntity
  8
Ebene 1
 62
   179
420
  1709851
370
    18
100
AcDbVertex
100
AcDb2dVertex
 10
168.0596814901031
 20
-171.5099446185808
 30
0.0
  0
VERTEX
  5
493
330
491
100
AcDbEntity
  8
Ebene 1
 62
   179
420
  1709851
370
    18
100
AcDbVertex
100
AcDb2dVertex
 10
168.7793619369718
 20
-171.5099446185808
 30
0.0
  0
SEQEND
  5
494
330
491
100
AcDbEntity
  8
Ebene 1
370
    18
  0
POLYLINE
  5
495
330
2FD
100
AcDbEntity
  8
Ebene 1
 62
   179
420
  1709851
370
    18
100
AcDb2dPolyline
 66
     1
 10
0.0
 20
0.0
 30
0.0
  0
VERTEX
  5
496
330
495
100
AcDbEntity
  8
Ebene 1
 62
   179
420
  1709851
370
    18
100
AcDbVertex
100
AcDb2dVertex
 10
166.3667615686514
 20
-175.1080023433758
 30
0.0
  0
VERTEX
  5
497
330
495
100
AcDbEntity
  8
Ebene 1
 62
   179
420
  1709851
370
    18
100
AcDbVertex
100
AcDb2dVertex
 10
164.7575574674912
 20
-175.1080023433758
 30
0.0
  0
VERTEX
  5
498
330
495
100
AcDbEntity
  8
Ebene 1
 62
   179
420
  1709851
370
    18
100
AcDbVertex
100
AcDb2dVertex
 10
164.7575574674912
 20
-170.1133029088606
 30
0.0
  0
VERTEX
  5
499
330
495
100
AcDbEntity
  8
Ebene 1
 62
   179
420
  1709851
370
    18
100
AcDbVertex
100
AcDb2dVertex
 10
166.3667615686514
 20
-170.1133029088606
 30
0.0
  0
VERTEX
  5
49A
330
495
100
AcDbEntity
  8
Ebene 1
 62
   179
420
  1709851
370
    18
100
AcDbVertex
100
AcDb2dVertex
 10
166.3667615686514
 20
-175.1080023433758
 30
0.0
  0
SEQEND
  5
49B
330
495
100
AcDbEntity
  8
Ebene 1
370
    18
  0
POLYLINE
  5
49C
330
2FD
100
AcDbEntity
  8
Ebene 1
 62
   179
420
  1709851
370
    18
100
AcDb2dPolyline
 66
     1
 10
0.0
 20
0.0
 30
0.0
  0
VERTEX
  5
49D
330
49C
100
AcDbEntity
  8
Ebene 1
 62
   179
420
  1709851
370
    18
100
AcDbVertex
100
AcDb2dVertex
 10
164.1226263695596
 20
-170.0705837248435
 30
0.0
  0
VERTEX
  5
49E
330
49C
100
AcDbEntity
  8
Ebene 1
 62
   179
420
  1709851
370
    18
100
AcDbVertex
100
AcDb2dVertex
 10
163.3605712482224
 20
-170.0705837248435
 30
0.0
  0
VERTEX
  5
49F
330
49C
100
AcDbEntity
  8
Ebene 1
 62
   179
420
  1709851
370
    18
100
AcDbVertex
100
AcDb2dVertex
 10
163.3605712482224
 20
-169.5627766503177
 30
0.0
  0
SEQEND
  5
4A0
330
49C
100
AcDbEntity
  8
Ebene 1
370
    18
  0
POLYLINE
  5
4A1
330
2FD
100
AcDbEntity
  8
Ebene 1
 62
   179
420
  1709851
370
    18
100
AcDb2dPolyline
 66
     1
 10
0.0
 20
0.0
 30
0.0
  0
VERTEX
  5
4A2
330
4A1
100
AcDbEntity
  8
Ebene 1
 62
   179
420
  1709851
370
    18
100
AcDbVertex
100
AcDb2dVertex
 10
164.7368868945797
 20
-174.3673068140471
 30
0.0
  0
VERTEX
  5
4A3
330
4A1
100
AcDbEntity
  8
Ebene 1
 62
   179
420
  1709851
370
    18
100
AcDbVertex
100
AcDb2dVertex
 10
164.7368868945797
 20
-175.1720811194014
 30
0.0
  0
VERTEX
  5
4A4
330
4A1
100
AcDbEntity
  8
Ebene 1
 62
   179
420
  1709851
370
    18
100
AcDbVertex
100
AcDb2dVertex
 10
166.3874321415629
 20
-175.1720811194014
 30
0.0
  0
VERTEX
  5
4A5
330
4A1
100
AcDbEntity
  8
Ebene 1
 62
   179
420
  1709851
370
    18
100
AcDbVertex
100
AcDb2dVertex
 10
166.3874321415629
 20
-174.3673068140471
 30
0.0
  0
VERTEX
  5
4A6
330
4A1
100
AcDbEntity
  8
Ebene 1
 62
   179
420
  1709851
370
    18
100
AcDbVertex
100
AcDb2dVertex
 10
167.1918619373687
 20
-174.3673068140471
 30
0.0
  0
VERTEX
  5
4A7
330
4A1
100
AcDbEntity
  8
Ebene 1
 62
   179
420
  1709851
370
    18
100
AcDbVertex
100
AcDb2dVertex
 10
167.1918619373687
 20
-175.1720811194014
 30
0.0
  0
VERTEX
  5
4A8
330
4A1
100
AcDbEntity
  8
Ebene 1
 62
   179
420
  1709851
370
    18
100
AcDbVertex
100
AcDb2dVertex
 10
168.8427516939004
 20
-175.1720811194014
 30
0.0
  0
VERTEX
  5
4A9
330
4A1
100
AcDbEntity
  8
Ebene 1
 62
   179
420
  1709851
370
    18
100
AcDbVertex
100
AcDb2dVertex
 10
168.8427516939004
 20
-170.0705837248435
 30
0.0
  0
VERTEX
  5
4AA
330
4A1
100
AcDbEntity
  8
Ebene 1
 62
   179
420
  1709851
370
    18
100
AcDbVertex
100
AcDb2dVertex
 10
167.1918619373687
 20
-170.0705837248435
 30
0.0
  0
VERTEX
  5
4AB
330
4A1
100
AcDbEntity
  8
Ebene 1
 62
   179
420
  1709851
370
    18
100
AcDbVertex
100
AcDb2dVertex
 10
167.1918619373687
 20
-170.8746690111008
 30
0.0
  0
VERTEX
  5
4AC
330
4A1
100
AcDbEntity
  8
Ebene 1
 62
   179
420
  1709851
370
    18
100
AcDbVertex
100
AcDb2dVertex
 10
166.3874321415629
 20
-170.8746690111008
 30
0.0
  0
VERTEX
  5
4AD
330
4A1
100
AcDbEntity
  8
Ebene 1
 62
   179
420
  1709851
370
    18
100
AcDbVertex
100
AcDb2dVertex
 10
166.3874321415629
 20
-170.0705837248435
 30
0.0
  0
SEQEND
  5
4AE
330
4A1
100
AcDbEntity
  8
Ebene 1
370
    18
  0
POLYLINE
  5
4AF
330
2FD
100
AcDbEntity
  8
Ebene 1
 62
   179
420
  1709851
370
    18
100
AcDb2dPolyline
 66
     1
 10
0.0
 20
0.0
 30
0.0
  0
VERTEX
  5
4B0
330
4AF
100
AcDbEntity
  8
Ebene 1
 62
   179
420
  1709851
370
    18
100
AcDbVertex
100
AcDb2dVertex
 10
169.3512477875233
 20
-175.6585286019187
 30
0.0
  0
VERTEX
  5
4B1
330
4AF
100
AcDbEntity
  8
Ebene 1
 62
   179
420
  1709851
370
    18
100
AcDbVertex
100
AcDb2dVertex
 10
163.3605712482224
 20
-175.6585286019187
 30
0.0
  0
SEQEND
  5
4B2
330
4AF
100
AcDbEntity
  8
Ebene 1
370
    18
  0
POLYLINE
  5
4B3
330
2FD
100
AcDbEntity
  8
Ebene 1
 62
   179
420
  1709851
370
    18
100
AcDb2dPolyline
 66
     1
 10
0.0
 20
0.0
 30
0.0
  0
VERTEX
  5
4B4
330
4B3
100
AcDbEntity
  8
Ebene 1
 62
   179
420
  1709851
370
    18
100
AcDbVertex
100
AcDb2dVertex
 10
169.3512477875233
 20
-175.6164984369987
 30
0.0
  0
VERTEX
  5
4B5
330
4B3
100
AcDbEntity
  8
Ebene 1
 62
   179
420
  1709851
370
    18
100
AcDbVertex
100
AcDb2dVertex
 10
169.5414170583091
 20
-175.6164984369987
 30
0.0
  0
SEQEND
  5
4B6
330
4B3
100
AcDbEntity
  8
Ebene 1
370
    18
  0
POLYLINE
  5
4B7
330
2FD
100
AcDbEntity
  8
Ebene 1
 62
   179
420
  1709851
370
    18
100
AcDb2dPolyline
 66
     1
 10
0.0
 20
0.0
 30
0.0
  0
VERTEX
  5
4B8
330
4B7
100
AcDbEntity
  8
Ebene 1
 62
   179
420
  1709851
370
    18
100
AcDbVertex
100
AcDb2dVertex
 10
169.3512477875233
 20
-169.6048068152377
 30
0.0
  0
VERTEX
  5
4B9
330
4B7
100
AcDbEntity
  8
Ebene 1
 62
   179
420
  1709851
370
    18
100
AcDbVertex
100
AcDb2dVertex
 10
169.5414170583091
 20
-169.6048068152377
 30
0.0
  0
SEQEND
  5
4BA
330
4B7
100
AcDbEntity
  8
Ebene 1
370
    18
  0
POLYLINE
  5
4BB
330
2FD
100
AcDbEntity
  8
Ebene 1
 62
   179
420
  1709851
370
    18
100
AcDb2dPolyline
 66
     1
 10
0.0
 20
0.0
 30
0.0
  0
VERTEX
  5
4BC
330
4BB
100
AcDbEntity
  8
Ebene 1
 62
   179
420
  1709851
370
    18
100
AcDbVertex
100
AcDb2dVertex
 10
163.3605712482224
 20
-169.5627766503177
 30
0.0
  0
VERTEX
  5
4BD
330
4BB
100
AcDbEntity
  8
Ebene 1
 62
   179
420
  1709851
370
    18
100
AcDbVertex
100
AcDb2dVertex
 10
169.3509032779748
 20
-169.5627766503177
 30
0.0
  0
VERTEX
  5
4BE
330
4BB
100
AcDbEntity
  8
Ebene 1
 62
   179
420
  1709851
370
    18
100
AcDbVertex
100
AcDb2dVertex
 10
169.3509032779748
 20
-175.6585286019187
 30
0.0
  0
SEQEND
  5
4BF
330
4BB
100
AcDbEntity
  8
Ebene 1
370
    18
  0
POLYLINE
  5
4C0
330
2FD
100
AcDbEntity
  8
Ebene 1
 62
   179
420
  1709851
370
    18
100
AcDb2dPolyline
 66
     1
 10
0.0
 20
0.0
 30
0.0
  0
VERTEX
  5
4C1
330
4C0
100
AcDbEntity
  8
Ebene 1
 62
   179
420
  1709851
370
    18
100
AcDbVertex
100
AcDb2dVertex
 10
169.9434597014377
 20
-168.6098632390975
 30
0.0
  0
VERTEX
  5
4C2
330
4C0
100
AcDbEntity
  8
Ebene 1
 62
   179
420
  1709851
370
    18
100
AcDbVertex
100
AcDb2dVertex
 10
169.5414170583091
 20
-169.3085286035062
 30
0.0
  0
SEQEND
  5
4C3
330
4C0
100
AcDbEntity
  8
Ebene 1
370
    18
  0
POLYLINE
  5
4C4
330
2FD
100
AcDbEntity
  8
Ebene 1
 62
   179
420
  1709851
370
    18
100
AcDb2dPolyline
 66
     1
 10
0.0
 20
0.0
 30
0.0
  0
VERTEX
  5
4C5
330
4C4
100
AcDbEntity
  8
Ebene 1
 62
   179
420
  1709851
370
    18
100
AcDbVertex
100
AcDb2dVertex
 10
169.5414170583091
 20
-169.3085286035062
 30
0.0
  0
VERTEX
  5
4C6
330
4C4
100
AcDbEntity
  8
Ebene 1
 62
   179
420
  1709851
370
    18
100
AcDbVertex
100
AcDb2dVertex
 10
169.5414170583091
 20
-175.9127766487302
 30
0.0
  0
VERTEX
  5
4C7
330
4C4
100
AcDbEntity
  8
Ebene 1
 62
   179
420
  1709851
370
    18
100
AcDbVertex
100
AcDb2dVertex
 10
169.9434597014377
 20
-176.6114420131388
 30
0.0
  0
SEQEND
  5
4C8
330
4C4
100
AcDbEntity
  8
Ebene 1
370
    18
  0
POLYLINE
  5
4C9
330
2FD
100
AcDbEntity
  8
Ebene 1
 62
   179
420
  1709851
370
    18
100
AcDb2dPolyline
 66
     1
 10
0.0
 20
0.0
 30
0.0
  0
VERTEX
  5
4CA
330
4C9
100
AcDbEntity
  8
Ebene 1
 62
   179
420
  1709851
370
    18
100
AcDbVertex
100
AcDb2dVertex
 10
169.9434597014377
 20
-168.6098632390975
 30
0.0
  0
VERTEX
  5
4CB
330
4C9
100
AcDbEntity
  8
Ebene 1
 62
   179
420
  1709851
370
    18
100
AcDbVertex
100
AcDb2dVertex
 10
169.9434597014377
 20
-176.6114420131388
 30
0.0
  0
SEQEND
  5
4CC
330
4C9
100
AcDbEntity
  8
Ebene 1
370
    18
  0
POLYLINE
  5
4CD
330
2FD
100
AcDbEntity
  8
Ebene 1
 62
   179
420
  1709851
370
    18
100
AcDb2dPolyline
 66
     1
 10
0.0
 20
0.0
 30
0.0
  0
VERTEX
  5
4CE
330
4CD
100
AcDbEntity
  8
Ebene 1
 62
   179
420
  1709851
370
    18
100
AcDbVertex
100
AcDb2dVertex
 10
171.9543619361781
 20
-176.6114420131388
 30
0.0
  0
VERTEX
  5
4CF
330
4CD
100
AcDbEntity
  8
Ebene 1
 62
   179
420
  1709851
370
    18
100
AcDbVertex
100
AcDb2dVertex
 10
171.9970811201952
 20
-176.738221526996
 30
0.0
  0
VERTEX
  5
4D0
330
4CD
100
AcDbEntity
  8
Ebene 1
 62
   179
420
  1709851
370
    18
100
AcDbVertex
100
AcDb2dVertex
 10
172.1025010420438
 20
-176.8016112839246
 30
0.0
  0
VERTEX
  5
4D1
330
4CD
100
AcDbEntity
  8
Ebene 1
 62
   179
420
  1709851
370
    18
100
AcDbVertex
100
AcDb2dVertex
 10
172.1452202260609
 20
-176.8229708759332
 30
0.0
  0
SEQEND
  5
4D2
330
4CD
100
AcDbEntity
  8
Ebene 1
370
    18
  0
POLYLINE
  5
4D3
330
2FD
100
AcDbEntity
  8
Ebene 1
 62
   179
420
  1709851
370
    18
100
AcDb2dPolyline
 66
     1
 10
0.0
 20
0.0
 30
0.0
  0
VERTEX
  5
4D4
330
4D3
100
AcDbEntity
  8
Ebene 1
 62
   179
420
  1709851
370
    18
100
AcDbVertex
100
AcDb2dVertex
 10
171.9543619361781
 20
-176.6114420131388
 30
0.0
  0
VERTEX
  5
4D5
330
4D3
100
AcDbEntity
  8
Ebene 1
 62
   179
420
  1709851
370
    18
100
AcDbVertex
100
AcDb2dVertex
 10
171.9543619361781
 20
-168.6098632390975
 30
0.0
  0
SEQEND
  5
4D6
330
4D3
100
AcDbEntity
  8
Ebene 1
370
    18
  0
POLYLINE
  5
4D7
330
2FD
100
AcDbEntity
  8
Ebene 1
 62
   179
420
  1709851
370
    18
100
AcDb2dPolyline
 66
     1
 10
0.0
 20
0.0
 30
0.0
  0
VERTEX
  5
4D8
330
4D7
100
AcDbEntity
  8
Ebene 1
 62
   179
420
  1709851
370
    18
100
AcDbVertex
100
AcDb2dVertex
 10
172.1452202260609
 20
-168.4196939683117
 30
0.0
  0
VERTEX
  5
4D9
330
4D7
100
AcDbEntity
  8
Ebene 1
 62
   179
420
  1709851
370
    18
100
AcDbVertex
100
AcDb2dVertex
 10
172.0177516931067
 20
-168.4624131523288
 30
0.0
  0
VERTEX
  5
4DA
330
4D7
100
AcDbEntity
  8
Ebene 1
 62
   179
420
  1709851
370
    18
100
AcDbVertex
100
AcDb2dVertex
 10
171.9543619361781
 20
-168.5678330741775
 30
0.0
  0
VERTEX
  5
4DB
330
4D7
100
AcDbEntity
  8
Ebene 1
 62
   179
420
  1709851
370
    18
100
AcDbVertex
100
AcDb2dVertex
 10
171.9543619361781
 20
-168.6098632390975
 30
0.0
  0
SEQEND
  5
4DC
330
4D7
100
AcDbEntity
  8
Ebene 1
370
    18
  0
POLYLINE
  5
4DD
330
2FD
100
AcDbEntity
  8
Ebene 1
 62
   179
420
  1709851
370
    18
100
AcDb2dPolyline
 66
     1
 10
0.0
 20
0.0
 30
0.0
  0
VERTEX
  5
4DE
330
4DD
100
AcDbEntity
  8
Ebene 1
 62
   179
420
  1709851
370
    18
100
AcDbVertex
100
AcDb2dVertex
 10
169.9434597014377
 20
-176.6114420131388
 30
0.0
  0
VERTEX
  5
4DF
330
4DD
100
AcDbEntity
  8
Ebene 1
 62
   179
420
  1709851
370
    18
100
AcDbVertex
100
AcDb2dVertex
 10
171.9543619361781
 20
-176.6114420131388
 30
0.0
  0
SEQEND
  5
4E0
330
4DD
100
AcDbEntity
  8
Ebene 1
370
    18
  0
POLYLINE
  5
4E1
330
2FD
100
AcDbEntity
  8
Ebene 1
 62
   179
420
  1709851
370
    18
100
AcDb2dPolyline
 66
     1
 10
0.0
 20
0.0
 30
0.0
  0
VERTEX
  5
4E2
330
4E1
100
AcDbEntity
  8
Ebene 1
 62
   179
420
  1709851
370
    18
100
AcDbVertex
100
AcDb2dVertex
 10
171.9543619361781
 20
-168.6098632390975
 30
0.0
  0
VERTEX
  5
4E3
330
4E1
100
AcDbEntity
  8
Ebene 1
 62
   179
420
  1709851
370
    18
100
AcDbVertex
100
AcDb2dVertex
 10
169.9434597014377
 20
-168.6098632390975
 30
0.0
  0
SEQEND
  5
4E4
330
4E1
100
AcDbEntity
  8
Ebene 1
370
    18
  0
POLYLINE
  5
4E5
330
2FD
100
AcDbEntity
  8
Ebene 1
 62
   179
420
  1709851
370
    18
100
AcDb2dPolyline
 66
     1
 10
0.0
 20
0.0
 30
0.0
  0
VERTEX
  5
4E6
330
4E5
100
AcDbEntity
  8
Ebene 1
 62
   179
420
  1709851
370
    18
100
AcDbVertex
100
AcDb2dVertex
 10
130.5946125975597
 20
-205.8637477783952
 30
0.0
  0
VERTEX
  5
4E7
330
4E5
100
AcDbEntity
  8
Ebene 1
 62
   179
420
  1709851
370
    18
100
AcDbVertex
100
AcDb2dVertex
 10
130.5946125975597
 20
-204.1914984298549
 30
0.0
  0
SEQEND
  5
4E8
330
4E5
100
AcDbEntity
  8
Ebene 1
370
    18
  0
POLYLINE
  5
4E9
330
2FD
100
AcDbEntity
  8
Ebene 1
 62
   179
420
  1709851
370
    18
100
AcDb2dPolyline
 66
     1
 10
0.0
 20
0.0
 30
0.0
  0
VERTEX
  5
4EA
330
4E9
100
AcDbEntity
  8
Ebene 1
 62
   179
420
  1709851
370
    18
100
AcDbVertex
100
AcDb2dVertex
 10
130.5946125975597
 20
-204.1914984298549
 30
0.0
  0
VERTEX
  5
4EB
330
4E9
100
AcDbEntity
  8
Ebene 1
 62
   179
420
  1709851
370
    18
100
AcDbVertex
100
AcDb2dVertex
 10
131.399386902914
 20
-204.1914984298549
 30
0.0
  0
SEQEND
  5
4EC
330
4E9
100
AcDbEntity
  8
Ebene 1
370
    18
  0
POLYLINE
  5
4ED
330
2FD
100
AcDbEntity
  8
Ebene 1
 62
   179
420
  1709851
370
    18
100
AcDb2dPolyline
 66
     1
 10
0.0
 20
0.0
 30
0.0
  0
VERTEX
  5
4EE
330
4ED
100
AcDbEntity
  8
Ebene 1
 62
   179
420
  1709851
370
    18
100
AcDbVertex
100
AcDb2dVertex
 10
131.399386902914
 20
-204.1914984298549
 30
0.0
  0
VERTEX
  5
4EF
330
4ED
100
AcDbEntity
  8
Ebene 1
 62
   179
420
  1709851
370
    18
100
AcDbVertex
100
AcDb2dVertex
 10
131.399386902914
 20
-203.598942006392
 30
0.0
  0
SEQEND
  5
4F0
330
4ED
100
AcDbEntity
  8
Ebene 1
370
    18
  0
POLYLINE
  5
4F1
330
2FD
100
AcDbEntity
  8
Ebene 1
 62
   179
420
  1709851
370
    18
100
AcDb2dPolyline
 66
     1
 10
0.0
 20
0.0
 30
0.0
  0
VERTEX
  5
4F2
330
4F1
100
AcDbEntity
  8
Ebene 1
 62
   179
420
  1709851
370
    18
100
AcDbVertex
100
AcDb2dVertex
 10
131.399386902914
 20
-203.598942006392
 30
0.0
  0
VERTEX
  5
4F3
330
4F1
100
AcDbEntity
  8
Ebene 1
 62
   179
420
  1709851
370
    18
100
AcDbVertex
100
AcDb2dVertex
 10
130.5946125975597
 20
-203.598942006392
 30
0.0
  0
SEQEND
  5
4F4
330
4F1
100
AcDbEntity
  8
Ebene 1
370
    18
  0
POLYLINE
  5
4F5
330
2FD
100
AcDbEntity
  8
Ebene 1
 62
   179
420
  1709851
370
    18
100
AcDb2dPolyline
 66
     1
 10
0.0
 20
0.0
 30
0.0
  0
VERTEX
  5
4F6
330
4F5
100
AcDbEntity
  8
Ebene 1
 62
   179
420
  1709851
370
    18
100
AcDbVertex
100
AcDb2dVertex
 10
136.204261576192
 20
-202.8155272930461
 30
0.0
  0
VERTEX
  5
4F7
330
4F5
100
AcDbEntity
  8
Ebene 1
 62
   179
420
  1709851
370
    18
100
AcDbVertex
100
AcDb2dVertex
 10
135.6961099921176
 20
-202.8155272930461
 30
0.0
  0
VERTEX
  5
4F8
330
4F5
100
AcDbEntity
  8
Ebene 1
 62
   179
420
  1709851
370
    18
100
AcDbVertex
100
AcDb2dVertex
 10
135.6961099921176
 20
-203.598942006392
 30
0.0
  0
VERTEX
  5
4F9
330
4F5
100
AcDbEntity
  8
Ebene 1
 62
   179
420
  1709851
370
    18
100
AcDbVertex
100
AcDb2dVertex
 10
134.8913356867633
 20
-203.598942006392
 30
0.0
  0
VERTEX
  5
4FA
330
4F5
100
AcDbEntity
  8
Ebene 1
 62
   179
420
  1709851
370
    18
100
AcDbVertex
100
AcDb2dVertex
 10
134.8913356867633
 20
-204.1914984298549
 30
0.0
  0
SEQEND
  5
4FB
330
4F5
100
AcDbEntity
  8
Ebene 1
370
    18
  0
POLYLINE
  5
4FC
330
2FD
100
AcDbEntity
  8
Ebene 1
 62
   179
420
  1709851
370
    18
100
AcDb2dPolyline
 66
     1
 10
0.0
 20
0.0
 30
0.0
  0
VERTEX
  5
4FD
330
4FC
100
AcDbEntity
  8
Ebene 1
 62
   179
420
  1709851
370
    18
100
AcDbVertex
100
AcDb2dVertex
 10
133.494693977043
 20
-206.7312228215811
 30
0.0
  0
VERTEX
  5
4FE
330
4FC
100
AcDbEntity
  8
Ebene 1
 62
   179
420
  1709851
370
    18
100
AcDbVertex
100
AcDb2dVertex
 10
133.494693977043
 20
-207.1549695662668
 30
0.0
  0
SEQEND
  5
4FF
330
4FC
100
AcDbEntity
  8
Ebene 1
370
    18
  0
POLYLINE
  5
500
330
2FD
100
AcDbEntity
  8
Ebene 1
 62
   179
420
  1709851
370
    18
100
AcDb2dPolyline
 66
     1
 10
0.0
 20
0.0
 30
0.0
  0
VERTEX
  5
501
330
500
100
AcDbEntity
  8
Ebene 1
 62
   179
420
  1709851
370
    18
100
AcDbVertex
100
AcDb2dVertex
 10
132.7746690206258
 20
-206.7312228215811
 30
0.0
  0
VERTEX
  5
502
330
500
100
AcDbEntity
  8
Ebene 1
 62
   179
420
  1709851
370
    18
100
AcDbVertex
100
AcDb2dVertex
 10
132.7746690206258
 20
-207.1549695662668
 30
0.0
  0
SEQEND
  5
503
330
500
100
AcDbEntity
  8
Ebene 1
370
    18
  0
POLYLINE
  5
504
330
2FD
100
AcDbEntity
  8
Ebene 1
 62
   179
420
  1709851
370
    18
100
AcDb2dPolyline
 66
     1
 10
0.0
 20
0.0
 30
0.0
  0
VERTEX
  5
505
330
504
100
AcDbEntity
  8
Ebene 1
 62
   179
420
  1709851
370
    18
100
AcDbVertex
100
AcDb2dVertex
 10
133.7485975143059
 20
-206.964111276384
 30
0.0
  0
VERTEX
  5
506
330
504
100
AcDbEntity
  8
Ebene 1
 62
   179
420
  1709851
370
    18
100
AcDbVertex
100
AcDb2dVertex
 10
132.5421250753714
 20
-206.964111276384
 30
0.0
  0
SEQEND
  5
507
330
504
100
AcDbEntity
  8
Ebene 1
370
    18
  0
POLYLINE
  5
508
330
2FD
100
AcDbEntity
  8
Ebene 1
 62
   179
420
  1709851
370
    18
100
AcDb2dPolyline
 66
     1
 10
0.0
 20
0.0
 30
0.0
  0
VERTEX
  5
509
330
508
100
AcDbEntity
  8
Ebene 1
 62
   179
420
  1709851
370
    18
100
AcDbVertex
100
AcDb2dVertex
 10
133.494693977043
 20
-206.7312228215811
 30
0.0
  0
VERTEX
  5
50A
330
508
100
AcDbEntity
  8
Ebene 1
 62
   179
420
  1709851
370
    18
100
AcDbVertex
100
AcDb2dVertex
 10
133.7485975143059
 20
-206.964111276384
 30
0.0
  0
VERTEX
  5
50B
330
508
100
AcDbEntity
  8
Ebene 1
 62
   179
420
  1709851
370
    18
100
AcDbVertex
100
AcDb2dVertex
 10
133.7485975143059
 20
-207.1549695662668
 30
0.0
  0
SEQEND
  5
50C
330
508
100
AcDbEntity
  8
Ebene 1
370
    18
  0
POLYLINE
  5
50D
330
2FD
100
AcDbEntity
  8
Ebene 1
 62
   179
420
  1709851
370
    18
100
AcDb2dPolyline
 66
     1
 10
0.0
 20
0.0
 30
0.0
  0
VERTEX
  5
50E
330
50D
100
AcDbEntity
  8
Ebene 1
 62
   179
420
  1709851
370
    18
100
AcDbVertex
100
AcDb2dVertex
 10
132.5421250753714
 20
-207.1549695662668
 30
0.0
  0
VERTEX
  5
50F
330
50D
100
AcDbEntity
  8
Ebene 1
 62
   179
420
  1709851
370
    18
100
AcDbVertex
100
AcDb2dVertex
 10
132.5421250753714
 20
-206.964111276384
 30
0.0
  0
VERTEX
  5
510
330
50D
100
AcDbEntity
  8
Ebene 1
 62
   179
420
  1709851
370
    18
100
AcDbVertex
100
AcDb2dVertex
 10
132.7746690206258
 20
-206.7312228215811
 30
0.0
  0
SEQEND
  5
511
330
50D
100
AcDbEntity
  8
Ebene 1
370
    18
  0
POLYLINE
  5
512
330
2FD
100
AcDbEntity
  8
Ebene 1
 62
   179
420
  1709851
370
    18
100
AcDb2dPolyline
 66
     1
 10
0.0
 20
0.0
 30
0.0
  0
VERTEX
  5
513
330
512
100
AcDbEntity
  8
Ebene 1
 62
   179
420
  1709851
370
    18
100
AcDbVertex
100
AcDb2dVertex
 10
134.2567490983803
 20
-207.5359971269355
 30
0.0
  0
VERTEX
  5
514
330
512
100
AcDbEntity
  8
Ebene 1
 62
   179
420
  1709851
370
    18
100
AcDbVertex
100
AcDb2dVertex
 10
134.0452202355859
 20
-207.4512477779983
 30
0.0
  0
VERTEX
  5
515
330
512
100
AcDbEntity
  8
Ebene 1
 62
   179
420
  1709851
370
    18
100
AcDbVertex
100
AcDb2dVertex
 10
133.8330023536945
 20
-207.4726073700069
 30
0.0
  0
VERTEX
  5
516
330
512
100
AcDbEntity
  8
Ebene 1
 62
   179
420
  1709851
370
    18
100
AcDbVertex
100
AcDb2dVertex
 10
133.6848632478288
 20
-207.5359971269355
 30
0.0
  0
VERTEX
  5
517
330
512
100
AcDbEntity
  8
Ebene 1
 62
   179
420
  1709851
370
    18
100
AcDbVertex
100
AcDb2dVertex
 10
133.2828206047001
 20
-207.4512477779983
 30
0.0
  0
VERTEX
  5
518
330
512
100
AcDbEntity
  8
Ebene 1
 62
   179
420
  1709851
370
    18
100
AcDbVertex
100
AcDb2dVertex
 10
132.90213755358
 20
-207.4726073700069
 30
0.0
  0
VERTEX
  5
519
330
512
100
AcDbEntity
  8
Ebene 1
 62
   179
420
  1709851
370
    18
100
AcDbVertex
100
AcDb2dVertex
 10
132.62652991476
 20
-207.5359971269355
 30
0.0
  0
VERTEX
  5
51A
330
512
100
AcDbEntity
  8
Ebene 1
 62
   179
420
  1709851
370
    18
100
AcDbVertex
100
AcDb2dVertex
 10
132.4150010519657
 20
-207.4512477779983
 30
0.0
  0
VERTEX
  5
51B
330
512
100
AcDbEntity
  8
Ebene 1
 62
   179
420
  1709851
370
    18
100
AcDbVertex
100
AcDb2dVertex
 10
132.1821125971628
 20
-207.4726073700069
 30
0.0
  0
VERTEX
  5
51C
330
512
100
AcDbEntity
  8
Ebene 1
 62
   179
420
  1709851
370
    18
100
AcDbVertex
100
AcDb2dVertex
 10
132.0339734912971
 20
-207.5359971269355
 30
0.0
  0
SEQEND
  5
51D
330
512
100
AcDbEntity
  8
Ebene 1
370
    18
  0
POLYLINE
  5
51E
330
2FD
100
AcDbEntity
  8
Ebene 1
 62
   179
420
  1709851
370
    18
100
AcDb2dPolyline
 66
     1
 10
0.0
 20
0.0
 30
0.0
  0
VERTEX
  5
51F
330
51E
100
AcDbEntity
  8
Ebene 1
 62
   179
420
  1709851
370
    18
100
AcDbVertex
100
AcDb2dVertex
 10
132.0339734912971
 20
-208.2339734722471
 30
0.0
  0
VERTEX
  5
520
330
51E
100
AcDbEntity
  8
Ebene 1
 62
   179
420
  1709851
370
    18
100
AcDbVertex
100
AcDb2dVertex
 10
132.2455023540914
 20
-208.3187228211842
 30
0.0
  0
VERTEX
  5
521
330
51E
100
AcDbEntity
  8
Ebene 1
 62
   179
420
  1709851
370
    18
100
AcDbVertex
100
AcDb2dVertex
 10
132.4783908088943
 20
-208.2980522482727
 30
0.0
  0
VERTEX
  5
522
330
51E
100
AcDbEntity
  8
Ebene 1
 62
   179
420
  1709851
370
    18
100
AcDbVertex
100
AcDb2dVertex
 10
132.62652991476
 20
-208.2339734722471
 30
0.0
  0
VERTEX
  5
523
330
51E
100
AcDbEntity
  8
Ebene 1
 62
   179
420
  1709851
370
    18
100
AcDbVertex
100
AcDb2dVertex
 10
133.0075574754287
 20
-208.3187228211842
 30
0.0
  0
VERTEX
  5
524
330
51E
100
AcDbEntity
  8
Ebene 1
 62
   179
420
  1709851
370
    18
100
AcDbVertex
100
AcDb2dVertex
 10
133.4099446281058
 20
-208.2980522482727
 30
0.0
  0
VERTEX
  5
525
330
51E
100
AcDbEntity
  8
Ebene 1
 62
   179
420
  1709851
370
    18
100
AcDbVertex
100
AcDb2dVertex
 10
133.6848632478288
 20
-208.2339734722471
 30
0.0
  0
VERTEX
  5
526
330
51E
100
AcDbEntity
  8
Ebene 1
 62
   179
420
  1709851
370
    18
100
AcDbVertex
100
AcDb2dVertex
 10
133.8970811297202
 20
-208.3187228211842
 30
0.0
  0
VERTEX
  5
527
330
51E
100
AcDbEntity
  8
Ebene 1
 62
   179
420
  1709851
370
    18
100
AcDbVertex
100
AcDb2dVertex
 10
134.1086099925145
 20
-208.2980522482727
 30
0.0
  0
VERTEX
  5
528
330
51E
100
AcDbEntity
  8
Ebene 1
 62
   179
420
  1709851
370
    18
100
AcDbVertex
100
AcDb2dVertex
 10
134.2567490983803
 20
-208.2339734722471
 30
0.0
  0
SEQEND
  5
529
330
51E
100
AcDbEntity
  8
Ebene 1
370
    18
  0
POLYLINE
  5
52A
330
2FD
100
AcDbEntity
  8
Ebene 1
 62
   179
420
  1709851
370
    18
100
AcDb2dPolyline
 66
     1
 10
0.0
 20
0.0
 30
0.0
  0
VERTEX
  5
52B
330
52A
100
AcDbEntity
  8
Ebene 1
 62
   179
420
  1709851
370
    18
100
AcDbVertex
100
AcDb2dVertex
 10
134.0025010515688
 20
-207.4512477779983
 30
0.0
  0
VERTEX
  5
52C
330
52A
100
AcDbEntity
  8
Ebene 1
 62
   179
420
  1709851
370
    18
100
AcDbVertex
100
AcDb2dVertex
 10
134.0025010515688
 20
-207.2603894881155
 30
0.0
  0
VERTEX
  5
52D
330
52A
100
AcDbEntity
  8
Ebene 1
 62
   179
420
  1709851
370
    18
100
AcDbVertex
100
AcDb2dVertex
 10
133.7909721887745
 20
-207.1549695662668
 30
0.0
  0
VERTEX
  5
52E
330
52A
100
AcDbEntity
  8
Ebene 1
 62
   179
420
  1709851
370
    18
100
AcDbVertex
100
AcDb2dVertex
 10
132.5000949104514
 20
-207.1549695662668
 30
0.0
  0
VERTEX
  5
52F
330
52A
100
AcDbEntity
  8
Ebene 1
 62
   179
420
  1709851
370
    18
100
AcDbVertex
100
AcDb2dVertex
 10
132.3095811301171
 20
-207.2603894881155
 30
0.0
  0
VERTEX
  5
530
330
52A
100
AcDbEntity
  8
Ebene 1
 62
   179
420
  1709851
370
    18
100
AcDbVertex
100
AcDb2dVertex
 10
132.3095811301171
 20
-207.4512477779983
 30
0.0
  0
VERTEX
  5
531
330
52A
100
AcDbEntity
  8
Ebene 1
 62
   179
420
  1709851
370
    18
100
AcDbVertex
100
AcDb2dVertex
 10
134.0025010515688
 20
-207.4512477779983
 30
0.0
  0
SEQEND
  5
532
330
52A
100
AcDbEntity
  8
Ebene 1
370
    18
  0
SPLINE
  5
533
330
2FD
100
AcDbEntity
  8
Ebene 1
 62
   179
420
  1709851
370
    18
100
AcDbSpline
210
0.0
220
0.0
230
1.0
 70
    27
 71
     3
 72
    11
 73
     7
 74
     0
 42
0.0000000001
 43
0.0000000001
 40
0.0
 40
0.0
 40
0.0
 40
0.0
 40
1.0
 40
1.0
 40
1.0
 40
2.0
 40
2.0
 40
2.0
 40
2.0
 10
134.2567490983803
 20
-207.5359971269355
 30
0.0
 10
134.2567490983803
 20
-207.5359971269355
 30
0.0
 10
134.2567490983803
 20
-208.2339734722471
 30
0.0
 10
134.2567490983803
 20
-208.2339734722471
 30
0.0
 10
134.2567490983803
 20
-208.2339734722471
 30
0.0
 10
134.2567490983803
 20
-207.5359971269355
 30
0.0
 10
134.2567490983803
 20
-207.5359971269355
 30
0.0
  0
POLYLINE
  5
534
330
2FD
100
AcDbEntity
  8
Ebene 1
 62
   179
420
  1709851
370
    18
100
AcDb2dPolyline
 66
     1
 10
0.0
 20
0.0
 30
0.0
  0
VERTEX
  5
535
330
534
100
AcDbEntity
  8
Ebene 1
 62
   179
420
  1709851
370
    18
100
AcDbVertex
100
AcDb2dVertex
 10
133.6848632478288
 20
-207.5359971269355
 30
0.0
  0
VERTEX
  5
536
330
534
100
AcDbEntity
  8
Ebene 1
 62
   179
420
  1709851
370
    18
100
AcDbVertex
100
AcDb2dVertex
 10
133.6848632478288
 20
-208.2339734722471
 30
0.0
  0
SEQEND
  5
537
330
534
100
AcDbEntity
  8
Ebene 1
370
    18
  0
POLYLINE
  5
538
330
2FD
100
AcDbEntity
  8
Ebene 1
 62
   179
420
  1709851
370
    18
100
AcDb2dPolyline
 66
     1
 10
0.0
 20
0.0
 30
0.0
  0
VERTEX
  5
539
330
538
100
AcDbEntity
  8
Ebene 1
 62
   179
420
  1709851
370
    18
100
AcDbVertex
100
AcDb2dVertex
 10
132.62652991476
 20
-207.5359971269355
 30
0.0
  0
VERTEX
  5
53A
330
538
100
AcDbEntity
  8
Ebene 1
 62
   179
420
  1709851
370
    18
100
AcDbVertex
100
AcDb2dVertex
 10
132.62652991476
 20
-208.2339734722471
 30
0.0
  0
SEQEND
  5
53B
330
538
100
AcDbEntity
  8
Ebene 1
370
    18
  0
POLYLINE
  5
53C
330
2FD
100
AcDbEntity
  8
Ebene 1
 62
   179
420
  1709851
370
    18
100
AcDb2dPolyline
 66
     1
 10
0.0
 20
0.0
 30
0.0
  0
VERTEX
  5
53D
330
53C
100
AcDbEntity
  8
Ebene 1
 62
   179
420
  1709851
370
    18
100
AcDbVertex
100
AcDb2dVertex
 10
132.0339734912971
 20
-207.5359971269355
 30
0.0
  0
VERTEX
  5
53E
330
53C
100
AcDbEntity
  8
Ebene 1
 62
   179
420
  1709851
370
    18
100
AcDbVertex
100
AcDb2dVertex
 10
132.0339734912971
 20
-208.2339734722471
 30
0.0
  0
SEQEND
  5
53F
330
53C
100
AcDbEntity
  8
Ebene 1
370
    18
  0
POLYLINE
  5
540
330
2FD
100
AcDbEntity
  8
Ebene 1
 62
   179
420
  1709851
370
    18
100
AcDb2dPolyline
 66
     1
 10
0.0
 20
0.0
 30
0.0
  0
VERTEX
  5
541
330
540
100
AcDbEntity
  8
Ebene 1
 62
   179
420
  1709851
370
    18
100
AcDbVertex
100
AcDb2dVertex
 10
130.6580023544883
 20
-205.8210285943781
 30
0.0
  0
VERTEX
  5
542
330
540
100
AcDbEntity
  8
Ebene 1
 62
   179
420
  1709851
370
    18
100
AcDbVertex
100
AcDb2dVertex
 10
135.6533908081005
 20
-205.8210285943781
 30
0.0
  0
VERTEX
  5
543
330
540
100
AcDbEntity
  8
Ebene 1
 62
   179
420
  1709851
370
    18
100
AcDbVertex
100
AcDb2dVertex
 10
135.6533908081005
 20
-204.233528594775
 30
0.0
  0
VERTEX
  5
544
330
540
100
AcDbEntity
  8
Ebene 1
 62
   179
420
  1709851
370
    18
100
AcDbVertex
100
AcDb2dVertex
 10
130.6580023544883
 20
-204.233528594775
 30
0.0
  0
VERTEX
  5
545
330
540
100
AcDbEntity
  8
Ebene 1
 62
   179
420
  1709851
370
    18
100
AcDbVertex
100
AcDb2dVertex
 10
130.6580023544883
 20
-205.8210285943781
 30
0.0
  0
SEQEND
  5
546
330
540
100
AcDbEntity
  8
Ebene 1
370
    18
  0
POLYLINE
  5
547
330
2FD
100
AcDbEntity
  8
Ebene 1
 62
   179
420
  1709851
370
    18
100
AcDb2dPolyline
 66
     1
 10
0.0
 20
0.0
 30
0.0
  0
VERTEX
  5
548
330
547
100
AcDbEntity
  8
Ebene 1
 62
   179
420
  1709851
370
    18
100
AcDbVertex
100
AcDb2dVertex
 10
130.5946125975597
 20
-203.598942006392
 30
0.0
  0
VERTEX
  5
549
330
547
100
AcDbEntity
  8
Ebene 1
 62
   179
420
  1709851
370
    18
100
AcDbVertex
100
AcDb2dVertex
 10
130.5946125975597
 20
-202.8155272930461
 30
0.0
  0
VERTEX
  5
54A
330
547
100
AcDbEntity
  8
Ebene 1
 62
   179
420
  1709851
370
    18
100
AcDbVertex
100
AcDb2dVertex
 10
130.1078206054939
 20
-202.8155272930461
 30
0.0
  0
SEQEND
  5
54B
330
547
100
AcDbEntity
  8
Ebene 1
370
    18
  0
POLYLINE
  5
54C
330
2FD
100
AcDbEntity
  8
Ebene 1
 62
   179
420
  1709851
370
    18
100
AcDb2dPolyline
 66
     1
 10
0.0
 20
0.0
 30
0.0
  0
VERTEX
  5
54D
330
54C
100
AcDbEntity
  8
Ebene 1
 62
   179
420
  1709851
370
    18
100
AcDbVertex
100
AcDb2dVertex
 10
134.8913356867633
 20
-204.1914984298549
 30
0.0
  0
VERTEX
  5
54E
330
54C
100
AcDbEntity
  8
Ebene 1
 62
   179
420
  1709851
370
    18
100
AcDbVertex
100
AcDb2dVertex
 10
135.6961099921176
 20
-204.1914984298549
 30
0.0
  0
VERTEX
  5
54F
330
54C
100
AcDbEntity
  8
Ebene 1
 62
   179
420
  1709851
370
    18
100
AcDbVertex
100
AcDb2dVertex
 10
135.6961099921176
 20
-205.8637477783952
 30
0.0
  0
VERTEX
  5
550
330
54C
100
AcDbEntity
  8
Ebene 1
 62
   179
420
  1709851
370
    18
100
AcDbVertex
100
AcDb2dVertex
 10
134.8913356867633
 20
-205.8637477783952
 30
0.0
  0
VERTEX
  5
551
330
54C
100
AcDbEntity
  8
Ebene 1
 62
   179
420
  1709851
370
    18
100
AcDbVertex
100
AcDb2dVertex
 10
134.8913356867633
 20
-206.6464734726439
 30
0.0
  0
VERTEX
  5
552
330
54C
100
AcDbEntity
  8
Ebene 1
 62
   179
420
  1709851
370
    18
100
AcDbVertex
100
AcDb2dVertex
 10
135.6961099921176
 20
-206.6464734726439
 30
0.0
  0
VERTEX
  5
553
330
54C
100
AcDbEntity
  8
Ebene 1
 62
   179
420
  1709851
370
    18
100
AcDbVertex
100
AcDb2dVertex
 10
135.6961099921176
 20
-208.3187228211842
 30
0.0
  0
VERTEX
  5
554
330
54C
100
AcDbEntity
  8
Ebene 1
 62
   179
420
  1709851
370
    18
100
AcDbVertex
100
AcDb2dVertex
 10
130.5946125975597
 20
-208.3187228211842
 30
0.0
  0
VERTEX
  5
555
330
54C
100
AcDbEntity
  8
Ebene 1
 62
   179
420
  1709851
370
    18
100
AcDbVertex
100
AcDb2dVertex
 10
130.5946125975597
 20
-206.6464734726439
 30
0.0
  0
VERTEX
  5
556
330
54C
100
AcDbEntity
  8
Ebene 1
 62
   179
420
  1709851
370
    18
100
AcDbVertex
100
AcDb2dVertex
 10
131.399386902914
 20
-206.6464734726439
 30
0.0
  0
VERTEX
  5
557
330
54C
100
AcDbEntity
  8
Ebene 1
 62
   179
420
  1709851
370
    18
100
AcDbVertex
100
AcDb2dVertex
 10
131.399386902914
 20
-205.8637477783952
 30
0.0
  0
VERTEX
  5
558
330
54C
100
AcDbEntity
  8
Ebene 1
 62
   179
420
  1709851
370
    18
100
AcDbVertex
100
AcDb2dVertex
 10
130.5946125975597
 20
-205.8637477783952
 30
0.0
  0
SEQEND
  5
559
330
54C
100
AcDbEntity
  8
Ebene 1
370
    18
  0
POLYLINE
  5
55A
330
2FD
100
AcDbEntity
  8
Ebene 1
 62
   179
420
  1709851
370
    18
100
AcDb2dPolyline
 66
     1
 10
0.0
 20
0.0
 30
0.0
  0
VERTEX
  5
55B
330
55A
100
AcDbEntity
  8
Ebene 1
 62
   179
420
  1709851
370
    18
100
AcDbVertex
100
AcDb2dVertex
 10
136.204261576192
 20
-208.8058593227985
 30
0.0
  0
VERTEX
  5
55C
330
55A
100
AcDbEntity
  8
Ebene 1
 62
   179
420
  1709851
370
    18
100
AcDbVertex
100
AcDb2dVertex
 10
136.204261576192
 20
-202.8155272930461
 30
0.0
  0
SEQEND
  5
55D
330
55A
100
AcDbEntity
  8
Ebene 1
370
    18
  0
POLYLINE
  5
55E
330
2FD
100
AcDbEntity
  8
Ebene 1
 62
   179
420
  1709851
370
    18
100
AcDb2dPolyline
 66
     1
 10
0.0
 20
0.0
 30
0.0
  0
VERTEX
  5
55F
330
55E
100
AcDbEntity
  8
Ebene 1
 62
   179
420
  1709851
370
    18
100
AcDbVertex
100
AcDb2dVertex
 10
136.1405273097149
 20
-208.8058593227985
 30
0.0
  0
VERTEX
  5
560
330
55E
100
AcDbEntity
  8
Ebene 1
 62
   179
420
  1709851
370
    18
100
AcDbVertex
100
AcDb2dVertex
 10
136.1405273097149
 20
-209.0173881855929
 30
0.0
  0
SEQEND
  5
561
330
55E
100
AcDbEntity
  8
Ebene 1
370
    18
  0
POLYLINE
  5
562
330
2FD
100
AcDbEntity
  8
Ebene 1
 62
   179
420
  1709851
370
    18
100
AcDb2dPolyline
 66
     1
 10
0.0
 20
0.0
 30
0.0
  0
VERTEX
  5
563
330
562
100
AcDbEntity
  8
Ebene 1
 62
   179
420
  1709851
370
    18
100
AcDbVertex
100
AcDb2dVertex
 10
130.1501952799624
 20
-208.8058593227985
 30
0.0
  0
VERTEX
  5
564
330
562
100
AcDbEntity
  8
Ebene 1
 62
   179
420
  1709851
370
    18
100
AcDbVertex
100
AcDb2dVertex
 10
130.1501952799624
 20
-209.0173881855929
 30
0.0
  0
SEQEND
  5
565
330
562
100
AcDbEntity
  8
Ebene 1
370
    18
  0
POLYLINE
  5
566
330
2FD
100
AcDbEntity
  8
Ebene 1
 62
   179
420
  1709851
370
    18
100
AcDb2dPolyline
 66
     1
 10
0.0
 20
0.0
 30
0.0
  0
VERTEX
  5
567
330
566
100
AcDbEntity
  8
Ebene 1
 62
   179
420
  1709851
370
    18
100
AcDbVertex
100
AcDb2dVertex
 10
130.1078206054939
 20
-202.8155272930461
 30
0.0
  0
VERTEX
  5
568
330
566
100
AcDbEntity
  8
Ebene 1
 62
   179
420
  1709851
370
    18
100
AcDbVertex
100
AcDb2dVertex
 10
130.1078206054939
 20
-208.8058593227985
 30
0.0
  0
VERTEX
  5
569
330
566
100
AcDbEntity
  8
Ebene 1
 62
   179
420
  1709851
370
    18
100
AcDbVertex
100
AcDb2dVertex
 10
136.204261576192
 20
-208.8058593227985
 30
0.0
  0
SEQEND
  5
56A
330
566
100
AcDbEntity
  8
Ebene 1
370
    18
  0
POLYLINE
  5
56B
330
2FD
100
AcDbEntity
  8
Ebene 1
 62
   179
420
  1709851
370
    18
100
AcDb2dPolyline
 66
     1
 10
0.0
 20
0.0
 30
0.0
  0
VERTEX
  5
56C
330
56B
100
AcDbEntity
  8
Ebene 1
 62
   179
420
  1709851
370
    18
100
AcDbVertex
100
AcDb2dVertex
 10
129.1552517038223
 20
-209.4197753382701
 30
0.0
  0
VERTEX
  5
56D
330
56B
100
AcDbEntity
  8
Ebene 1
 62
   179
420
  1709851
370
    18
100
AcDbVertex
100
AcDb2dVertex
 10
129.8542615777795
 20
-209.0173881855929
 30
0.0
  0
SEQEND
  5
56E
330
56B
100
AcDbEntity
  8
Ebene 1
370
    18
  0
POLYLINE
  5
56F
330
2FD
100
AcDbEntity
  8
Ebene 1
 62
   179
420
  1709851
370
    18
100
AcDb2dPolyline
 66
     1
 10
0.0
 20
0.0
 30
0.0
  0
VERTEX
  5
570
330
56F
100
AcDbEntity
  8
Ebene 1
 62
   179
420
  1709851
370
    18
100
AcDbVertex
100
AcDb2dVertex
 10
129.8542615777795
 20
-209.0173881855929
 30
0.0
  0
VERTEX
  5
571
330
56F
100
AcDbEntity
  8
Ebene 1
 62
   179
420
  1709851
370
    18
100
AcDbVertex
100
AcDb2dVertex
 10
136.4578206039064
 20
-209.0173881855929
 30
0.0
  0
VERTEX
  5
572
330
56F
100
AcDbEntity
  8
Ebene 1
 62
   179
420
  1709851
370
    18
100
AcDbVertex
100
AcDb2dVertex
 10
137.1561414587665
 20
-209.4197753382701
 30
0.0
  0
SEQEND
  5
573
330
56F
100
AcDbEntity
  8
Ebene 1
370
    18
  0
POLYLINE
  5
574
330
2FD
100
AcDbEntity
  8
Ebene 1
 62
   179
420
  1709851
370
    18
100
AcDb2dPolyline
 66
     1
 10
0.0
 20
0.0
 30
0.0
  0
VERTEX
  5
575
330
574
100
AcDbEntity
  8
Ebene 1
 62
   179
420
  1709851
370
    18
100
AcDbVertex
100
AcDb2dVertex
 10
129.1552517038223
 20
-209.4197753382701
 30
0.0
  0
VERTEX
  5
576
330
574
100
AcDbEntity
  8
Ebene 1
 62
   179
420
  1709851
370
    18
100
AcDbVertex
100
AcDb2dVertex
 10
137.1561414587665
 20
-209.4197753382701
 30
0.0
  0
SEQEND
  5
577
330
574
100
AcDbEntity
  8
Ebene 1
370
    18
  0
POLYLINE
  5
578
330
2FD
100
AcDbEntity
  8
Ebene 1
 62
   179
420
  1709851
370
    18
100
AcDb2dPolyline
 66
     1
 10
0.0
 20
0.0
 30
0.0
  0
VERTEX
  5
579
330
578
100
AcDbEntity
  8
Ebene 1
 62
   179
420
  1709851
370
    18
100
AcDbVertex
100
AcDb2dVertex
 10
137.3469997486494
 20
-211.6205023342477
 30
0.0
  0
VERTEX
  5
57A
330
578
100
AcDbEntity
  8
Ebene 1
 62
   179
420
  1709851
370
    18
100
AcDbVertex
100
AcDb2dVertex
 10
137.3046250741808
 20
-211.4937228203905
 30
0.0
  0
VERTEX
  5
57B
330
578
100
AcDbEntity
  8
Ebene 1
 62
   179
420
  1709851
370
    18
100
AcDbVertex
100
AcDb2dVertex
 10
137.1988606427836
 20
-211.4303330634619
 30
0.0
  0
VERTEX
  5
57C
330
578
100
AcDbEntity
  8
Ebene 1
 62
   179
420
  1709851
370
    18
100
AcDbVertex
100
AcDb2dVertex
 10
137.1561414587665
 20
-211.4089734714533
 30
0.0
  0
SEQEND
  5
57D
330
578
100
AcDbEntity
  8
Ebene 1
370
    18
  0
POLYLINE
  5
57E
330
2FD
100
AcDbEntity
  8
Ebene 1
 62
   179
420
  1709851
370
    18
100
AcDb2dPolyline
 66
     1
 10
0.0
 20
0.0
 30
0.0
  0
VERTEX
  5
57F
330
57E
100
AcDbEntity
  8
Ebene 1
 62
   179
420
  1709851
370
    18
100
AcDbVertex
100
AcDb2dVertex
 10
137.1561414587665
 20
-211.4089734714533
 30
0.0
  0
VERTEX
  5
580
330
57E
100
AcDbEntity
  8
Ebene 1
 62
   179
420
  1709851
370
    18
100
AcDbVertex
100
AcDb2dVertex
 10
129.1552517038223
 20
-211.4089734714533
 30
0.0
  0
SEQEND
  5
581
330
57E
100
AcDbEntity
  8
Ebene 1
370
    18
  0
POLYLINE
  5
582
330
2FD
100
AcDbEntity
  8
Ebene 1
 62
   179
420
  1709851
370
    18
100
AcDb2dPolyline
 66
     1
 10
0.0
 20
0.0
 30
0.0
  0
VERTEX
  5
583
330
582
100
AcDbEntity
  8
Ebene 1
 62
   179
420
  1709851
370
    18
100
AcDbVertex
100
AcDb2dVertex
 10
129.1552517038223
 20
-211.4089734714533
 30
0.0
  0
VERTEX
  5
584
330
582
100
AcDbEntity
  8
Ebene 1
 62
   179
420
  1709851
370
    18
100
AcDbVertex
100
AcDb2dVertex
 10
129.0284721899651
 20
-211.4516926554704
 30
0.0
  0
VERTEX
  5
585
330
582
100
AcDbEntity
  8
Ebene 1
 62
   179
420
  1709851
370
    18
100
AcDbVertex
100
AcDb2dVertex
 10
128.9650824330365
 20
-211.5578015964161
 30
0.0
  0
VERTEX
  5
586
330
582
100
AcDbEntity
  8
Ebene 1
 62
   179
420
  1709851
370
    18
100
AcDbVertex
100
AcDb2dVertex
 10
128.943722841028
 20
-211.6205023342477
 30
0.0
  0
SEQEND
  5
587
330
582
100
AcDbEntity
  8
Ebene 1
370
    18
  0
POLYLINE
  5
588
330
2FD
100
AcDbEntity
  8
Ebene 1
 62
   179
420
  1709851
370
    18
100
AcDb2dPolyline
 66
     1
 10
0.0
 20
0.0
 30
0.0
  0
VERTEX
  5
589
330
588
100
AcDbEntity
  8
Ebene 1
 62
   179
420
  1709851
370
    18
100
AcDbVertex
100
AcDb2dVertex
 10
137.1561414587665
 20
-209.4197753382701
 30
0.0
  0
VERTEX
  5
58A
330
588
100
AcDbEntity
  8
Ebene 1
 62
   179
420
  1709851
370
    18
100
AcDbVertex
100
AcDb2dVertex
 10
137.1561414587665
 20
-211.4089734714533
 30
0.0
  0
SEQEND
  5
58B
330
588
100
AcDbEntity
  8
Ebene 1
370
    18
  0
POLYLINE
  5
58C
330
2FD
100
AcDbEntity
  8
Ebene 1
 62
   179
420
  1709851
370
    18
100
AcDb2dPolyline
 66
     1
 10
0.0
 20
0.0
 30
0.0
  0
VERTEX
  5
58D
330
58C
100
AcDbEntity
  8
Ebene 1
 62
   179
420
  1709851
370
    18
100
AcDbVertex
100
AcDb2dVertex
 10
129.1552517038223
 20
-211.4089734714533
 30
0.0
  0
VERTEX
  5
58E
330
58C
100
AcDbEntity
  8
Ebene 1
 62
   179
420
  1709851
370
    18
100
AcDbVertex
100
AcDb2dVertex
 10
129.1552517038223
 20
-209.4197753382701
 30
0.0
  0
SEQEND
  5
58F
330
58C
100
AcDbEntity
  8
Ebene 1
370
    18
  0
POLYLINE
  5
590
330
2FD
100
AcDbEntity
  8
Ebene 1
 62
   179
420
  1709851
370
    18
100
AcDb2dPolyline
 66
     1
 10
0.0
 20
0.0
 30
0.0
  0
VERTEX
  5
591
330
590
100
AcDbEntity
  8
Ebene 1
 62
   179
420
  1709851
370
    18
100
AcDbVertex
100
AcDb2dVertex
 10
139.5480712541755
 20
-157.7729708806957
 30
0.0
  0
VERTEX
  5
592
330
590
100
AcDbEntity
  8
Ebene 1
 62
   179
420
  1709851
370
    18
100
AcDbVertex
100
AcDb2dVertex
 10
153.751166411215
 20
-162.217833075765
 30
0.0
  0
SEQEND
  5
593
330
590
100
AcDbEntity
  8
Ebene 1
370
    18
  0
POLYLINE
  5
594
330
2FD
100
AcDbEntity
  8
Ebene 1
 62
   179
420
  1709851
370
    18
100
AcDb2dPolyline
 66
     1
 10
0.0
 20
0.0
 30
0.0
  0
VERTEX
  5
595
330
594
100
AcDbEntity
  8
Ebene 1
 62
   179
420
  1709851
370
    18
100
AcDbVertex
100
AcDb2dVertex
 10
137.7493869013265
 20
-167.2132215293773
 30
0.0
  0
VERTEX
  5
596
330
594
100
AcDbEntity
  8
Ebene 1
 62
   179
420
  1709851
370
    18
100
AcDbVertex
100
AcDb2dVertex
 10
153.751166411215
 20
-172.2086099829895
 30
0.0
  0
VERTEX
  5
597
330
594
100
AcDbEntity
  8
Ebene 1
 62
   179
420
  1709851
370
    18
100
AcDbVertex
100
AcDb2dVertex
 10
137.7493869013265
 20
-177.2246690095133
 30
0.0
  0
SEQEND
  5
598
330
594
100
AcDbEntity
  8
Ebene 1
370
    18
  0
POLYLINE
  5
599
330
2FD
100
AcDbEntity
  8
Ebene 1
 62
   179
420
  1709851
370
    18
100
AcDb2dPolyline
 66
     1
 10
0.0
 20
0.0
 30
0.0
  0
VERTEX
  5
59A
330
599
100
AcDbEntity
  8
Ebene 1
 62
   179
420
  1709851
370
    18
100
AcDbVertex
100
AcDb2dVertex
 10
137.7493869013265
 20
-117.2174790831088
 30
0.0
  0
VERTEX
  5
59B
330
599
100
AcDbEntity
  8
Ebene 1
 62
   179
420
  1709851
370
    18
100
AcDbVertex
100
AcDb2dVertex
 10
153.751166411215
 20
-122.2128675367211
 30
0.0
  0
VERTEX
  5
59C
330
599
100
AcDbEntity
  8
Ebene 1
 62
   179
420
  1709851
370
    18
100
AcDbVertex
100
AcDb2dVertex
 10
137.7493869013265
 20
-127.2296155823419
 30
0.0
  0
VERTEX
  5
59D
330
599
100
AcDbEntity
  8
Ebene 1
 62
   179
420
  1709851
370
    18
100
AcDbVertex
100
AcDb2dVertex
 10
153.751166411215
 20
-132.2246595264056
 30
0.0
  0
VERTEX
  5
59E
330
599
100
AcDbEntity
  8
Ebene 1
 62
   179
420
  1709851
370
    18
100
AcDbVertex
100
AcDb2dVertex
 10
137.7493869013265
 20
-137.2200479800179
 30
0.0
  0
VERTEX
  5
59F
330
599
100
AcDbEntity
  8
Ebene 1
 62
   179
420
  1709851
370
    18
100
AcDbVertex
100
AcDb2dVertex
 10
153.751166411215
 20
-142.2154364336302
 30
0.0
  0
VERTEX
  5
5A0
330
599
100
AcDbEntity
  8
Ebene 1
 62
   179
420
  1709851
370
    18
100
AcDbVertex
100
AcDb2dVertex
 10
137.7493869013265
 20
-147.2108248872424
 30
0.0
  0
VERTEX
  5
5A1
330
599
100
AcDbEntity
  8
Ebene 1
 62
   179
420
  1709851
370
    18
100
AcDbVertex
100
AcDb2dVertex
 10
153.751166411215
 20
-152.2270561685405
 30
0.0
  0
SEQEND
  5
5A2
330
599
100
AcDbEntity
  8
Ebene 1
370
    18
  0
POLYLINE
  5
5A3
330
2FD
100
AcDbEntity
  8
Ebene 1
 62
   179
420
  1709851
370
    18
100
AcDb2dPolyline
 66
     1
 10
0.0
 20
0.0
 30
0.0
  0
VERTEX
  5
5A4
330
5A3
100
AcDbEntity
  8
Ebene 1
 62
   179
420
  1709851
370
    18
100
AcDbVertex
100
AcDb2dVertex
 10
114.3179144679483
 20
-179.0243868910078
 30
0.0
  0
VERTEX
  5
5A5
330
5A3
100
AcDbEntity
  8
Ebene 1
 62
   179
420
  1709851
370
    18
100
AcDbVertex
100
AcDb2dVertex
 10
118.7627766630176
 20
-193.2057779464902
 30
0.0
  0
SEQEND
  5
5A6
330
5A3
100
AcDbEntity
  8
Ebene 1
370
    18
  0
POLYLINE
  5
5A7
330
2FD
100
AcDbEntity
  8
Ebene 1
 62
   179
420
  1709851
370
    18
100
AcDb2dPolyline
 66
     1
 10
0.0
 20
0.0
 30
0.0
  0
VERTEX
  5
5A8
330
5A7
100
AcDbEntity
  8
Ebene 1
 62
   179
420
  1709851
370
    18
100
AcDbVertex
100
AcDb2dVertex
 10
123.7578206070814
 20
-177.2246690095133
 30
0.0
  0
VERTEX
  5
5A9
330
5A7
100
AcDbEntity
  8
Ebene 1
 62
   179
420
  1709851
370
    18
100
AcDbVertex
100
AcDb2dVertex
 10
128.7535535702422
 20
-193.2057779464902
 30
0.0
  0
VERTEX
  5
5AA
330
5A7
100
AcDbEntity
  8
Ebene 1
 62
   179
420
  1709851
370
    18
100
AcDbVertex
100
AcDb2dVertex
 10
133.7485975143059
 20
-177.2246690095133
 30
0.0
  0
VERTEX
  5
5AB
330
5A7
100
AcDbEntity
  8
Ebene 1
 62
   179
420
  1709851
370
    18
100
AcDbVertex
100
AcDb2dVertex
 10
138.7439859679182
 20
-193.2057779464902
 30
0.0
  0
VERTEX
  5
5AC
330
5A7
100
AcDbEntity
  8
Ebene 1
 62
   179
420
  1709851
370
    18
100
AcDbVertex
100
AcDb2dVertex
 10
143.7603895039905
 20
-177.2246690095133
 30
0.0
  0
VERTEX
  5
5AD
330
5A7
100
AcDbEntity
  8
Ebene 1
 62
   179
420
  1709851
370
    18
100
AcDbVertex
100
AcDb2dVertex
 10
148.7557779576027
 20
-193.2057779464902
 30
0.0
  0
VERTEX
  5
5AE
330
5A7
100
AcDbEntity
  8
Ebene 1
 62
   179
420
  1709851
370
    18
100
AcDbVertex
100
AcDb2dVertex
 10
153.751166411215
 20
-177.2246690095133
 30
0.0
  0
SEQEND
  5
5AF
330
5A7
100
AcDbEntity
  8
Ebene 1
370
    18
  0
POLYLINE
  5
5B0
330
2FD
100
AcDbEntity
  8
Ebene 1
 62
   179
420
  1709851
370
    18
100
AcDb2dPolyline
 66
     1
 10
0.0
 20
0.0
 30
0.0
  0
VERTEX
  5
5B1
330
5B0
100
AcDbEntity
  8
Ebene 1
 62
   179
420
  1709851
370
    18
100
AcDbVertex
100
AcDb2dVertex
 10
63.75045842590266
 20
-177.2246690095133
 30
0.0
  0
VERTEX
  5
5B2
330
5B0
100
AcDbEntity
  8
Ebene 1
 62
   179
420
  1709851
370
    18
100
AcDbVertex
100
AcDb2dVertex
 10
68.76686196197495
 20
-193.2057779464902
 30
0.0
  0
VERTEX
  5
5B3
330
5B0
100
AcDbEntity
  8
Ebene 1
 62
   179
420
  1709851
370
    18
100
AcDbVertex
100
AcDb2dVertex
 10
73.76225041558722
 20
-177.2246690095133
 30
0.0
  0
VERTEX
  5
5B4
330
5B0
100
AcDbEntity
  8
Ebene 1
 62
   179
420
  1709851
370
    18
100
AcDbVertex
100
AcDb2dVertex
 10
78.75763886919948
 20
-193.2057779464902
 30
0.0
  0
VERTEX
  5
5B5
330
5B0
100
AcDbEntity
  8
Ebene 1
 62
   179
420
  1709851
370
    18
100
AcDbVertex
100
AcDb2dVertex
 10
83.75285506803749
 20
-177.2246690095133
 30
0.0
  0
VERTEX
  5
5B6
330
5B0
100
AcDbEntity
  8
Ebene 1
 62
   179
420
  1709851
370
    18
100
AcDbVertex
100
AcDb2dVertex
 10
88.74824352164975
 20
-193.2057779464902
 30
0.0
  0
VERTEX
  5
5B7
330
5B0
100
AcDbEntity
  8
Ebene 1
 62
   179
420
  1709851
370
    18
100
AcDbVertex
100
AcDb2dVertex
 10
93.76464705772203
 20
-177.2246690095133
 30
0.0
  0
VERTEX
  5
5B8
330
5B0
100
AcDbEntity
  8
Ebene 1
 62
   179
420
  1709851
370
    18
100
AcDbVertex
100
AcDb2dVertex
 10
98.7600355113343
 20
-193.2057779464902
 30
0.0
  0
VERTEX
  5
5B9
330
5B0
100
AcDbEntity
  8
Ebene 1
 62
   179
420
  1709851
370
    18
100
AcDbVertex
100
AcDb2dVertex
 10
103.7554239649466
 20
-177.2246690095133
 30
0.0
  0
VERTEX
  5
5BA
330
5B0
100
AcDbEntity
  8
Ebene 1
 62
   179
420
  1709851
370
    18
100
AcDbVertex
100
AcDb2dVertex
 10
108.7506401637846
 20
-193.2057779464902
 30
0.0
  0
SEQEND
  5
5BB
330
5B0
100
AcDbEntity
  8
Ebene 1
370
    18
  0
POLYLINE
  5
5BC
330
2FD
100
AcDbEntity
  8
Ebene 1
 62
   179
420
  1709851
370
    18
100
AcDb2dPolyline
 66
     1
 10
0.0
 20
0.0
 30
0.0
  0
VERTEX
  5
5BD
330
5BC
100
AcDbEntity
  8
Ebene 1
 62
   179
420
  1709851
370
    18
100
AcDbVertex
100
AcDb2dVertex
 10
111.1635850416535
 20
-193.2057779464902
 30
0.0
  0
VERTEX
  5
5BE
330
5BC
100
AcDbEntity
  8
Ebene 1
 62
   179
420
  1709851
370
    18
100
AcDbVertex
100
AcDb2dVertex
 10
112.0527641863965
 20
-193.2057779464902
 30
0.0
  0
SEQEND
  5
5BF
330
5BC
100
AcDbEntity
  8
Ebene 1
370
    18
  0
POLYLINE
  5
5C0
330
2FD
100
AcDbEntity
  8
Ebene 1
 62
   179
420
  1709851
370
    18
100
AcDb2dPolyline
 66
     1
 10
0.0
 20
0.0
 30
0.0
  0
VERTEX
  5
5C1
330
5C0
100
AcDbEntity
  8
Ebene 1
 62
   179
420
  1709851
370
    18
100
AcDbVertex
100
AcDb2dVertex
 10
137.7493869013265
 20
-77.23370088129921
 30
0.0
  0
VERTEX
  5
5C2
330
5C0
100
AcDbEntity
  8
Ebene 1
 62
   179
420
  1709851
370
    18
100
AcDbVertex
100
AcDb2dVertex
 10
153.751166411215
 20
-82.22908933491148
 30
0.0
  0
VERTEX
  5
5C3
330
5C0
100
AcDbEntity
  8
Ebene 1
 62
   179
420
  1709851
370
    18
100
AcDbVertex
100
AcDb2dVertex
 10
137.7493869013265
 20
-87.22447778852374
 30
0.0
  0
SEQEND
  5
5C4
330
5C0
100
AcDbEntity
  8
Ebene 1
370
    18
  0
POLYLINE
  5
5C5
330
2FD
100
AcDbEntity
  8
Ebene 1
 62
   179
420
  1709851
370
    18
100
AcDb2dPolyline
 66
     1
 10
0.0
 20
0.0
 30
0.0
  0
VERTEX
  5
5C6
330
5C5
100
AcDbEntity
  8
Ebene 1
 62
   179
420
  1709851
370
    18
100
AcDbVertex
100
AcDb2dVertex
 10
137.7493869013265
 20
-87.22447778852374
 30
0.0
  0
VERTEX
  5
5C7
330
5C5
100
AcDbEntity
  8
Ebene 1
 62
   179
420
  1709851
370
    18
100
AcDbVertex
100
AcDb2dVertex
 10
153.751166411215
 20
-92.219866242136
 30
0.0
  0
VERTEX
  5
5C8
330
5C5
100
AcDbEntity
  8
Ebene 1
 62
   179
420
  1709851
370
    18
100
AcDbVertex
100
AcDb2dVertex
 10
137.7493869013265
 20
-97.21525469574827
 30
0.0
  0
SEQEND
  5
5C9
330
5C5
100
AcDbEntity
  8
Ebene 1
370
    18
  0
POLYLINE
  5
5CA
330
2FD
100
AcDbEntity
  8
Ebene 1
 62
   179
420
  1709851
370
    18
100
AcDb2dPolyline
 66
     1
 10
0.0
 20
0.0
 30
0.0
  0
VERTEX
  5
5CB
330
5CA
100
AcDbEntity
  8
Ebene 1
 62
   179
420
  1709851
370
    18
100
AcDbVertex
100
AcDb2dVertex
 10
137.7493869013265
 20
-97.21525469574827
 30
0.0
  0
VERTEX
  5
5CC
330
5CA
100
AcDbEntity
  8
Ebene 1
 62
   179
420
  1709851
370
    18
100
AcDbVertex
100
AcDb2dVertex
 10
153.751166411215
 20
-102.2316582318206
 30
0.0
  0
VERTEX
  5
5CD
330
5CA
100
AcDbEntity
  8
Ebene 1
 62
   179
420
  1709851
370
    18
100
AcDbVertex
100
AcDb2dVertex
 10
137.7493869013265
 20
-107.2270466854328
 30
0.0
  0
SEQEND
  5
5CE
330
5CA
100
AcDbEntity
  8
Ebene 1
370
    18
  0
POLYLINE
  5
5CF
330
2FD
100
AcDbEntity
  8
Ebene 1
 62
   179
420
  1709851
370
    18
100
AcDb2dPolyline
 66
     1
 10
0.0
 20
0.0
 30
0.0
  0
VERTEX
  5
5D0
330
5CF
100
AcDbEntity
  8
Ebene 1
 62
   179
420
  1709851
370
    18
100
AcDbVertex
100
AcDb2dVertex
 10
137.7493869013265
 20
-107.2270466854328
 30
0.0
  0
VERTEX
  5
5D1
330
5CF
100
AcDbEntity
  8
Ebene 1
 62
   179
420
  1709851
370
    18
100
AcDbVertex
100
AcDb2dVertex
 10
153.751166411215
 20
-112.2224351390451
 30
0.0
  0
VERTEX
  5
5D2
330
5CF
100
AcDbEntity
  8
Ebene 1
 62
   179
420
  1709851
370
    18
100
AcDbVertex
100
AcDb2dVertex
 10
137.7493869013265
 20
-117.2174790831088
 30
0.0
  0
SEQEND
  5
5D3
330
5CF
100
AcDbEntity
  8
Ebene 1
370
    18
  0
POLYLINE
  5
5D4
330
2FD
100
AcDbEntity
  8
Ebene 1
 62
   179
420
  1709851
370
    18
100
AcDb2dPolyline
 66
     1
 10
0.0
 20
0.0
 30
0.0
  0
VERTEX
  5
5D5
330
5D4
100
AcDbEntity
  8
Ebene 1
 62
   179
420
  1709851
370
    18
100
AcDbVertex
100
AcDb2dVertex
 10
33.75728487654332
 20
-177.2246690095133
 30
0.0
  0
VERTEX
  5
5D6
330
5D4
100
AcDbEntity
  8
Ebene 1
 62
   179
420
  1709851
370
    18
100
AcDbVertex
100
AcDb2dVertex
 10
38.75250107538132
 20
-193.2057779464902
 30
0.0
  0
VERTEX
  5
5D7
330
5D4
100
AcDbEntity
  8
Ebene 1
 62
   179
420
  1709851
370
    18
100
AcDbVertex
100
AcDb2dVertex
 10
43.76907686622787
 20
-177.2246690095133
 30
0.0
  0
SEQEND
  5
5D8
330
5D4
100
AcDbEntity
  8
Ebene 1
370
    18
  0
POLYLINE
  5
5D9
330
2FD
100
AcDbEntity
  8
Ebene 1
 62
   179
420
  1709851
370
    18
100
AcDb2dPolyline
 66
     1
 10
0.0
 20
0.0
 30
0.0
  0
VERTEX
  5
5DA
330
5D9
100
AcDbEntity
  8
Ebene 1
 62
   179
420
  1709851
370
    18
100
AcDbVertex
100
AcDb2dVertex
 10
43.76907686622787
 20
-177.2246690095133
 30
0.0
  0
VERTEX
  5
5DB
330
5D9
100
AcDbEntity
  8
Ebene 1
 62
   179
420
  1709851
370
    18
100
AcDbVertex
100
AcDb2dVertex
 10
48.76446531984013
 20
-193.2057779464902
 30
0.0
  0
VERTEX
  5
5DC
330
5D9
100
AcDbEntity
  8
Ebene 1
 62
   179
420
  1709851
370
    18
100
AcDbVertex
100
AcDb2dVertex
 10
53.75968151867814
 20
-177.2246690095133
 30
0.0
  0
SEQEND
  5
5DD
330
5D9
100
AcDbEntity
  8
Ebene 1
370
    18
  0
POLYLINE
  5
5DE
330
2FD
100
AcDbEntity
  8
Ebene 1
 62
   179
420
  1709851
370
    18
100
AcDb2dPolyline
 66
     1
 10
0.0
 20
0.0
 30
0.0
  0
VERTEX
  5
5DF
330
5DE
100
AcDbEntity
  8
Ebene 1
 62
   179
420
  1709851
370
    18
100
AcDbVertex
100
AcDb2dVertex
 10
53.75968151867814
 20
-177.2246690095133
 30
0.0
  0
VERTEX
  5
5E0
330
5DE
100
AcDbEntity
  8
Ebene 1
 62
   179
420
  1709851
370
    18
100
AcDbVertex
100
AcDb2dVertex
 10
58.7550699722904
 20
-193.2057779464902
 30
0.0
  0
VERTEX
  5
5E1
330
5DE
100
AcDbEntity
  8
Ebene 1
 62
   179
420
  1709851
370
    18
100
AcDbVertex
100
AcDb2dVertex
 10
63.75045842590266
 20
-177.2246690095133
 30
0.0
  0
SEQEND
  5
5E2
330
5DE
100
AcDbEntity
  8
Ebene 1
370
    18
  0
POLYLINE
  5
5E3
330
2FD
100
AcDbEntity
  8
Ebene 1
 62
   179
420
  1709851
370
    18
100
AcDb2dPolyline
 66
     1
 10
0.0
 20
0.0
 30
0.0
  0
VERTEX
  5
5E4
330
5E3
100
AcDbEntity
  8
Ebene 1
 62
   179
420
  1709851
370
    18
100
AcDbVertex
100
AcDb2dVertex
 10
153.751166411215
 20
-177.2246690095133
 30
0.0
  0
VERTEX
  5
5E5
330
5E3
100
AcDbEntity
  8
Ebene 1
 62
   179
420
  1709851
370
    18
100
AcDbVertex
100
AcDb2dVertex
 10
137.7493869013265
 20
-177.2246690095133
 30
0.0
  0
SEQEND
  5
5E6
330
5E3
100
AcDbEntity
  8
Ebene 1
370
    18
  0
POLYLINE
  5
5E7
330
2FD
100
AcDbEntity
  8
Ebene 1
 62
   179
420
  1709851
370
    18
100
AcDb2dPolyline
 66
     1
 10
0.0
 20
0.0
 30
0.0
  0
VERTEX
  5
5E8
330
5E7
100
AcDbEntity
  8
Ebene 1
 62
   179
420
  1709851
370
    18
100
AcDbVertex
100
AcDb2dVertex
 10
168.9488606348461
 20
-195.8095811142421
 30
0.0
  0
VERTEX
  5
5E9
330
5E7
100
AcDbEntity
  8
Ebene 1
 62
   179
420
  1709851
370
    18
100
AcDbVertex
100
AcDb2dVertex
 10
165.9430148239657
 20
-195.8095811142421
 30
0.0
  0
SEQEND
  5
5EA
330
5E7
100
AcDbEntity
  8
Ebene 1
370
    18
  0
POLYLINE
  5
5EB
330
2FD
100
AcDbEntity
  8
Ebene 1
 62
   179
420
  1709851
370
    18
100
AcDb2dPolyline
 66
     1
 10
0.0
 20
0.0
 30
0.0
  0
VERTEX
  5
5EC
330
5EB
100
AcDbEntity
  8
Ebene 1
 62
   179
420
  1709851
370
    18
100
AcDbVertex
100
AcDb2dVertex
 10
156.4180148263469
 20
-208.4248317621299
 30
0.0
  0
VERTEX
  5
5ED
330
5EB
100
AcDbEntity
  8
Ebene 1
 62
   179
420
  1709851
370
    18
100
AcDbVertex
100
AcDb2dVertex
 10
156.4180148263469
 20
-205.4186414417009
 30
0.0
  0
SEQEND
  5
5EE
330
5EB
100
AcDbEntity
  8
Ebene 1
370
    18
  0
POLYLINE
  5
5EF
330
2FD
100
AcDbEntity
  8
Ebene 1
 62
   179
420
  1709851
370
    18
100
AcDb2dPolyline
 66
     1
 10
0.0
 20
0.0
 30
0.0
  0
VERTEX
  5
5F0
330
5EF
100
AcDbEntity
  8
Ebene 1
 62
   179
420
  1709851
370
    18
100
AcDbVertex
100
AcDb2dVertex
 10
164.651793036094
 20
-175.6585286019187
 30
0.0
  0
VERTEX
  5
5F1
330
5EF
100
AcDbEntity
  8
Ebene 1
 62
   179
420
  1709851
370
    18
100
AcDbVertex
100
AcDb2dVertex
 10
164.651793036094
 20
-199.725276642777
 30
0.0
  0
SEQEND
  5
5F2
330
5EF
100
AcDbEntity
  8
Ebene 1
370
    18
  0
POLYLINE
  5
5F3
330
2FD
100
AcDbEntity
  8
Ebene 1
 62
   179
420
  1709851
370
    18
100
AcDb2dPolyline
 66
     1
 10
0.0
 20
0.0
 30
0.0
  0
VERTEX
  5
5F4
330
5F3
100
AcDbEntity
  8
Ebene 1
 62
   179
420
  1709851
370
    18
100
AcDbVertex
100
AcDb2dVertex
 10
166.45116640804
 20
-199.725276642777
 30
0.0
  0
VERTEX
  5
5F5
330
5F3
100
AcDbEntity
  8
Ebene 1
 62
   179
420
  1709851
370
    18
100
AcDbVertex
100
AcDb2dVertex
 10
166.45116640804
 20
-175.6585286019187
 30
0.0
  0
SEQEND
  5
5F6
330
5F3
100
AcDbEntity
  8
Ebene 1
370
    18
  0
POLYLINE
  5
5F7
330
2FD
100
AcDbEntity
  8
Ebene 1
 62
   179
420
  1709851
370
    18
100
AcDb2dPolyline
 66
     1
 10
0.0
 20
0.0
 30
0.0
  0
VERTEX
  5
5F8
330
5F7
100
AcDbEntity
  8
Ebene 1
 62
   179
420
  1709851
370
    18
100
AcDbVertex
100
AcDb2dVertex
 10
167.2552516942973
 20
-199.725276642777
 30
0.0
  0
VERTEX
  5
5F9
330
5F7
100
AcDbEntity
  8
Ebene 1
 62
   179
420
  1709851
370
    18
100
AcDbVertex
100
AcDb2dVertex
 10
167.2552516942973
 20
-175.6585286019187
 30
0.0
  0
SEQEND
  5
5FA
330
5F7
100
AcDbEntity
  8
Ebene 1
370
    18
  0
POLYLINE
  5
5FB
330
2FD
100
AcDbEntity
  8
Ebene 1
 62
   179
420
  1709851
370
    18
100
AcDb2dPolyline
 66
     1
 10
0.0
 20
0.0
 30
0.0
  0
VERTEX
  5
5FC
330
5FB
100
AcDbEntity
  8
Ebene 1
 62
   179
420
  1709851
370
    18
100
AcDbVertex
100
AcDb2dVertex
 10
164.651793036094
 20
-77.23370088129921
 30
0.0
  0
VERTEX
  5
5FD
330
5FB
100
AcDbEntity
  8
Ebene 1
 62
   179
420
  1709851
370
    18
100
AcDbVertex
100
AcDb2dVertex
 10
164.651793036094
 20
-169.5627766503177
 30
0.0
  0
SEQEND
  5
5FE
330
5FB
100
AcDbEntity
  8
Ebene 1
370
    18
  0
POLYLINE
  5
5FF
330
2FD
100
AcDbEntity
  8
Ebene 1
 62
   179
420
  1709851
370
    18
100
AcDb2dPolyline
 66
     1
 10
0.0
 20
0.0
 30
0.0
  0
VERTEX
  5
600
330
5FF
100
AcDbEntity
  8
Ebene 1
 62
   179
420
  1709851
370
    18
100
AcDbVertex
100
AcDb2dVertex
 10
166.45116640804
 20
-77.23370088129921
 30
0.0
  0
VERTEX
  5
601
330
5FF
100
AcDbEntity
  8
Ebene 1
 62
   179
420
  1709851
370
    18
100
AcDbVertex
100
AcDb2dVertex
 10
166.45116640804
 20
-169.5627766503177
 30
0.0
  0
SEQEND
  5
602
330
5FF
100
AcDbEntity
  8
Ebene 1
370
    18
  0
POLYLINE
  5
603
330
2FD
100
AcDbEntity
  8
Ebene 1
 62
   179
420
  1709851
370
    18
100
AcDb2dPolyline
 66
     1
 10
0.0
 20
0.0
 30
0.0
  0
VERTEX
  5
604
330
603
100
AcDbEntity
  8
Ebene 1
 62
   179
420
  1709851
370
    18
100
AcDbVertex
100
AcDb2dVertex
 10
167.2552516942973
 20
-77.23370088129921
 30
0.0
  0
VERTEX
  5
605
330
603
100
AcDbEntity
  8
Ebene 1
 62
   179
420
  1709851
370
    18
100
AcDbVertex
100
AcDb2dVertex
 10
167.2552516942973
 20
-169.5627766503177
 30
0.0
  0
SEQEND
  5
606
330
603
100
AcDbEntity
  8
Ebene 1
370
    18
  0
POLYLINE
  5
607
330
2FD
100
AcDbEntity
  8
Ebene 1
 62
   179
420
  1709851
370
    18
100
AcDb2dPolyline
 66
     1
 10
0.0
 20
0.0
 30
0.0
  0
VERTEX
  5
608
330
607
100
AcDbEntity
  8
Ebene 1
 62
   179
420
  1709851
370
    18
100
AcDbVertex
100
AcDb2dVertex
 10
164.651793036094
 20
-170.8746690111008
 30
0.0
  0
VERTEX
  5
609
330
607
100
AcDbEntity
  8
Ebene 1
 62
   179
420
  1709851
370
    18
100
AcDbVertex
100
AcDb2dVertex
 10
164.651793036094
 20
-174.3673068140471
 30
0.0
  0
SEQEND
  5
60A
330
607
100
AcDbEntity
  8
Ebene 1
370
    18
  0
POLYLINE
  5
60B
330
2FD
100
AcDbEntity
  8
Ebene 1
 62
   179
420
  1709851
370
    18
100
AcDb2dPolyline
 66
     1
 10
0.0
 20
0.0
 30
0.0
  0
VERTEX
  5
60C
330
60B
100
AcDbEntity
  8
Ebene 1
 62
   179
420
  1709851
370
    18
100
AcDbVertex
100
AcDb2dVertex
 10
166.45116640804
 20
-170.8746690111008
 30
0.0
  0
VERTEX
  5
60D
330
60B
100
AcDbEntity
  8
Ebene 1
 62
   179
420
  1709851
370
    18
100
AcDbVertex
100
AcDb2dVertex
 10
166.45116640804
 20
-174.3673068140471
 30
0.0
  0
SEQEND
  5
60E
330
60B
100
AcDbEntity
  8
Ebene 1
370
    18
  0
POLYLINE
  5
60F
330
2FD
100
AcDbEntity
  8
Ebene 1
 62
   179
420
  1709851
370
    18
100
AcDb2dPolyline
 66
     1
 10
0.0
 20
0.0
 30
0.0
  0
VERTEX
  5
610
330
60F
100
AcDbEntity
  8
Ebene 1
 62
   179
420
  1709851
370
    18
100
AcDbVertex
100
AcDb2dVertex
 10
167.2552516942973
 20
-175.1720811194014
 30
0.0
  0
VERTEX
  5
611
330
60F
100
AcDbEntity
  8
Ebene 1
 62
   179
420
  1709851
370
    18
100
AcDbVertex
100
AcDb2dVertex
 10
167.2552516942973
 20
-170.0705837248435
 30
0.0
  0
SEQEND
  5
612
330
60F
100
AcDbEntity
  8
Ebene 1
370
    18
  0
POLYLINE
  5
613
330
2FD
100
AcDbEntity
  8
Ebene 1
 62
   179
420
  1709851
370
    18
100
AcDb2dPolyline
 66
     1
 10
0.0
 20
0.0
 30
0.0
  0
VERTEX
  5
614
330
613
100
AcDbEntity
  8
Ebene 1
 62
   179
420
  1709851
370
    18
100
AcDbVertex
100
AcDb2dVertex
 10
136.204261576192
 20
-204.1281086729263
 30
0.0
  0
VERTEX
  5
615
330
613
100
AcDbEntity
  8
Ebene 1
 62
   179
420
  1709851
370
    18
100
AcDbVertex
100
AcDb2dVertex
 10
160.2703205979533
 20
-204.1281086729263
 30
0.0
  0
SEQEND
  5
616
330
613
100
AcDbEntity
  8
Ebene 1
370
    18
  0
POLYLINE
  5
617
330
2FD
100
AcDbEntity
  8
Ebene 1
 62
   179
420
  1709851
370
    18
100
AcDb2dPolyline
 66
     1
 10
0.0
 20
0.0
 30
0.0
  0
VERTEX
  5
618
330
617
100
AcDbEntity
  8
Ebene 1
 62
   179
420
  1709851
370
    18
100
AcDbVertex
100
AcDb2dVertex
 10
160.2703205979533
 20
-205.9271375353238
 30
0.0
  0
VERTEX
  5
619
330
617
100
AcDbEntity
  8
Ebene 1
 62
   179
420
  1709851
370
    18
100
AcDbVertex
100
AcDb2dVertex
 10
136.204261576192
 20
-205.9271375353238
 30
0.0
  0
SEQEND
  5
61A
330
617
100
AcDbEntity
  8
Ebene 1
370
    18
  0
POLYLINE
  5
61B
330
2FD
100
AcDbEntity
  8
Ebene 1
 62
   179
420
  1709851
370
    18
100
AcDb2dPolyline
 66
     1
 10
0.0
 20
0.0
 30
0.0
  0
VERTEX
  5
61C
330
61B
100
AcDbEntity
  8
Ebene 1
 62
   179
420
  1709851
370
    18
100
AcDbVertex
100
AcDb2dVertex
 10
160.2703205979533
 20
-206.7312228215811
 30
0.0
  0
VERTEX
  5
61D
330
61B
100
AcDbEntity
  8
Ebene 1
 62
   179
420
  1709851
370
    18
100
AcDbVertex
100
AcDb2dVertex
 10
136.204261576192
 20
-206.7312228215811
 30
0.0
  0
SEQEND
  5
61E
330
61B
100
AcDbEntity
  8
Ebene 1
370
    18
  0
POLYLINE
  5
61F
330
2FD
100
AcDbEntity
  8
Ebene 1
 62
   179
420
  1709851
370
    18
100
AcDb2dPolyline
 66
     1
 10
0.0
 20
0.0
 30
0.0
  0
VERTEX
  5
620
330
61F
100
AcDbEntity
  8
Ebene 1
 62
   179
420
  1709851
370
    18
100
AcDbVertex
100
AcDb2dVertex
 10
33.75728487654332
 20
-204.1281086729263
 30
0.0
  0
VERTEX
  5
621
330
61F
100
AcDbEntity
  8
Ebene 1
 62
   179
420
  1709851
370
    18
100
AcDbVertex
100
AcDb2dVertex
 10
130.1078206054939
 20
-204.1281086729263
 30
0.0
  0
SEQEND
  5
622
330
61F
100
AcDbEntity
  8
Ebene 1
370
    18
  0
POLYLINE
  5
623
330
2FD
100
AcDbEntity
  8
Ebene 1
 62
   179
420
  1709851
370
    18
100
AcDb2dPolyline
 66
     1
 10
0.0
 20
0.0
 30
0.0
  0
VERTEX
  5
624
330
623
100
AcDbEntity
  8
Ebene 1
 62
   179
420
  1709851
370
    18
100
AcDbVertex
100
AcDb2dVertex
 10
33.75728487654332
 20
-205.9271375353238
 30
0.0
  0
VERTEX
  5
625
330
623
100
AcDbEntity
  8
Ebene 1
 62
   179
420
  1709851
370
    18
100
AcDbVertex
100
AcDb2dVertex
 10
130.1078206054939
 20
-205.9271375353238
 30
0.0
  0
SEQEND
  5
626
330
623
100
AcDbEntity
  8
Ebene 1
370
    18
  0
POLYLINE
  5
627
330
2FD
100
AcDbEntity
  8
Ebene 1
 62
   179
420
  1709851
370
    18
100
AcDb2dPolyline
 66
     1
 10
0.0
 20
0.0
 30
0.0
  0
VERTEX
  5
628
330
627
100
AcDbEntity
  8
Ebene 1
 62
   179
420
  1709851
370
    18
100
AcDbVertex
100
AcDb2dVertex
 10
33.75728487654332
 20
-206.7312228215811
 30
0.0
  0
VERTEX
  5
629
330
627
100
AcDbEntity
  8
Ebene 1
 62
   179
420
  1709851
370
    18
100
AcDbVertex
100
AcDb2dVertex
 10
130.1078206054939
 20
-206.7312228215811
 30
0.0
  0
SEQEND
  5
62A
330
627
100
AcDbEntity
  8
Ebene 1
370
    18
  0
POLYLINE
  5
62B
330
2FD
100
AcDbEntity
  8
Ebene 1
 62
   179
420
  1709851
370
    18
100
AcDb2dPolyline
 66
     1
 10
0.0
 20
0.0
 30
0.0
  0
VERTEX
  5
62C
330
62B
100
AcDbEntity
  8
Ebene 1
 62
   179
420
  1709851
370
    18
100
AcDbVertex
100
AcDb2dVertex
 10
131.399386902914
 20
-204.1281086729263
 30
0.0
  0
VERTEX
  5
62D
330
62B
100
AcDbEntity
  8
Ebene 1
 62
   179
420
  1709851
370
    18
100
AcDbVertex
100
AcDb2dVertex
 10
134.8913356867633
 20
-204.1281086729263
 30
0.0
  0
SEQEND
  5
62E
330
62B
100
AcDbEntity
  8
Ebene 1
370
    18
  0
POLYLINE
  5
62F
330
2FD
100
AcDbEntity
  8
Ebene 1
 62
   179
420
  1709851
370
    18
100
AcDb2dPolyline
 66
     1
 10
0.0
 20
0.0
 30
0.0
  0
VERTEX
  5
630
330
62F
100
AcDbEntity
  8
Ebene 1
 62
   179
420
  1709851
370
    18
100
AcDbVertex
100
AcDb2dVertex
 10
131.399386902914
 20
-205.9271375353238
 30
0.0
  0
VERTEX
  5
631
330
62F
100
AcDbEntity
  8
Ebene 1
 62
   179
420
  1709851
370
    18
100
AcDbVertex
100
AcDb2dVertex
 10
134.8913356867633
 20
-205.9271375353238
 30
0.0
  0
SEQEND
  5
632
330
62F
100
AcDbEntity
  8
Ebene 1
370
    18
  0
POLYLINE
  5
633
330
2FD
100
AcDbEntity
  8
Ebene 1
 62
   179
420
  1709851
370
    18
100
AcDb2dPolyline
 66
     1
 10
0.0
 20
0.0
 30
0.0
  0
VERTEX
  5
634
330
633
100
AcDbEntity
  8
Ebene 1
 62
   179
420
  1709851
370
    18
100
AcDbVertex
100
AcDb2dVertex
 10
135.6961099921176
 20
-206.7312228215811
 30
0.0
  0
VERTEX
  5
635
330
633
100
AcDbEntity
  8
Ebene 1
 62
   179
420
  1709851
370
    18
100
AcDbVertex
100
AcDb2dVertex
 10
130.5946125975597
 20
-206.7312228215811
 30
0.0
  0
SEQEND
  5
636
330
633
100
AcDbEntity
  8
Ebene 1
370
    18
  0
POLYLINE
  5
637
330
2FD
100
AcDbEntity
  8
Ebene 1
 62
   179
420
  1709851
370
    18
100
AcDb2dPolyline
 66
     1
 10
0.0
 20
0.0
 30
0.0
  0
VERTEX
  5
638
330
637
100
AcDbEntity
  8
Ebene 1
 62
   179
420
  1709851
370
    18
100
AcDbVertex
100
AcDb2dVertex
 10
169.5417615678576
 20
-207.4085285939812
 30
0.0
  0
VERTEX
  5
639
330
637
100
AcDbEntity
  8
Ebene 1
 62
   179
420
  1709851
370
    18
100
AcDbVertex
100
AcDb2dVertex
 10
169.5417615678576
 20
-204.2121690027664
 30
0.0
  0
SEQEND
  5
63A
330
637
100
AcDbEntity
  8
Ebene 1
370
    18
  0
POLYLINE
  5
63B
330
2FD
100
AcDbEntity
  8
Ebene 1
 62
   179
420
  1709851
370
    18
100
AcDb2dPolyline
 66
     1
 10
0.0
 20
0.0
 30
0.0
  0
VERTEX
  5
63C
330
63B
100
AcDbEntity
  8
Ebene 1
 62
   179
420
  1709851
370
    18
100
AcDbVertex
100
AcDb2dVertex
 10
167.9542615682545
 20
-209.0173881855929
 30
0.0
  0
VERTEX
  5
63D
330
63B
100
AcDbEntity
  8
Ebene 1
 62
   179
420
  1709851
370
    18
100
AcDbVertex
100
AcDb2dVertex
 10
164.7575574674912
 20
-209.0173881855929
 30
0.0
  0
SEQEND
  5
63E
330
63B
100
AcDbEntity
  8
Ebene 1
370
    18
  0
POLYLINE
  5
63F
330
2FD
100
AcDbEntity
  8
Ebene 1
 62
   179
420
  1709851
370
    18
100
AcDb2dPolyline
 66
     1
 10
0.0
 20
0.0
 30
0.0
  0
VERTEX
  5
640
330
63F
100
AcDbEntity
  8
Ebene 1
 62
   179
420
  1709851
370
    18
100
AcDbVertex
100
AcDb2dVertex
 10
167.8691677097688
 20
-205.2078015980036
 30
0.0
  0
VERTEX
  5
641
330
63F
100
AcDbEntity
  8
Ebene 1
 62
   179
420
  1709851
370
    18
100
AcDbVertex
100
AcDb2dVertex
 10
171.2560410813179
 20
-205.2078015980036
 30
0.0
  0
SEQEND
  5
642
330
63F
100
AcDbEntity
  8
Ebene 1
370
    18
  0
POLYLINE
  5
643
330
2FD
100
AcDbEntity
  8
Ebene 1
 62
   179
420
  1709851
370
    18
100
AcDb2dPolyline
 66
     1
 10
0.0
 20
0.0
 30
0.0
  0
VERTEX
  5
644
330
643
100
AcDbEntity
  8
Ebene 1
 62
   179
420
  1709851
370
    18
100
AcDbVertex
100
AcDb2dVertex
 10
171.2560410813179
 20
-205.8210285943781
 30
0.0
  0
VERTEX
  5
645
330
643
100
AcDbEntity
  8
Ebene 1
 62
   179
420
  1709851
370
    18
100
AcDbVertex
100
AcDb2dVertex
 10
171.2560410813179
 20
-205.2078015980036
 30
0.0
  0
SEQEND
  5
646
330
643
100
AcDbEntity
  8
Ebene 1
370
    18
  0
POLYLINE
  5
647
330
2FD
100
AcDbEntity
  8
Ebene 1
 62
   179
420
  1709851
370
    18
100
AcDb2dPolyline
 66
     1
 10
0.0
 20
0.0
 30
0.0
  0
VERTEX
  5
648
330
647
100
AcDbEntity
  8
Ebene 1
 62
   179
420
  1709851
370
    18
100
AcDbVertex
100
AcDb2dVertex
 10
165.7525010436313
 20
-207.3244682641411
 30
0.0
  0
VERTEX
  5
649
330
647
100
AcDbEntity
  8
Ebene 1
 62
   179
420
  1709851
370
    18
100
AcDbVertex
100
AcDb2dVertex
 10
165.7525010436313
 20
-210.7316676990532
 30
0.0
  0
SEQEND
  5
64A
330
647
100
AcDbEntity
  8
Ebene 1
370
    18
  0
POLYLINE
  5
64B
330
2FD
100
AcDbEntity
  8
Ebene 1
 62
   179
420
  1709851
370
    18
100
AcDb2dPolyline
 66
     1
 10
0.0
 20
0.0
 30
0.0
  0
VERTEX
  5
64C
330
64B
100
AcDbEntity
  8
Ebene 1
 62
   179
420
  1709851
370
    18
100
AcDbVertex
100
AcDb2dVertex
 10
166.3450574670943
 20
-210.7316676990532
 30
0.0
  0
VERTEX
  5
64D
330
64B
100
AcDbEntity
  8
Ebene 1
 62
   179
420
  1709851
370
    18
100
AcDbVertex
100
AcDb2dVertex
 10
165.7525010436313
 20
-210.7316676990532
 30
0.0
  0
SEQEND
  5
64E
330
64B
100
AcDbEntity
  8
Ebene 1
370
    18
  0
POLYLINE
  5
64F
330
2FD
100
AcDbEntity
  8
Ebene 1
 62
   179
420
  1709851
370
    18
100
AcDb2dPolyline
 66
     1
 10
0.0
 20
0.0
 30
0.0
  0
VERTEX
  5
650
330
64F
100
AcDbEntity
  8
Ebene 1
 62
   179
420
  1709851
370
    18
100
AcDbVertex
100
AcDb2dVertex
 10
167.8691677097688
 20
-205.2078015980036
 30
0.0
  0
VERTEX
  5
651
330
64F
100
AcDbEntity
  8
Ebene 1
 62
   179
420
  1709851
370
    18
100
AcDbVertex
100
AcDb2dVertex
 10
167.8691677097688
 20
-191.8091362367699
 30
0.0
  0
SEQEND
  5
652
330
64F
100
AcDbEntity
  8
Ebene 1
370
    18
  0
POLYLINE
  5
653
330
2FD
100
AcDbEntity
  8
Ebene 1
 62
   179
420
  1709851
370
    18
100
AcDb2dPolyline
 66
     1
 10
0.0
 20
0.0
 30
0.0
  0
VERTEX
  5
654
330
653
100
AcDbEntity
  8
Ebene 1
 62
   179
420
  1709851
370
    18
100
AcDbVertex
100
AcDb2dVertex
 10
167.2552516942973
 20
-191.8091362367699
 30
0.0
  0
VERTEX
  5
655
330
653
100
AcDbEntity
  8
Ebene 1
 62
   179
420
  1709851
370
    18
100
AcDbVertex
100
AcDb2dVertex
 10
167.8691677097688
 20
-191.8091362367699
 30
0.0
  0
SEQEND
  5
656
330
653
100
AcDbEntity
  8
Ebene 1
370
    18
  0
POLYLINE
  5
657
330
2FD
100
AcDbEntity
  8
Ebene 1
 62
   179
420
  1709851
370
    18
100
AcDb2dPolyline
 66
     1
 10
0.0
 20
0.0
 30
0.0
  0
VERTEX
  5
658
330
657
100
AcDbEntity
  8
Ebene 1
 62
   179
420
  1709851
370
    18
100
AcDbVertex
100
AcDb2dVertex
 10
167.2552516942973
 20
-205.8210285943781
 30
0.0
  0
VERTEX
  5
659
330
657
100
AcDbEntity
  8
Ebene 1
 62
   179
420
  1709851
370
    18
100
AcDbVertex
100
AcDb2dVertex
 10
167.2552516942973
 20
-199.725276642777
 30
0.0
  0
SEQEND
  5
65A
330
657
100
AcDbEntity
  8
Ebene 1
370
    18
  0
POLYLINE
  5
65B
330
2FD
100
AcDbEntity
  8
Ebene 1
 62
   179
420
  1709851
370
    18
100
AcDb2dPolyline
 66
     1
 10
0.0
 20
0.0
 30
0.0
  0
VERTEX
  5
65C
330
65B
100
AcDbEntity
  8
Ebene 1
 62
   179
420
  1709851
370
    18
100
AcDbVertex
100
AcDb2dVertex
 10
166.3450574670943
 20
-213.8226073684194
 30
0.0
  0
VERTEX
  5
65D
330
65B
100
AcDbEntity
  8
Ebene 1
 62
   179
420
  1709851
370
    18
100
AcDbVertex
100
AcDb2dVertex
 10
166.3450574670943
 20
-206.7312228215811
 30
0.0
  0
SEQEND
  5
65E
330
65B
100
AcDbEntity
  8
Ebene 1
370
    18
  0
POLYLINE
  5
65F
330
2FD
100
AcDbEntity
  8
Ebene 1
 62
   179
420
  1709851
370
    18
100
AcDb2dPolyline
 66
     1
 10
0.0
 20
0.0
 30
0.0
  0
VERTEX
  5
660
330
65F
100
AcDbEntity
  8
Ebene 1
 62
   179
420
  1709851
370
    18
100
AcDbVertex
100
AcDb2dVertex
 10
165.7525010436313
 20
-207.3244682641411
 30
0.0
  0
VERTEX
  5
661
330
65F
100
AcDbEntity
  8
Ebene 1
 62
   179
420
  1709851
370
    18
100
AcDbVertex
100
AcDb2dVertex
 10
152.3541801919462
 20
-207.3244682641411
 30
0.0
  0
SEQEND
  5
662
330
65F
100
AcDbEntity
  8
Ebene 1
370
    18
  0
POLYLINE
  5
663
330
2FD
100
AcDbEntity
  8
Ebene 1
 62
   179
420
  1709851
370
    18
100
AcDb2dPolyline
 66
     1
 10
0.0
 20
0.0
 30
0.0
  0
VERTEX
  5
664
330
663
100
AcDbEntity
  8
Ebene 1
 62
   179
420
  1709851
370
    18
100
AcDbVertex
100
AcDb2dVertex
 10
152.3541801919462
 20
-206.7312228215811
 30
0.0
  0
VERTEX
  5
665
330
663
100
AcDbEntity
  8
Ebene 1
 62
   179
420
  1709851
370
    18
100
AcDbVertex
100
AcDb2dVertex
 10
152.3541801919462
 20
-207.3244682641411
 30
0.0
  0
SEQEND
  5
666
330
663
100
AcDbEntity
  8
Ebene 1
370
    18
  0
POLYLINE
  5
667
330
2FD
100
AcDbEntity
  8
Ebene 1
 62
   179
420
  1709851
370
    18
100
AcDb2dPolyline
 66
     1
 10
0.0
 20
0.0
 30
0.0
  0
VERTEX
  5
668
330
667
100
AcDbEntity
  8
Ebene 1
 62
   179
420
  1709851
370
    18
100
AcDbVertex
100
AcDb2dVertex
 10
166.3450574670943
 20
-206.7312228215811
 30
0.0
  0
VERTEX
  5
669
330
667
100
AcDbEntity
  8
Ebene 1
 62
   179
420
  1709851
370
    18
100
AcDbVertex
100
AcDb2dVertex
 10
160.2703205979533
 20
-206.7312228215811
 30
0.0
  0
SEQEND
  5
66A
330
667
100
AcDbEntity
  8
Ebene 1
370
    18
  0
POLYLINE
  5
66B
330
2FD
100
AcDbEntity
  8
Ebene 1
 62
   179
420
  1709851
370
    18
100
AcDb2dPolyline
 66
     1
 10
0.0
 20
0.0
 30
0.0
  0
VERTEX
  5
66C
330
66B
100
AcDbEntity
  8
Ebene 1
 62
   179
420
  1709851
370
    18
100
AcDbVertex
100
AcDb2dVertex
 10
174.3462917315871
 20
-206.4142740369381
 30
0.0
  0
VERTEX
  5
66D
330
66B
100
AcDbEntity
  8
Ebene 1
 62
   179
420
  1709851
370
    18
100
AcDbVertex
100
AcDb2dVertex
 10
174.3462917315871
 20
-205.8210285943781
 30
0.0
  0
SEQEND
  5
66E
330
66B
100
AcDbEntity
  8
Ebene 1
370
    18
  0
POLYLINE
  5
66F
330
2FD
100
AcDbEntity
  8
Ebene 1
 62
   179
420
  1709851
370
    18
100
AcDb2dPolyline
 66
     1
 10
0.0
 20
0.0
 30
0.0
  0
VERTEX
  5
670
330
66F
100
AcDbEntity
  8
Ebene 1
 62
   179
420
  1709851
370
    18
100
AcDbVertex
100
AcDb2dVertex
 10
166.3450574670943
 20
-213.8226073684194
 30
0.0
  0
VERTEX
  5
671
330
66F
100
AcDbEntity
  8
Ebene 1
 62
   179
420
  1709851
370
    18
100
AcDbVertex
100
AcDb2dVertex
 10
166.9589734825658
 20
-213.8226073684194
 30
0.0
  0
SEQEND
  5
672
330
66F
100
AcDbEntity
  8
Ebene 1
370
    18
  0
POLYLINE
  5
673
330
2FD
100
AcDbEntity
  8
Ebene 1
 62
   179
420
  1709851
370
    18
100
AcDb2dPolyline
 66
     1
 10
0.0
 20
0.0
 30
0.0
  0
VERTEX
  5
674
330
673
100
AcDbEntity
  8
Ebene 1
 62
   179
420
  1709851
370
    18
100
AcDbVertex
100
AcDb2dVertex
 10
166.9589734825658
 20
-213.8226073684194
 30
0.0
  0
VERTEX
  5
675
330
673
100
AcDbEntity
  8
Ebene 1
 62
   179
420
  1709851
370
    18
100
AcDbVertex
100
AcDb2dVertex
 10
166.9589734825658
 20
-206.4142740369381
 30
0.0
  0
VERTEX
  5
676
330
673
100
AcDbEntity
  8
Ebene 1
 62
   179
420
  1709851
370
    18
100
AcDbVertex
100
AcDb2dVertex
 10
174.3462917315871
 20
-206.4142740369381
 30
0.0
  0
SEQEND
  5
677
330
673
100
AcDbEntity
  8
Ebene 1
370
    18
  0
POLYLINE
  5
678
330
2FD
100
AcDbEntity
  8
Ebene 1
 62
   179
420
  1709851
370
    18
100
AcDb2dPolyline
 66
     1
 10
0.0
 20
0.0
 30
0.0
  0
VERTEX
  5
679
330
678
100
AcDbEntity
  8
Ebene 1
 62
   179
420
  1709851
370
    18
100
AcDbVertex
100
AcDb2dVertex
 10
166.3450574670943
 20
-205.8210285943781
 30
0.0
  0
VERTEX
  5
67A
330
678
100
AcDbEntity
  8
Ebene 1
 62
   179
420
  1709851
370
    18
100
AcDbVertex
100
AcDb2dVertex
 10
174.3462917315871
 20
-205.8210285943781
 30
0.0
  0
SEQEND
  5
67B
330
678
100
AcDbEntity
  8
Ebene 1
370
    18
  0
POLYLINE
  5
67C
330
2FD
100
AcDbEntity
  8
Ebene 1
370
     0
100
AcDb2dPolyline
 66
     1
 10
0.0
 20
0.0
 30
0.0
  0
VERTEX
  5
67D
330
67C
100
AcDbEntity
  8
Ebene 1
370
     0
100
AcDbVertex
100
AcDb2dVertex
 10
33.51388888051042
 20
-215.155859321211
 30
0.0
  0
VERTEX
  5
67E
330
67C
100
AcDbEntity
  8
Ebene 1
370
     0
100
AcDbVertex
100
AcDb2dVertex
 10
175.6795436843787
 20
-215.155859321211
 30
0.0
  0
VERTEX
  5
67F
330
67C
100
AcDbEntity
  8
Ebene 1
370
     0
100
AcDbVertex
100
AcDb2dVertex
 10
175.6795436843787
 20
-76.99013263049206
 30
0.0
  0
VERTEX
  5
680
330
67C
100
AcDbEntity
  8
Ebene 1
370
     0
100
AcDbVertex
100
AcDb2dVertex
 10
33.51388888051042
 20
-76.99013263049206
 30
0.0
  0
VERTEX
  5
681
330
67C
100
AcDbEntity
  8
Ebene 1
370
     0
100
AcDbVertex
100
AcDb2dVertex
 10
33.51388888051042
 20
-215.155859321211
 30
0.0
  0
SEQEND
  5
682
330
67C
100
AcDbEntity
  8
Ebene 1
370
     0
  0
ENDBLK
  5
300
330
2FD
100
AcDbEntity
  8
0
100
AcDbBlockEnd
  0
BLOCK
  5
696
330
694
100
AcDbEntity
  8
0
100
AcDbBlockBegin
  2
block 4
 70
     0
 71
     0
 10
0.0
 20
0.0
 30
0.0
  3
block 4
  1

  0
POLYLINE
  5
698
330
694
100
AcDbEntity
  8
Ebene 1
 62
   179
420
  1709851
370
    18
100
AcDb2dPolyline
 66
     1
 10
0.0
 20
0.0
 30
0.0
  0
VERTEX
  5
699
330
698
100
AcDbEntity
  8
Ebene 1
 62
   179
420
  1709851
370
    18
100
AcDbVertex
100
AcDb2dVertex
 10
152.8623317760205
 20
-155.8678330773525
 30
0.0
  0
VERTEX
  5
69A
330
698
100
AcDbEntity
  8
Ebene 1
 62
   179
420
  1709851
370
    18
100
AcDbVertex
100
AcDb2dVertex
 10
152.8623317760205
 20
-156.2702202300297
 30
0.0
  0
VERTEX
  5
69B
330
698
100
AcDbEntity
  8
Ebene 1
 62
   179
420
  1709851
370
    18
100
AcDbVertex
100
AcDb2dVertex
 10
152.0579019802147
 20
-156.2702202300297
 30
0.0
  0
VERTEX
  5
69C
330
698
100
AcDbEntity
  8
Ebene 1
 62
   179
420
  1709851
370
    18
100
AcDbVertex
100
AcDb2dVertex
 10
151.2531276748603
 20
-155.4661349437724
 30
0.0
  0
SEQEND
  5
69D
330
698
100
AcDbEntity
  8
Ebene 1
370
    18
  0
POLYLINE
  5
69E
330
694
100
AcDbEntity
  8
Ebene 1
 62
   179
420
  1709851
370
    18
100
AcDb2dPolyline
 66
     1
 10
0.0
 20
0.0
 30
0.0
  0
VERTEX
  5
69F
330
69E
100
AcDbEntity
  8
Ebene 1
 62
   179
420
  1709851
370
    18
100
AcDbVertex
100
AcDb2dVertex
 10
158.7465548648273
 20
-154.978998442158
 30
0.0
  0
VERTEX
  5
6A0
330
69E
100
AcDbEntity
  8
Ebene 1
 62
   179
420
  1709851
370
    18
100
AcDbVertex
100
AcDb2dVertex
 10
137.7493869013265
 20
-154.978998442158
 30
0.0
  0
SEQEND
  5
6A1
330
69E
100
AcDbEntity
  8
Ebene 1
370
    18
  0
POLYLINE
  5
6A2
330
694
100
AcDbEntity
  8
Ebene 1
 62
   179
420
  1709851
370
    18
100
AcDb2dPolyline
 66
     1
 10
0.0
 20
0.0
 30
0.0
  0
VERTEX
  5
6A3
330
6A2
100
AcDbEntity
  8
Ebene 1
 62
   179
420
  1709851
370
    18
100
AcDbVertex
100
AcDb2dVertex
 10
139.548415763724
 20
-155.4661349437724
 30
0.0
  0
VERTEX
  5
6A4
330
6A2
100
AcDbEntity
  8
Ebene 1
 62
   179
420
  1709851
370
    18
100
AcDbVertex
100
AcDb2dVertex
 10
158.7465548648273
 20
-155.4661349437724
 30
0.0
  0
SEQEND
  5
6A5
330
6A2
100
AcDbEntity
  8
Ebene 1
370
    18
  0
POLYLINE
  5
6A6
330
694
100
AcDbEntity
  8
Ebene 1
 62
   179
420
  1709851
370
    18
100
AcDb2dPolyline
 66
     1
 10
0.0
 20
0.0
 30
0.0
  0
VERTEX
  5
6A7
330
6A6
100
AcDbEntity
  8
Ebene 1
 62
   179
420
  1709851
370
    18
100
AcDbVertex
100
AcDb2dVertex
 10
158.7465548648273
 20
-155.4661349437724
 30
0.0
  0
VERTEX
  5
6A8
330
6A6
100
AcDbEntity
  8
Ebene 1
 62
   179
420
  1709851
370
    18
100
AcDbVertex
100
AcDb2dVertex
 10
158.7465548648273
 20
-154.978998442158
 30
0.0
  0
SEQEND
  5
6A9
330
6A6
100
AcDbEntity
  8
Ebene 1
370
    18
  0
POLYLINE
  5
6AA
330
694
100
AcDbEntity
  8
Ebene 1
 62
   179
420
  1709851
370
    18
100
AcDb2dPolyline
 66
     1
 10
0.0
 20
0.0
 30
0.0
  0
VERTEX
  5
6AB
330
6AA
100
AcDbEntity
  8
Ebene 1
 62
   179
420
  1709851
370
    18
100
AcDbVertex
100
AcDb2dVertex
 10
155.7407090539468
 20
-153.9633842931064
 30
0.0
  0
VERTEX
  5
6AC
330
6AA
100
AcDbEntity
  8
Ebene 1
 62
   179
420
  1709851
370
    18
100
AcDbVertex
100
AcDb2dVertex
 10
155.7407090539468
 20
-156.9681965753413
 30
0.0
  0
SEQEND
  5
6AD
330
6AA
100
AcDbEntity
  8
Ebene 1
370
    18
  0
POLYLINE
  5
6AE
330
694
100
AcDbEntity
  8
Ebene 1
 62
   179
420
  1709851
370
    18
100
AcDb2dPolyline
 66
     1
 10
0.0
 20
0.0
 30
0.0
  0
VERTEX
  5
6AF
330
6AE
100
AcDbEntity
  8
Ebene 1
 62
   179
420
  1709851
370
    18
100
AcDbVertex
100
AcDb2dVertex
 10
137.7493869013265
 20
-162.9592176241908
 30
0.0
  0
VERTEX
  5
6B0
330
6AE
100
AcDbEntity
  8
Ebene 1
 62
   179
420
  1709851
370
    18
100
AcDbVertex
100
AcDb2dVertex
 10
138.7439859679182
 20
-162.9592176241908
 30
0.0
  0
SEQEND
  5
6B1
330
6AE
100
AcDbEntity
  8
Ebene 1
370
    18
  0
POLYLINE
  5
6B2
330
694
100
AcDbEntity
  8
Ebene 1
 62
   179
420
  1709851
370
    18
100
AcDb2dPolyline
 66
     1
 10
0.0
 20
0.0
 30
0.0
  0
VERTEX
  5
6B3
330
6B2
100
AcDbEntity
  8
Ebene 1
 62
   179
420
  1709851
370
    18
100
AcDbVertex
100
AcDb2dVertex
 10
138.7439859679182
 20
-162.9592176241908
 30
0.0
  0
VERTEX
  5
6B4
330
6B2
100
AcDbEntity
  8
Ebene 1
 62
   179
420
  1709851
370
    18
100
AcDbVertex
100
AcDb2dVertex
 10
139.548415763724
 20
-162.9592176241908
 30
0.0
  0
SEQEND
  5
6B5
330
6B2
100
AcDbEntity
  8
Ebene 1
370
    18
  0
POLYLINE
  5
6B6
330
694
100
AcDbEntity
  8
Ebene 1
 62
   179
420
  1709851
370
    18
100
AcDb2dPolyline
 66
     1
 10
0.0
 20
0.0
 30
0.0
  0
VERTEX
  5
6B7
330
6B6
100
AcDbEntity
  8
Ebene 1
 62
   179
420
  1709851
370
    18
100
AcDbVertex
100
AcDb2dVertex
 10
139.548415763724
 20
-162.9592176241908
 30
0.0
  0
VERTEX
  5
6B8
330
6B6
100
AcDbEntity
  8
Ebene 1
 62
   179
420
  1709851
370
    18
100
AcDbVertex
100
AcDb2dVertex
 10
139.548415763724
 20
-155.4661349437724
 30
0.0
  0
SEQEND
  5
6B9
330
6B6
100
AcDbEntity
  8
Ebene 1
370
    18
  0
POLYLINE
  5
6BA
330
694
100
AcDbEntity
  8
Ebene 1
 62
   179
420
  1709851
370
    18
100
AcDb2dPolyline
 66
     1
 10
0.0
 20
0.0
 30
0.0
  0
VERTEX
  5
6BB
330
6BA
100
AcDbEntity
  8
Ebene 1
 62
   179
420
  1709851
370
    18
100
AcDbVertex
100
AcDb2dVertex
 10
138.7439859679182
 20
-162.9592176241908
 30
0.0
  0
VERTEX
  5
6BC
330
6BA
100
AcDbEntity
  8
Ebene 1
 62
   179
420
  1709851
370
    18
100
AcDbVertex
100
AcDb2dVertex
 10
138.7439859679182
 20
-154.978998442158
 30
0.0
  0
SEQEND
  5
6BD
330
6BA
100
AcDbEntity
  8
Ebene 1
370
    18
  0
POLYLINE
  5
6BE
330
694
100
AcDbEntity
  8
Ebene 1
 62
   179
420
  1709851
370
    18
100
AcDb2dPolyline
 66
     1
 10
0.0
 20
0.0
 30
0.0
  0
VERTEX
  5
6BF
330
6BE
100
AcDbEntity
  8
Ebene 1
 62
   179
420
  1709851
370
    18
100
AcDbVertex
100
AcDb2dVertex
 10
163.2551513263737
 20
-156.8627766534927
 30
0.0
  0
VERTEX
  5
6C0
330
6BE
100
AcDbEntity
  8
Ebene 1
 62
   179
420
  1709851
370
    18
100
AcDbVertex
100
AcDb2dVertex
 10
160.7574570995676
 20
-156.8627766534927
 30
0.0
  0
SEQEND
  5
6C1
330
6BE
100
AcDbEntity
  8
Ebene 1
370
    18
  0
POLYLINE
  5
6C2
330
694
100
AcDbEntity
  8
Ebene 1
 62
   179
420
  1709851
370
    18
100
AcDb2dPolyline
 66
     1
 10
0.0
 20
0.0
 30
0.0
  0
VERTEX
  5
6C3
330
6C2
100
AcDbEntity
  8
Ebene 1
 62
   179
420
  1709851
370
    18
100
AcDbVertex
100
AcDb2dVertex
 10
161.8581651071049
 20
-155.8678330773525
 30
0.0
  0
VERTEX
  5
6C4
330
6C2
100
AcDbEntity
  8
Ebene 1
 62
   179
420
  1709851
370
    18
100
AcDbVertex
100
AcDb2dVertex
 10
161.8581651071049
 20
-163.6785535615109
 30
0.0
  0
SEQEND
  5
6C5
330
6C2
100
AcDbEntity
  8
Ebene 1
370
    18
  0
POLYLINE
  5
6C6
330
694
100
AcDbEntity
  8
Ebene 1
 62
   179
420
  1709851
370
    18
100
AcDb2dPolyline
 66
     1
 10
0.0
 20
0.0
 30
0.0
  0
VERTEX
  5
6C7
330
6C6
100
AcDbEntity
  8
Ebene 1
 62
   179
420
  1709851
370
    18
100
AcDbVertex
100
AcDb2dVertex
 10
161.8581651071049
 20
-147.6762572872997
 30
0.0
  0
VERTEX
  5
6C8
330
6C6
100
AcDbEntity
  8
Ebene 1
 62
   179
420
  1709851
370
    18
100
AcDbVertex
100
AcDb2dVertex
 10
161.8581651071049
 20
-155.4661349437724
 30
0.0
  0
SEQEND
  5
6C9
330
6C6
100
AcDbEntity
  8
Ebene 1
370
    18
  0
POLYLINE
  5
6CA
330
694
100
AcDbEntity
  8
Ebene 1
 62
   179
420
  1709851
370
    18
100
AcDb2dPolyline
 66
     1
 10
0.0
 20
0.0
 30
0.0
  0
VERTEX
  5
6CB
330
6CA
100
AcDbEntity
  8
Ebene 1
 62
   179
420
  1709851
370
    18
100
AcDbVertex
100
AcDb2dVertex
 10
161.8581651071049
 20
-155.8678330773525
 30
0.0
  0
VERTEX
  5
6CC
330
6CA
100
AcDbEntity
  8
Ebene 1
 62
   179
420
  1709851
370
    18
100
AcDbVertex
100
AcDb2dVertex
 10
152.8623317760205
 20
-155.8678330773525
 30
0.0
  0
SEQEND
  5
6CD
330
6CA
100
AcDbEntity
  8
Ebene 1
370
    18
  0
POLYLINE
  5
6CE
330
694
100
AcDbEntity
  8
Ebene 1
 62
   179
420
  1709851
370
    18
100
AcDb2dPolyline
 66
     1
 10
0.0
 20
0.0
 30
0.0
  0
VERTEX
  5
6CF
330
6CE
100
AcDbEntity
  8
Ebene 1
 62
   179
420
  1709851
370
    18
100
AcDbVertex
100
AcDb2dVertex
 10
151.2531276748603
 20
-155.4661349437724
 30
0.0
  0
VERTEX
  5
6D0
330
6CE
100
AcDbEntity
  8
Ebene 1
 62
   179
420
  1709851
370
    18
100
AcDbVertex
100
AcDb2dVertex
 10
161.8581651071049
 20
-155.4661349437724
 30
0.0
  0
SEQEND
  5
6D1
330
6CE
100
AcDbEntity
  8
Ebene 1
370
    18
  0
POLYLINE
  5
6D2
330
694
100
AcDbEntity
  8
Ebene 1
 62
   179
420
  1709851
370
    18
100
AcDb2dPolyline
 66
     1
 10
0.0
 20
0.0
 30
0.0
  0
VERTEX
  5
6D3
330
6D2
100
AcDbEntity
  8
Ebene 1
 62
   179
420
  1709851
370
    18
100
AcDbVertex
100
AcDb2dVertex
 10
161.8581651071049
 20
-147.6762572872997
 30
0.0
  0
VERTEX
  5
6D4
330
6D2
100
AcDbEntity
  8
Ebene 1
 62
   179
420
  1709851
370
    18
100
AcDbVertex
100
AcDb2dVertex
 10
162.2602077502336
 20
-147.6762572872997
 30
0.0
  0
SEQEND
  5
6D5
330
6D2
100
AcDbEntity
  8
Ebene 1
370
    18
  0
POLYLINE
  5
6D6
330
694
100
AcDbEntity
  8
Ebene 1
 62
   179
420
  1709851
370
    18
100
AcDb2dPolyline
 66
     1
 10
0.0
 20
0.0
 30
0.0
  0
VERTEX
  5
6D7
330
6D6
100
AcDbEntity
  8
Ebene 1
 62
   179
420
  1709851
370
    18
100
AcDbVertex
100
AcDb2dVertex
 10
161.8581651071049
 20
-163.6785535615109
 30
0.0
  0
VERTEX
  5
6D8
330
6D6
100
AcDbEntity
  8
Ebene 1
 62
   179
420
  1709851
370
    18
100
AcDbVertex
100
AcDb2dVertex
 10
162.2602077502336
 20
-163.6785535615109
 30
0.0
  0
SEQEND
  5
6D9
330
6D6
100
AcDbEntity
  8
Ebene 1
370
    18
  0
POLYLINE
  5
6DA
330
694
100
AcDbEntity
  8
Ebene 1
 62
   179
420
  1709851
370
    18
100
AcDb2dPolyline
 66
     1
 10
0.0
 20
0.0
 30
0.0
  0
VERTEX
  5
6DB
330
6DA
100
AcDbEntity
  8
Ebene 1
 62
   179
420
  1709851
370
    18
100
AcDbVertex
100
AcDb2dVertex
 10
122.0011664191525
 20
-193.2057779464902
 30
0.0
  0
VERTEX
  5
6DC
330
6DA
100
AcDbEntity
  8
Ebene 1
 62
   179
420
  1709851
370
    18
100
AcDbVertex
100
AcDb2dVertex
 10
153.751166411215
 20
-193.2057779464902
 30
0.0
  0
SEQEND
  5
6DD
330
6DA
100
AcDbEntity
  8
Ebene 1
370
    18
  0
POLYLINE
  5
6DE
330
694
100
AcDbEntity
  8
Ebene 1
 62
   179
420
  1709851
370
    18
100
AcDb2dPolyline
 66
     1
 10
0.0
 20
0.0
 30
0.0
  0
VERTEX
  5
6DF
330
6DE
100
AcDbEntity
  8
Ebene 1
 62
   179
420
  1709851
370
    18
100
AcDbVertex
100
AcDb2dVertex
 10
122.0011664191525
 20
-182.8133029056856
 30
0.0
  0
VERTEX
  5
6E0
330
6DE
100
AcDbEntity
  8
Ebene 1
 62
   179
420
  1709851
370
    18
100
AcDbVertex
100
AcDb2dVertex
 10
123.7581651166299
 20
-177.2246690095133
 30
0.0
  0
SEQEND
  5
6E1
330
6DE
100
AcDbEntity
  8
Ebene 1
370
    18
  0
POLYLINE
  5
6E2
330
694
100
AcDbEntity
  8
Ebene 1
 62
   179
420
  1709851
370
    18
100
AcDb2dPolyline
 66
     1
 10
0.0
 20
0.0
 30
0.0
  0
VERTEX
  5
6E3
330
6E2
100
AcDbEntity
  8
Ebene 1
 62
   179
420
  1709851
370
    18
100
AcDbVertex
100
AcDb2dVertex
 10
118.7627766630176
 20
-193.2057779464902
 30
0.0
  0
VERTEX
  5
6E4
330
6E2
100
AcDbEntity
  8
Ebene 1
 62
   179
420
  1709851
370
    18
100
AcDbVertex
100
AcDb2dVertex
 10
121.5143744270867
 20
-184.4221624972973
 30
0.0
  0
SEQEND
  5
6E5
330
6E2
100
AcDbEntity
  8
Ebene 1
370
    18
  0
POLYLINE
  5
6E6
330
694
100
AcDbEntity
  8
Ebene 1
 62
   179
420
  1709851
370
    18
100
AcDb2dPolyline
 66
     1
 10
0.0
 20
0.0
 30
0.0
  0
VERTEX
  5
6E7
330
6E6
100
AcDbEntity
  8
Ebene 1
 62
   179
420
  1709851
370
    18
100
AcDbVertex
100
AcDb2dVertex
 10
33.75728487654332
 20
-193.2057779464902
 30
0.0
  0
VERTEX
  5
6E8
330
6E6
100
AcDbEntity
  8
Ebene 1
 62
   179
420
  1709851
370
    18
100
AcDbVertex
100
AcDb2dVertex
 10
121.112331783958
 20
-193.2057779464902
 30
0.0
  0
SEQEND
  5
6E9
330
6E6
100
AcDbEntity
  8
Ebene 1
370
    18
  0
POLYLINE
  5
6EA
330
694
100
AcDbEntity
  8
Ebene 1
 62
   179
420
  1709851
370
    18
100
AcDb2dPolyline
 66
     1
 10
0.0
 20
0.0
 30
0.0
  0
VERTEX
  5
6EB
330
6EA
100
AcDbEntity
  8
Ebene 1
 62
   179
420
  1709851
370
    18
100
AcDbVertex
100
AcDb2dVertex
 10
108.7506401637846
 20
-193.2057779464902
 30
0.0
  0
VERTEX
  5
6EC
330
6EA
100
AcDbEntity
  8
Ebene 1
 62
   179
420
  1709851
370
    18
100
AcDbVertex
100
AcDb2dVertex
 10
113.7460286173968
 20
-177.2246690095133
 30
0.0
  0
SEQEND
  5
6ED
330
6EA
100
AcDbEntity
  8
Ebene 1
370
    18
  0
POLYLINE
  5
6EE
330
694
100
AcDbEntity
  8
Ebene 1
370
     0
100
AcDb2dPolyline
 66
     1
 10
0.0
 20
0.0
 30
0.0
  0
VERTEX
  5
6EF
330
6EE
100
AcDbEntity
  8
Ebene 1
370
     0
100
AcDbVertex
100
AcDb2dVertex
 10
33.51388888051042
 20
-215.155859321211
 30
0.0
  0
VERTEX
  5
6F0
330
6EE
100
AcDbEntity
  8
Ebene 1
370
     0
100
AcDbVertex
100
AcDb2dVertex
 10
175.6795436843787
 20
-215.155859321211
 30
0.0
  0
VERTEX
  5
6F1
330
6EE
100
AcDbEntity
  8
Ebene 1
370
     0
100
AcDbVertex
100
AcDb2dVertex
 10
175.6795436843787
 20
-76.99013263049206
 30
0.0
  0
VERTEX
  5
6F2
330
6EE
100
AcDbEntity
  8
Ebene 1
370
     0
100
AcDbVertex
100
AcDb2dVertex
 10
33.51388888051042
 20
-76.99013263049206
 30
0.0
  0
VERTEX
  5
6F3
330
6EE
100
AcDbEntity
  8
Ebene 1
370
     0
100
AcDbVertex
100
AcDb2dVertex
 10
33.51388888051042
 20
-215.155859321211
 30
0.0
  0
SEQEND
  5
6F4
330
6EE
100
AcDbEntity
  8
Ebene 1
370
     0
  0
ENDBLK
  5
697
330
694
100
AcDbEntity
  8
0
100
AcDbBlockEnd
  0
ENDSEC
  0
SECTION
  2
ENTITIES
  0
INSERT
  5
3D
330
1F
100
AcDbEntity
  8
Ebene 1
100
AcDbBlockReference
  2
block 2
 10
0.0
 20
0.0
 30
0.0
  0
POLYLINE
  5
BF
330
1F
100
AcDbEntity
  8
Ebene 1
370
     0
100
AcDb2dPolyline
 66
     1
 10
0.0
 20
0.0
 30
0.0
  0
VERTEX
  5
C0
330
BF
100
AcDbEntity
  8
Ebene 1
370
     0
100
AcDbVertex
100
AcDb2dVertex
 10
33.75745713131758
 20
-213.2080023338508
 30
0.0
  0
VERTEX
  5
C1
330
BF
100
AcDbEntity
  8
Ebene 1
370
     0
100
AcDbVertex
100
AcDb2dVertex
 10
165.3501138909541
 20
-213.2080023338508
 30
0.0
  0
VERTEX
  5
C2
330
BF
100
AcDbEntity
  8
Ebene 1
370
     0
100
AcDbVertex
100
AcDb2dVertex
 10
33.75745713131758
 20
-211.6205023342477
 30
0.0
  0
VERTEX
  5
C3
330
BF
100
AcDbEntity
  8
Ebene 1
370
     0
100
AcDbVertex
100
AcDb2dVertex
 10
33.75745713131758
 20
-213.2080023338508
 30
0.0
  0
SEQEND
  5
C4
330
BF
100
AcDbEntity
  8
Ebene 1
370
     0
  0
HATCH
  5
C5
330
1F
100
AcDbEntity
  8
Ebene 1
 62
   254
420
 14803683
100
AcDbHatch
 10
0.0
 20
0.0
 30
0.0
210
0.0
220
0.0
230
1.0
  2
SOLID
 70
     1
 71
     0
 91
        1
 92
        1
 93
        3
 72
     1
 10
33.75745713131758
 20
-213.2080023338508
 11
165.3501138909541
 21
-213.2080023338508
 72
     1
 10
165.3501138909541
 20
-213.2080023338508
 11
33.75745713131758
 21
-211.6205023342477
 72
     1
 10
33.75745713131758
 20
-211.6205023342477
 11
33.75745713131758
 21
-213.2080023338508
 97
        0
 75
     2
 76
     1
 98
        0
  0
POLYLINE
  5
C6
330
1F
100
AcDbEntity
  8
Ebene 1
370
     0
100
AcDb2dPolyline
 66
     1
 10
0.0
 20
0.0
 30
0.0
  0
VERTEX
  5
C7
330
C6
100
AcDbEntity
  8
Ebene 1
370
     0
100
AcDbVertex
100
AcDb2dVertex
 10
33.75745713131758
 20
-211.6205023342477
 30
0.0
  0
VERTEX
  5
C8
330
C6
100
AcDbEntity
  8
Ebene 1
370
     0
100
AcDbVertex
100
AcDb2dVertex
 10
165.3501138909541
 20
-213.2080023338508
 30
0.0
  0
VERTEX
  5
C9
330
C6
100
AcDbEntity
  8
Ebene 1
370
     0
100
AcDbVertex
100
AcDb2dVertex
 10
165.3501138909541
 20
-211.6205023342477
 30
0.0
  0
VERTEX
  5
CA
330
C6
100
AcDbEntity
  8
Ebene 1
370
     0
100
AcDbVertex
100
AcDb2dVertex
 10
33.75745713131758
 20
-211.6205023342477
 30
0.0
  0
SEQEND
  5
CB
330
C6
100
AcDbEntity
  8
Ebene 1
370
     0
  0
HATCH
  5
CC
330
1F
100
AcDbEntity
  8
Ebene 1
 62
   254
420
 14803683
100
AcDbHatch
 10
0.0
 20
0.0
 30
0.0
210
0.0
220
0.0
230
1.0
  2
SOLID
 70
     1
 71
     0
 91
        1
 92
        1
 93
        3
 72
     1
 10
33.75745713131758
 20
-211.6205023342477
 11
165.3501138909541
 21
-213.2080023338508
 72
     1
 10
165.3501138909541
 20
-213.2080023338508
 11
165.3501138909541
 21
-211.6205023342477
 72
     1
 10
165.3501138909541
 20
-211.6205023342477
 11
33.75745713131758
 21
-211.6205023342477
 97
        0
 75
     2
 76
     1
 98
        0
  0
POLYLINE
  5
CD
330
1F
100
AcDbEntity
  8
Ebene 1
370
     0
100
AcDb2dPolyline
 66
     1
 10
0.0
 20
0.0
 30
0.0
  0
VERTEX
  5
CE
330
CD
100
AcDbEntity
  8
Ebene 1
370
     0
100
AcDbVertex
100
AcDb2dVertex
 10
172.1452202260609
 20
-77.23370088129921
 30
0.0
  0
VERTEX
  5
CF
330
CD
100
AcDbEntity
  8
Ebene 1
370
     0
100
AcDbVertex
100
AcDb2dVertex
 10
173.7533907985755
 20
-204.8054144453264
 30
0.0
  0
VERTEX
  5
D0
330
CD
100
AcDbEntity
  8
Ebene 1
370
     0
100
AcDbVertex
100
AcDb2dVertex
 10
172.1452202260609
 20
-204.8054144453264
 30
0.0
  0
VERTEX
  5
D1
330
CD
100
AcDbEntity
  8
Ebene 1
370
     0
100
AcDbVertex
100
AcDb2dVertex
 10
172.1452202260609
 20
-77.23370088129921
 30
0.0
  0
SEQEND
  5
D2
330
CD
100
AcDbEntity
  8
Ebene 1
370
     0
  0
HATCH
  5
D3
330
1F
100
AcDbEntity
  8
Ebene 1
 62
   254
420
 14803683
100
AcDbHatch
 10
0.0
 20
0.0
 30
0.0
210
0.0
220
0.0
230
1.0
  2
SOLID
 70
     1
 71
     0
 91
        1
 92
        1
 93
        3
 72
     1
 10
172.1452202260609
 20
-77.23370088129921
 11
173.7533907985755
 21
-204.8054144453264
 72
     1
 10
173.7533907985755
 20
-204.8054144453264
 11
172.1452202260609
 21
-204.8054144453264
 72
     1
 10
172.1452202260609
 20
-204.8054144453264
 11
172.1452202260609
 21
-77.23370088129921
 97
        0
 75
     2
 76
     1
 98
        0
  0
POLYLINE
  5
D4
330
1F
100
AcDbEntity
  8
Ebene 1
370
     0
100
AcDb2dPolyline
 66
     1
 10
0.0
 20
0.0
 30
0.0
  0
VERTEX
  5
D5
330
D4
100
AcDbEntity
  8
Ebene 1
370
     0
100
AcDbVertex
100
AcDb2dVertex
 10
173.7533907985755
 20
-204.8054144453264
 30
0.0
  0
VERTEX
  5
D6
330
D4
100
AcDbEntity
  8
Ebene 1
370
     0
100
AcDbVertex
100
AcDb2dVertex
 10
172.1452202260609
 20
-77.23370088129921
 30
0.0
  0
VERTEX
  5
D7
330
D4
100
AcDbEntity
  8
Ebene 1
370
     0
100
AcDbVertex
100
AcDb2dVertex
 10
173.7533907985755
 20
-77.23370088129921
 30
0.0
  0
VERTEX
  5
D8
330
D4
100
AcDbEntity
  8
Ebene 1
370
     0
100
AcDbVertex
100
AcDb2dVertex
 10
173.7533907985755
 20
-204.8054144453264
 30
0.0
  0
SEQEND
  5
D9
330
D4
100
AcDbEntity
  8
Ebene 1
370
     0
  0
HATCH
  5
DA
330
1F
100
AcDbEntity
  8
Ebene 1
 62
   254
420
 14803683
100
AcDbHatch
 10
0.0
 20
0.0
 30
0.0
210
0.0
220
0.0
230
1.0
  2
SOLID
 70
     1
 71
     0
 91
        1
 92
        1
 93
        3
 72
     1
 10
173.7533907985755
 20
-204.8054144453264
 11
172.1452202260609
 21
-77.23370088129921
 72
     1
 10
172.1452202260609
 20
-77.23370088129921
 11
173.7533907985755
 21
-77.23370088129921
 72
     1
 10
173.7533907985755
 20
-77.23370088129921
 11
173.7533907985755
 21
-204.8054144453264
 97
        0
 75
     2
 76
     1
 98
        0
  0
POLYLINE
  5
DB
330
1F
100
AcDbEntity
  8
Ebene 1
370
     0
100
AcDb2dPolyline
 66
     1
 10
0.0
 20
0.0
 30
0.0
  0
VERTEX
  5
DC
330
DB
100
AcDbEntity
  8
Ebene 1
370
     0
100
AcDbVertex
100
AcDb2dVertex
 10
166.9593179921143
 20
-213.8219183493223
 30
0.0
  0
VERTEX
  5
DD
330
DB
100
AcDbEntity
  8
Ebene 1
370
     0
100
AcDbVertex
100
AcDb2dVertex
 10
166.3454019766428
 20
-205.8210285943781
 30
0.0
  0
VERTEX
  5
DE
330
DB
100
AcDbEntity
  8
Ebene 1
370
     0
100
AcDbVertex
100
AcDb2dVertex
 10
166.3454019766428
 20
-213.8219183493223
 30
0.0
  0
VERTEX
  5
DF
330
DB
100
AcDbEntity
  8
Ebene 1
370
     0
100
AcDbVertex
100
AcDb2dVertex
 10
166.9593179921143
 20
-213.8219183493223
 30
0.0
  0
SEQEND
  5
E0
330
DB
100
AcDbEntity
  8
Ebene 1
370
     0
  0
HATCH
  5
E1
330
1F
100
AcDbEntity
  8
Ebene 1
 62
   179
420
  1709851
100
AcDbHatch
 10
0.0
 20
0.0
 30
0.0
210
0.0
220
0.0
230
1.0
  2
SOLID
 70
     1
 71
     0
 91
        1
 92
        1
 93
        3
 72
     1
 10
166.9593179921143
 20
-213.8219183493223
 11
166.3454019766428
 21
-205.8210285943781
 72
     1
 10
166.3454019766428
 20
-205.8210285943781
 11
166.3454019766428
 21
-213.8219183493223
 72
     1
 10
166.3454019766428
 20
-213.8219183493223
 11
166.9593179921143
 21
-213.8219183493223
 97
        0
 75
     2
 76
     1
 98
        0
  0
POLYLINE
  5
E2
330
1F
100
AcDbEntity
  8
Ebene 1
370
     0
100
AcDb2dPolyline
 66
     1
 10
0.0
 20
0.0
 30
0.0
  0
VERTEX
  5
E3
330
E2
100
AcDbEntity
  8
Ebene 1
370
     0
100
AcDbVertex
100
AcDb2dVertex
 10
166.3450574670943
 20
-205.8210285943781
 30
0.0
  0
VERTEX
  5
E4
330
E2
100
AcDbEntity
  8
Ebene 1
370
     0
100
AcDbVertex
100
AcDb2dVertex
 10
166.9589734825658
 20
-213.8226073684194
 30
0.0
  0
VERTEX
  5
E5
330
E2
100
AcDbEntity
  8
Ebene 1
370
     0
100
AcDbVertex
100
AcDb2dVertex
 10
166.9589734825658
 20
-206.4142740369381
 30
0.0
  0
VERTEX
  5
E6
330
E2
100
AcDbEntity
  8
Ebene 1
370
     0
100
AcDbVertex
100
AcDb2dVertex
 10
166.3450574670943
 20
-205.8210285943781
 30
0.0
  0
SEQEND
  5
E7
330
E2
100
AcDbEntity
  8
Ebene 1
370
     0
  0
HATCH
  5
E8
330
1F
100
AcDbEntity
  8
Ebene 1
 62
   179
420
  1709851
100
AcDbHatch
 10
0.0
 20
0.0
 30
0.0
210
0.0
220
0.0
230
1.0
  2
SOLID
 70
     1
 71
     0
 91
        1
 92
        1
 93
        3
 72
     1
 10
166.3450574670943
 20
-205.8210285943781
 11
166.9589734825658
 21
-213.8226073684194
 72
     1
 10
166.9589734825658
 20
-213.8226073684194
 11
166.9589734825658
 21
-206.4142740369381
 72
     1
 10
166.9589734825658
 20
-206.4142740369381
 11
166.3450574670943
 21
-205.8210285943781
 97
        0
 75
     2
 76
     1
 98
        0
  0
POLYLINE
  5
E9
330
1F
100
AcDbEntity
  8
Ebene 1
370
     0
100
AcDb2dPolyline
 66
     1
 10
0.0
 20
0.0
 30
0.0
  0
VERTEX
  5
EA
330
E9
100
AcDbEntity
  8
Ebene 1
370
     0
100
AcDbVertex
100
AcDb2dVertex
 10
166.3450574670943
 20
-205.8210285943781
 30
0.0
  0
VERTEX
  5
EB
330
E9
100
AcDbEntity
  8
Ebene 1
370
     0
100
AcDbVertex
100
AcDb2dVertex
 10
166.9589734825658
 20
-206.4142740369381
 30
0.0
  0
VERTEX
  5
EC
330
E9
100
AcDbEntity
  8
Ebene 1
370
     0
100
AcDbVertex
100
AcDb2dVertex
 10
174.3462917315871
 20
-205.8210285943781
 30
0.0
  0
VERTEX
  5
ED
330
E9
100
AcDbEntity
  8
Ebene 1
370
     0
100
AcDbVertex
100
AcDb2dVertex
 10
166.3450574670943
 20
-205.8210285943781
 30
0.0
  0
SEQEND
  5
EE
330
E9
100
AcDbEntity
  8
Ebene 1
370
     0
  0
HATCH
  5
EF
330
1F
100
AcDbEntity
  8
Ebene 1
 62
   179
420
  1709851
100
AcDbHatch
 10
0.0
 20
0.0
 30
0.0
210
0.0
220
0.0
230
1.0
  2
SOLID
 70
     1
 71
     0
 91
        1
 92
        1
 93
        3
 72
     1
 10
166.3450574670943
 20
-205.8210285943781
 11
166.9589734825658
 21
-206.4142740369381
 72
     1
 10
166.9589734825658
 20
-206.4142740369381
 11
174.3462917315871
 21
-205.8210285943781
 72
     1
 10
174.3462917315871
 20
-205.8210285943781
 11
166.3450574670943
 21
-205.8210285943781
 97
        0
 75
     2
 76
     1
 98
        0
  0
POLYLINE
  5
F0
330
1F
100
AcDbEntity
  8
Ebene 1
370
     0
100
AcDb2dPolyline
 66
     1
 10
0.0
 20
0.0
 30
0.0
  0
VERTEX
  5
F1
330
F0
100
AcDbEntity
  8
Ebene 1
370
     0
100
AcDbVertex
100
AcDb2dVertex
 10
174.3462917315871
 20
-205.8210285943781
 30
0.0
  0
VERTEX
  5
F2
330
F0
100
AcDbEntity
  8
Ebene 1
370
     0
100
AcDbVertex
100
AcDb2dVertex
 10
166.9593179921143
 20
-206.4142740369381
 30
0.0
  0
VERTEX
  5
F3
330
F0
100
AcDbEntity
  8
Ebene 1
370
     0
100
AcDbVertex
100
AcDb2dVertex
 10
174.3462917315871
 20
-206.4142740369381
 30
0.0
  0
VERTEX
  5
F4
330
F0
100
AcDbEntity
  8
Ebene 1
370
     0
100
AcDbVertex
100
AcDb2dVertex
 10
174.3462917315871
 20
-205.8210285943781
 30
0.0
  0
SEQEND
  5
F5
330
F0
100
AcDbEntity
  8
Ebene 1
370
     0
  0
HATCH
  5
F6
330
1F
100
AcDbEntity
  8
Ebene 1
 62
   179
420
  1709851
100
AcDbHatch
 10
0.0
 20
0.0
 30
0.0
210
0.0
220
0.0
230
1.0
  2
SOLID
 70
     1
 71
     0
 91
        1
 92
        1
 93
        3
 72
     1
 10
174.3462917315871
 20
-205.8210285943781
 11
166.9593179921143
 21
-206.4142740369381
 72
     1
 10
166.9593179921143
 20
-206.4142740369381
 11
174.3462917315871
 21
-206.4142740369381
 72
     1
 10
174.3462917315871
 20
-206.4142740369381
 11
174.3462917315871
 21
-205.8210285943781
 97
        0
 75
     2
 76
     1
 98
        0
  0
POLYLINE
  5
F7
330
1F
100
AcDbEntity
  8
Ebene 1
370
     0
100
AcDb2dPolyline
 66
     1
 10
0.0
 20
0.0
 30
0.0
  0
VERTEX
  5
F8
330
F7
100
AcDbEntity
  8
Ebene 1
370
     0
100
AcDbVertex
100
AcDb2dVertex
 10
130.1081651150424
 20
-208.8058593227985
 30
0.0
  0
VERTEX
  5
F9
330
F7
100
AcDbEntity
  8
Ebene 1
370
     0
100
AcDbVertex
100
AcDb2dVertex
 10
130.5946125975597
 20
-208.3187228211842
 30
0.0
  0
VERTEX
  5
FA
330
F7
100
AcDbEntity
  8
Ebene 1
370
     0
100
AcDbVertex
100
AcDb2dVertex
 10
130.1081651150424
 20
-202.8155272930461
 30
0.0
  0
VERTEX
  5
FB
330
F7
100
AcDbEntity
  8
Ebene 1
370
     0
100
AcDbVertex
100
AcDb2dVertex
 10
130.1081651150424
 20
-208.8058593227985
 30
0.0
  0
SEQEND
  5
FC
330
F7
100
AcDbEntity
  8
Ebene 1
370
     0
  0
HATCH
  5
FD
330
1F
100
AcDbEntity
  8
Ebene 1
 62
   179
420
  1709851
100
AcDbHatch
 10
0.0
 20
0.0
 30
0.0
210
0.0
220
0.0
230
1.0
  2
SOLID
 70
     1
 71
     0
 91
        1
 92
        1
 93
        3
 72
     1
 10
130.1081651150424
 20
-208.8058593227985
 11
130.5946125975597
 21
-208.3187228211842
 72
     1
 10
130.5946125975597
 20
-208.3187228211842
 11
130.1081651150424
 21
-202.8155272930461
 72
     1
 10
130.1081651150424
 20
-202.8155272930461
 11
130.1081651150424
 21
-208.8058593227985
 97
        0
 75
     2
 76
     1
 98
        0
  0
POLYLINE
  5
FE
330
1F
100
AcDbEntity
  8
Ebene 1
370
     0
100
AcDb2dPolyline
 66
     1
 10
0.0
 20
0.0
 30
0.0
  0
VERTEX
  5
FF
330
FE
100
AcDbEntity
  8
Ebene 1
370
     0
100
AcDbVertex
100
AcDb2dVertex
 10
130.5946125975597
 20
-208.3187228211842
 30
0.0
  0
VERTEX
  5
100
330
FE
100
AcDbEntity
  8
Ebene 1
370
     0
100
AcDbVertex
100
AcDb2dVertex
 10
130.1081651150424
 20
-208.8058593227985
 30
0.0
  0
VERTEX
  5
101
330
FE
100
AcDbEntity
  8
Ebene 1
370
     0
100
AcDbVertex
100
AcDb2dVertex
 10
136.2039170666435
 20
-208.8058593227985
 30
0.0
  0
VERTEX
  5
102
330
FE
100
AcDbEntity
  8
Ebene 1
370
     0
100
AcDbVertex
100
AcDb2dVertex
 10
130.5946125975597
 20
-208.3187228211842
 30
0.0
  0
SEQEND
  5
103
330
FE
100
AcDbEntity
  8
Ebene 1
370
     0
  0
HATCH
  5
104
330
1F
100
AcDbEntity
  8
Ebene 1
 62
   179
420
  1709851
100
AcDbHatch
 10
0.0
 20
0.0
 30
0.0
210
0.0
220
0.0
230
1.0
  2
SOLID
 70
     1
 71
     0
 91
        1
 92
        1
 93
        3
 72
     1
 10
130.5946125975597
 20
-208.3187228211842
 11
130.1081651150424
 21
-208.8058593227985
 72
     1
 10
130.1081651150424
 20
-208.8058593227985
 11
136.2039170666435
 21
-208.8058593227985
 72
     1
 10
136.2039170666435
 20
-208.8058593227985
 11
130.5946125975597
 21
-208.3187228211842
 97
        0
 75
     2
 76
     1
 98
        0
  0
POLYLINE
  5
105
330
1F
100
AcDbEntity
  8
Ebene 1
370
     0
100
AcDb2dPolyline
 66
     1
 10
0.0
 20
0.0
 30
0.0
  0
VERTEX
  5
106
330
105
100
AcDbEntity
  8
Ebene 1
370
     0
100
AcDbVertex
100
AcDb2dVertex
 10
130.5946125975597
 20
-208.3187228211842
 30
0.0
  0
VERTEX
  5
107
330
105
100
AcDbEntity
  8
Ebene 1
370
     0
100
AcDbVertex
100
AcDb2dVertex
 10
136.2039170666435
 20
-208.8058593227985
 30
0.0
  0
VERTEX
  5
108
330
105
100
AcDbEntity
  8
Ebene 1
370
     0
100
AcDbVertex
100
AcDb2dVertex
 10
132.3302517030286
 20
-208.3187228211842
 30
0.0
  0
VERTEX
  5
109
330
105
100
AcDbEntity
  8
Ebene 1
370
     0
100
AcDbVertex
100
AcDb2dVertex
 10
130.5946125975597
 20
-208.3187228211842
 30
0.0
  0
SEQEND
  5
10A
330
105
100
AcDbEntity
  8
Ebene 1
370
     0
  0
HATCH
  5
10B
330
1F
100
AcDbEntity
  8
Ebene 1
 62
   179
420
  1709851
100
AcDbHatch
 10
0.0
 20
0.0
 30
0.0
210
0.0
220
0.0
230
1.0
  2
SOLID
 70
     1
 71
     0
 91
        1
 92
        1
 93
        3
 72
     1
 10
130.5946125975597
 20
-208.3187228211842
 11
136.2039170666435
 21
-208.8058593227985
 72
     1
 10
136.2039170666435
 20
-208.8058593227985
 11
132.3302517030286
 21
-208.3187228211842
 72
     1
 10
132.3302517030286
 20
-208.3187228211842
 11
130.5946125975597
 21
-208.3187228211842
 97
        0
 75
     2
 76
     1
 98
        0
  0
SPLINE
  5
10C
330
1F
100
AcDbEntity
  8
Ebene 1
370
     0
100
AcDbSpline
210
0.0
220
0.0
230
1.0
 70
    27
 71
     3
 72
    11
 73
     7
 74
     0
 42
0.0000000001
 43
0.0000000001
 40
0.0
 40
0.0
 40
0.0
 40
0.0
 40
1.0
 40
1.0
 40
1.0
 40
2.0
 40
2.0
 40
2.0
 40
2.0
 10
132.3302517030286
 20
-208.3187228211842
 30
0.0
 10
132.3302517030286
 20
-208.3187228211842
 30
0.0
 10
136.2039170666435
 20
-208.8058593227985
 30
0.0
 10
136.2039170666435
 20
-208.8058593227985
 30
0.0
 10
136.2039170666435
 20
-208.8058593227985
 30
0.0
 10
132.3302517030286
 20
-208.3187228211842
 30
0.0
 10
132.3302517030286
 20
-208.3187228211842
 30
0.0
  0
HATCH
  5
10D
330
1F
100
AcDbEntity
  8
Ebene 1
 62
   179
420
  1709851
100
AcDbHatch
 10
0.0
 20
0.0
 30
0.0
210
0.0
220
0.0
230
1.0
  2
SOLID
 70
     1
 71
     0
 91
        1
 92
        1
 93
        1
 72
     4
 94
        3
 73
     0
 74
     1
 95
       11
 96
        7
 40
0.0
 40
0.0
 40
0.0
 40
0.0
 40
1.0
 40
1.0
 40
1.0
 40
2.0
 40
2.0
 40
2.0
 40
2.0
 10
132.3302517030286
 20
-208.3187228211842
 10
132.3302517030286
 20
-208.3187228211842
 10
136.2039170666435
 20
-208.8058593227985
 10
136.2039170666435
 20
-208.8058593227985
 10
136.2039170666435
 20
-208.8058593227985
 10
132.3302517030286
 20
-208.3187228211842
 10
132.3302517030286
 20
-208.3187228211842
 97
        0
 75
     2
 76
     1
 98
        0
  0
POLYLINE
  5
10E
330
1F
100
AcDbEntity
  8
Ebene 1
370
     0
100
AcDb2dPolyline
 66
     1
 10
0.0
 20
0.0
 30
0.0
  0
VERTEX
  5
10F
330
10E
100
AcDbEntity
  8
Ebene 1
370
     0
100
AcDbVertex
100
AcDb2dVertex
 10
132.3302517030286
 20
-208.3187228211842
 30
0.0
  0
VERTEX
  5
110
330
10E
100
AcDbEntity
  8
Ebene 1
370
     0
100
AcDbVertex
100
AcDb2dVertex
 10
136.2039170666435
 20
-208.8058593227985
 30
0.0
  0
VERTEX
  5
111
330
10E
100
AcDbEntity
  8
Ebene 1
370
     0
100
AcDbVertex
100
AcDb2dVertex
 10
133.1556965812944
 20
-208.3187228211842
 30
0.0
  0
VERTEX
  5
112
330
10E
100
AcDbEntity
  8
Ebene 1
370
     0
100
AcDbVertex
100
AcDb2dVertex
 10
132.3302517030286
 20
-208.3187228211842
 30
0.0
  0
SEQEND
  5
113
330
10E
100
AcDbEntity
  8
Ebene 1
370
     0
  0
HATCH
  5
114
330
1F
100
AcDbEntity
  8
Ebene 1
 62
   179
420
  1709851
100
AcDbHatch
 10
0.0
 20
0.0
 30
0.0
210
0.0
220
0.0
230
1.0
  2
SOLID
 70
     1
 71
     0
 91
        1
 92
        1
 93
        3
 72
     1
 10
132.3302517030286
 20
-208.3187228211842
 11
136.2039170666435
 21
-208.8058593227985
 72
     1
 10
136.2039170666435
 20
-208.8058593227985
 11
133.1556965812944
 21
-208.3187228211842
 72
     1
 10
133.1556965812944
 20
-208.3187228211842
 11
132.3302517030286
 21
-208.3187228211842
 97
        0
 75
     2
 76
     1
 98
        0
  0
SPLINE
  5
115
330
1F
100
AcDbEntity
  8
Ebene 1
370
     0
100
AcDbSpline
210
0.0
220
0.0
230
1.0
 70
    27
 71
     3
 72
    11
 73
     7
 74
     0
 42
0.0000000001
 43
0.0000000001
 40
0.0
 40
0.0
 40
0.0
 40
0.0
 40
1.0
 40
1.0
 40
1.0
 40
2.0
 40
2.0
 40
2.0
 40
2.0
 10
133.1556965812944
 20
-208.3187228211842
 30
0.0
 10
133.1556965812944
 20
-208.3187228211842
 30
0.0
 10
136.204261576192
 20
-208.8058593227985
 30
0.0
 10
136.204261576192
 20
-208.8058593227985
 30
0.0
 10
136.204261576192
 20
-208.8058593227985
 30
0.0
 10
133.1556965812944
 20
-208.3187228211842
 30
0.0
 10
133.1556965812944
 20
-208.3187228211842
 30
0.0
  0
HATCH
  5
116
330
1F
100
AcDbEntity
  8
Ebene 1
 62
   179
420
  1709851
100
AcDbHatch
 10
0.0
 20
0.0
 30
0.0
210
0.0
220
0.0
230
1.0
  2
SOLID
 70
     1
 71
     0
 91
        1
 92
        1
 93
        1
 72
     4
 94
        3
 73
     0
 74
     1
 95
       11
 96
        7
 40
0.0
 40
0.0
 40
0.0
 40
0.0
 40
1.0
 40
1.0
 40
1.0
 40
2.0
 40
2.0
 40
2.0
 40
2.0
 10
133.1556965812944
 20
-208.3187228211842
 10
133.1556965812944
 20
-208.3187228211842
 10
136.204261576192
 20
-208.8058593227985
 10
136.204261576192
 20
-208.8058593227985
 10
136.204261576192
 20
-208.8058593227985
 10
133.1556965812944
 20
-208.3187228211842
 10
133.1556965812944
 20
-208.3187228211842
 97
        0
 75
     2
 76
     1
 98
        0
  0
POLYLINE
  5
117
330
1F
100
AcDbEntity
  8
Ebene 1
370
     0
100
AcDb2dPolyline
 66
     1
 10
0.0
 20
0.0
 30
0.0
  0
VERTEX
  5
118
330
117
100
AcDbEntity
  8
Ebene 1
370
     0
100
AcDbVertex
100
AcDb2dVertex
 10
133.1556965812944
 20
-208.3187228211842
 30
0.0
  0
VERTEX
  5
119
330
117
100
AcDbEntity
  8
Ebene 1
370
     0
100
AcDbVertex
100
AcDb2dVertex
 10
136.204261576192
 20
-208.8058593227985
 30
0.0
  0
VERTEX
  5
11A
330
117
100
AcDbEntity
  8
Ebene 1
370
     0
100
AcDbVertex
100
AcDb2dVertex
 10
133.9601263771003
 20
-208.3187228211842
 30
0.0
  0
VERTEX
  5
11B
330
117
100
AcDbEntity
  8
Ebene 1
370
     0
100
AcDbVertex
100
AcDb2dVertex
 10
133.1556965812944
 20
-208.3187228211842
 30
0.0
  0
SEQEND
  5
11C
330
117
100
AcDbEntity
  8
Ebene 1
370
     0
  0
HATCH
  5
11D
330
1F
100
AcDbEntity
  8
Ebene 1
 62
   179
420
  1709851
100
AcDbHatch
 10
0.0
 20
0.0
 30
0.0
210
0.0
220
0.0
230
1.0
  2
SOLID
 70
     1
 71
     0
 91
        1
 92
        1
 93
        3
 72
     1
 10
133.1556965812944
 20
-208.3187228211842
 11
136.204261576192
 21
-208.8058593227985
 72
     1
 10
136.204261576192
 20
-208.8058593227985
 11
133.9601263771003
 21
-208.3187228211842
 72
     1
 10
133.9601263771003
 20
-208.3187228211842
 11
133.1556965812944
 21
-208.3187228211842
 97
        0
 75
     2
 76
     1
 98
        0
  0
POLYLINE
  5
11E
330
1F
100
AcDbEntity
  8
Ebene 1
370
     0
100
AcDb2dPolyline
 66
     1
 10
0.0
 20
0.0
 30
0.0
  0
VERTEX
  5
11F
330
11E
100
AcDbEntity
  8
Ebene 1
370
     0
100
AcDbVertex
100
AcDb2dVertex
 10
133.9604708866488
 20
-208.3187228211842
 30
0.0
  0
VERTEX
  5
120
330
11E
100
AcDbEntity
  8
Ebene 1
370
     0
100
AcDbVertex
100
AcDb2dVertex
 10
136.2039170666435
 20
-208.8058593227985
 30
0.0
  0
VERTEX
  5
121
330
11E
100
AcDbEntity
  8
Ebene 1
370
     0
100
AcDbVertex
100
AcDb2dVertex
 10
133.9814859691088
 20
-208.3187228211842
 30
0.0
  0
VERTEX
  5
122
330
11E
100
AcDbEntity
  8
Ebene 1
370
     0
100
AcDbVertex
100
AcDb2dVertex
 10
133.9604708866488
 20
-208.3187228211842
 30
0.0
  0
SEQEND
  5
123
330
11E
100
AcDbEntity
  8
Ebene 1
370
     0
  0
HATCH
  5
124
330
1F
100
AcDbEntity
  8
Ebene 1
 62
   179
420
  1709851
100
AcDbHatch
 10
0.0
 20
0.0
 30
0.0
210
0.0
220
0.0
230
1.0
  2
SOLID
 70
     1
 71
     0
 91
        1
 92
        1
 93
        3
 72
     1
 10
133.9604708866488
 20
-208.3187228211842
 11
136.2039170666435
 21
-208.8058593227985
 72
     1
 10
136.2039170666435
 20
-208.8058593227985
 11
133.9814859691088
 21
-208.3187228211842
 72
     1
 10
133.9814859691088
 20
-208.3187228211842
 11
133.9604708866488
 21
-208.3187228211842
 97
        0
 75
     2
 76
     1
 98
        0
  0
POLYLINE
  5
125
330
1F
100
AcDbEntity
  8
Ebene 1
370
     0
100
AcDb2dPolyline
 66
     1
 10
0.0
 20
0.0
 30
0.0
  0
VERTEX
  5
126
330
125
100
AcDbEntity
  8
Ebene 1
370
     0
100
AcDbVertex
100
AcDb2dVertex
 10
133.9811414595603
 20
-208.3187228211842
 30
0.0
  0
VERTEX
  5
127
330
125
100
AcDbEntity
  8
Ebene 1
370
     0
100
AcDbVertex
100
AcDb2dVertex
 10
136.204261576192
 20
-208.8058593227985
 30
0.0
  0
VERTEX
  5
128
330
125
100
AcDbEntity
  8
Ebene 1
370
     0
100
AcDbVertex
100
AcDb2dVertex
 10
135.6957654825691
 20
-208.3187228211842
 30
0.0
  0
VERTEX
  5
129
330
125
100
AcDbEntity
  8
Ebene 1
370
     0
100
AcDbVertex
100
AcDb2dVertex
 10
133.9811414595603
 20
-208.3187228211842
 30
0.0
  0
SEQEND
  5
12A
330
125
100
AcDbEntity
  8
Ebene 1
370
     0
  0
HATCH
  5
12B
330
1F
100
AcDbEntity
  8
Ebene 1
 62
   179
420
  1709851
100
AcDbHatch
 10
0.0
 20
0.0
 30
0.0
210
0.0
220
0.0
230
1.0
  2
SOLID
 70
     1
 71
     0
 91
        1
 92
        1
 93
        3
 72
     1
 10
133.9811414595603
 20
-208.3187228211842
 11
136.204261576192
 21
-208.8058593227985
 72
     1
 10
136.204261576192
 20
-208.8058593227985
 11
135.6957654825691
 21
-208.3187228211842
 72
     1
 10
135.6957654825691
 20
-208.3187228211842
 11
133.9811414595603
 21
-208.3187228211842
 97
        0
 75
     2
 76
     1
 98
        0
  0
POLYLINE
  5
12C
330
1F
100
AcDbEntity
  8
Ebene 1
370
     0
100
AcDb2dPolyline
 66
     1
 10
0.0
 20
0.0
 30
0.0
  0
VERTEX
  5
12D
330
12C
100
AcDbEntity
  8
Ebene 1
370
     0
100
AcDbVertex
100
AcDb2dVertex
 10
135.6961099921176
 20
-208.3187228211842
 30
0.0
  0
VERTEX
  5
12E
330
12C
100
AcDbEntity
  8
Ebene 1
370
     0
100
AcDbVertex
100
AcDb2dVertex
 10
136.2039170666435
 20
-208.8058593227985
 30
0.0
  0
VERTEX
  5
12F
330
12C
100
AcDbEntity
  8
Ebene 1
370
     0
100
AcDbVertex
100
AcDb2dVertex
 10
135.6961099921176
 20
-206.647162491741
 30
0.0
  0
VERTEX
  5
130
330
12C
100
AcDbEntity
  8
Ebene 1
370
     0
100
AcDbVertex
100
AcDb2dVertex
 10
135.6961099921176
 20
-208.3187228211842
 30
0.0
  0
SEQEND
  5
131
330
12C
100
AcDbEntity
  8
Ebene 1
370
     0
  0
HATCH
  5
132
330
1F
100
AcDbEntity
  8
Ebene 1
 62
   179
420
  1709851
100
AcDbHatch
 10
0.0
 20
0.0
 30
0.0
210
0.0
220
0.0
230
1.0
  2
SOLID
 70
     1
 71
     0
 91
        1
 92
        1
 93
        3
 72
     1
 10
135.6961099921176
 20
-208.3187228211842
 11
136.2039170666435
 21
-208.8058593227985
 72
     1
 10
136.2039170666435
 20
-208.8058593227985
 11
135.6961099921176
 21
-206.647162491741
 72
     1
 10
135.6961099921176
 20
-206.647162491741
 11
135.6961099921176
 21
-208.3187228211842
 97
        0
 75
     2
 76
     1
 98
        0
  0
POLYLINE
  5
133
330
1F
100
AcDbEntity
  8
Ebene 1
370
     0
100
AcDb2dPolyline
 66
     1
 10
0.0
 20
0.0
 30
0.0
  0
VERTEX
  5
134
330
133
100
AcDbEntity
  8
Ebene 1
370
     0
100
AcDbVertex
100
AcDb2dVertex
 10
135.6961099921176
 20
-206.6464734726439
 30
0.0
  0
VERTEX
  5
135
330
133
100
AcDbEntity
  8
Ebene 1
370
     0
100
AcDbVertex
100
AcDb2dVertex
 10
136.2039170666435
 20
-208.8058593227985
 30
0.0
  0
VERTEX
  5
136
330
133
100
AcDbEntity
  8
Ebene 1
370
     0
100
AcDbVertex
100
AcDb2dVertex
 10
135.6961099921176
 20
-205.8637477783952
 30
0.0
  0
VERTEX
  5
137
330
133
100
AcDbEntity
  8
Ebene 1
370
     0
100
AcDbVertex
100
AcDb2dVertex
 10
135.6961099921176
 20
-206.6464734726439
 30
0.0
  0
SEQEND
  5
138
330
133
100
AcDbEntity
  8
Ebene 1
370
     0
  0
HATCH
  5
139
330
1F
100
AcDbEntity
  8
Ebene 1
 62
   179
420
  1709851
100
AcDbHatch
 10
0.0
 20
0.0
 30
0.0
210
0.0
220
0.0
230
1.0
  2
SOLID
 70
     1
 71
     0
 91
        1
 92
        1
 93
        3
 72
     1
 10
135.6961099921176
 20
-206.6464734726439
 11
136.2039170666435
 21
-208.8058593227985
 72
     1
 10
136.2039170666435
 20
-208.8058593227985
 11
135.6961099921176
 21
-205.8637477783952
 72
     1
 10
135.6961099921176
 20
-205.8637477783952
 11
135.6961099921176
 21
-206.6464734726439
 97
        0
 75
     2
 76
     1
 98
        0
  0
POLYLINE
  5
13A
330
1F
100
AcDbEntity
  8
Ebene 1
370
     0
100
AcDb2dPolyline
 66
     1
 10
0.0
 20
0.0
 30
0.0
  0
VERTEX
  5
13B
330
13A
100
AcDbEntity
  8
Ebene 1
370
     0
100
AcDbVertex
100
AcDb2dVertex
 10
135.6961099921176
 20
-205.8637477783952
 30
0.0
  0
VERTEX
  5
13C
330
13A
100
AcDbEntity
  8
Ebene 1
370
     0
100
AcDbVertex
100
AcDb2dVertex
 10
136.2039170666435
 20
-208.8058593227985
 30
0.0
  0
VERTEX
  5
13D
330
13A
100
AcDbEntity
  8
Ebene 1
370
     0
100
AcDbVertex
100
AcDb2dVertex
 10
135.6961099921176
 20
-204.1914984298549
 30
0.0
  0
VERTEX
  5
13E
330
13A
100
AcDbEntity
  8
Ebene 1
370
     0
100
AcDbVertex
100
AcDb2dVertex
 10
135.6961099921176
 20
-205.8637477783952
 30
0.0
  0
SEQEND
  5
13F
330
13A
100
AcDbEntity
  8
Ebene 1
370
     0
  0
HATCH
  5
140
330
1F
100
AcDbEntity
  8
Ebene 1
 62
   179
420
  1709851
100
AcDbHatch
 10
0.0
 20
0.0
 30
0.0
210
0.0
220
0.0
230
1.0
  2
SOLID
 70
     1
 71
     0
 91
        1
 92
        1
 93
        3
 72
     1
 10
135.6961099921176
 20
-205.8637477783952
 11
136.2039170666435
 21
-208.8058593227985
 72
     1
 10
136.2039170666435
 20
-208.8058593227985
 11
135.6961099921176
 21
-204.1914984298549
 72
     1
 10
135.6961099921176
 20
-204.1914984298549
 11
135.6961099921176
 21
-205.8637477783952
 97
        0
 75
     2
 76
     1
 98
        0
  0
POLYLINE
  5
141
330
1F
100
AcDbEntity
  8
Ebene 1
370
     0
100
AcDb2dPolyline
 66
     1
 10
0.0
 20
0.0
 30
0.0
  0
VERTEX
  5
142
330
141
100
AcDbEntity
  8
Ebene 1
370
     0
100
AcDbVertex
100
AcDb2dVertex
 10
135.6961099921176
 20
-204.1914984298549
 30
0.0
  0
VERTEX
  5
143
330
141
100
AcDbEntity
  8
Ebene 1
370
     0
100
AcDbVertex
100
AcDb2dVertex
 10
136.2039170666435
 20
-208.8058593227985
 30
0.0
  0
VERTEX
  5
144
330
141
100
AcDbEntity
  8
Ebene 1
370
     0
100
AcDbVertex
100
AcDb2dVertex
 10
135.6961099921176
 20
-203.598942006392
 30
0.0
  0
VERTEX
  5
145
330
141
100
AcDbEntity
  8
Ebene 1
370
     0
100
AcDbVertex
100
AcDb2dVertex
 10
135.6961099921176
 20
-204.1914984298549
 30
0.0
  0
SEQEND
  5
146
330
141
100
AcDbEntity
  8
Ebene 1
370
     0
  0
HATCH
  5
147
330
1F
100
AcDbEntity
  8
Ebene 1
 62
   179
420
  1709851
100
AcDbHatch
 10
0.0
 20
0.0
 30
0.0
210
0.0
220
0.0
230
1.0
  2
SOLID
 70
     1
 71
     0
 91
        1
 92
        1
 93
        3
 72
     1
 10
135.6961099921176
 20
-204.1914984298549
 11
136.2039170666435
 21
-208.8058593227985
 72
     1
 10
136.2039170666435
 20
-208.8058593227985
 11
135.6961099921176
 21
-203.598942006392
 72
     1
 10
135.6961099921176
 20
-203.598942006392
 11
135.6961099921176
 21
-204.1914984298549
 97
        0
 75
     2
 76
     1
 98
        0
  0
POLYLINE
  5
148
330
1F
100
AcDbEntity
  8
Ebene 1
370
     0
100
AcDb2dPolyline
 66
     1
 10
0.0
 20
0.0
 30
0.0
  0
VERTEX
  5
149
330
148
100
AcDbEntity
  8
Ebene 1
370
     0
100
AcDbVertex
100
AcDb2dVertex
 10
135.6961099921176
 20
-203.598942006392
 30
0.0
  0
VERTEX
  5
14A
330
148
100
AcDbEntity
  8
Ebene 1
370
     0
100
AcDbVertex
100
AcDb2dVertex
 10
136.2039170666435
 20
-208.8058593227985
 30
0.0
  0
VERTEX
  5
14B
330
148
100
AcDbEntity
  8
Ebene 1
370
     0
100
AcDbVertex
100
AcDb2dVertex
 10
135.6961099921176
 20
-202.8155272930461
 30
0.0
  0
VERTEX
  5
14C
330
148
100
AcDbEntity
  8
Ebene 1
370
     0
100
AcDbVertex
100
AcDb2dVertex
 10
135.6961099921176
 20
-203.598942006392
 30
0.0
  0
SEQEND
  5
14D
330
148
100
AcDbEntity
  8
Ebene 1
370
     0
  0
HATCH
  5
14E
330
1F
100
AcDbEntity
  8
Ebene 1
 62
   179
420
  1709851
100
AcDbHatch
 10
0.0
 20
0.0
 30
0.0
210
0.0
220
0.0
230
1.0
  2
SOLID
 70
     1
 71
     0
 91
        1
 92
        1
 93
        3
 72
     1
 10
135.6961099921176
 20
-203.598942006392
 11
136.2039170666435
 21
-208.8058593227985
 72
     1
 10
136.2039170666435
 20
-208.8058593227985
 11
135.6961099921176
 21
-202.8155272930461
 72
     1
 10
135.6961099921176
 20
-202.8155272930461
 11
135.6961099921176
 21
-203.598942006392
 97
        0
 75
     2
 76
     1
 98
        0
  0
POLYLINE
  5
14F
330
1F
100
AcDbEntity
  8
Ebene 1
370
     0
100
AcDb2dPolyline
 66
     1
 10
0.0
 20
0.0
 30
0.0
  0
VERTEX
  5
150
330
14F
100
AcDbEntity
  8
Ebene 1
370
     0
100
AcDbVertex
100
AcDb2dVertex
 10
135.6961099921176
 20
-202.8155272930461
 30
0.0
  0
VERTEX
  5
151
330
14F
100
AcDbEntity
  8
Ebene 1
370
     0
100
AcDbVertex
100
AcDb2dVertex
 10
136.2039170666435
 20
-208.8058593227985
 30
0.0
  0
VERTEX
  5
152
330
14F
100
AcDbEntity
  8
Ebene 1
370
     0
100
AcDbVertex
100
AcDb2dVertex
 10
136.2039170666435
 20
-202.8155272930461
 30
0.0
  0
VERTEX
  5
153
330
14F
100
AcDbEntity
  8
Ebene 1
370
     0
100
AcDbVertex
100
AcDb2dVertex
 10
135.6961099921176
 20
-202.8155272930461
 30
0.0
  0
SEQEND
  5
154
330
14F
100
AcDbEntity
  8
Ebene 1
370
     0
  0
HATCH
  5
155
330
1F
100
AcDbEntity
  8
Ebene 1
 62
   179
420
  1709851
100
AcDbHatch
 10
0.0
 20
0.0
 30
0.0
210
0.0
220
0.0
230
1.0
  2
SOLID
 70
     1
 71
     0
 91
        1
 92
        1
 93
        3
 72
     1
 10
135.6961099921176
 20
-202.8155272930461
 11
136.2039170666435
 21
-208.8058593227985
 72
     1
 10
136.2039170666435
 20
-208.8058593227985
 11
136.2039170666435
 21
-202.8155272930461
 72
     1
 10
136.2039170666435
 20
-202.8155272930461
 11
135.6961099921176
 21
-202.8155272930461
 97
        0
 75
     2
 76
     1
 98
        0
  0
POLYLINE
  5
156
330
1F
100
AcDbEntity
  8
Ebene 1
370
     0
100
AcDb2dPolyline
 66
     1
 10
0.0
 20
0.0
 30
0.0
  0
VERTEX
  5
157
330
156
100
AcDbEntity
  8
Ebene 1
370
     0
100
AcDbVertex
100
AcDb2dVertex
 10
135.6961099921176
 20
-204.1914984298549
 30
0.0
  0
VERTEX
  5
158
330
156
100
AcDbEntity
  8
Ebene 1
370
     0
100
AcDbVertex
100
AcDb2dVertex
 10
134.8916801963118
 20
-203.598942006392
 30
0.0
  0
VERTEX
  5
159
330
156
100
AcDbEntity
  8
Ebene 1
370
     0
100
AcDbVertex
100
AcDb2dVertex
 10
134.8916801963118
 20
-204.1914984298549
 30
0.0
  0
VERTEX
  5
15A
330
156
100
AcDbEntity
  8
Ebene 1
370
     0
100
AcDbVertex
100
AcDb2dVertex
 10
135.6961099921176
 20
-204.1914984298549
 30
0.0
  0
SEQEND
  5
15B
330
156
100
AcDbEntity
  8
Ebene 1
370
     0
  0
HATCH
  5
15C
330
1F
100
AcDbEntity
  8
Ebene 1
 62
   179
420
  1709851
100
AcDbHatch
 10
0.0
 20
0.0
 30
0.0
210
0.0
220
0.0
230
1.0
  2
SOLID
 70
     1
 71
     0
 91
        1
 92
        1
 93
        3
 72
     1
 10
135.6961099921176
 20
-204.1914984298549
 11
134.8916801963118
 21
-203.598942006392
 72
     1
 10
134.8916801963118
 20
-203.598942006392
 11
134.8916801963118
 21
-204.1914984298549
 72
     1
 10
134.8916801963118
 20
-204.1914984298549
 11
135.6961099921176
 21
-204.1914984298549
 97
        0
 75
     2
 76
     1
 98
        0
  0
POLYLINE
  5
15D
330
1F
100
AcDbEntity
  8
Ebene 1
370
     0
100
AcDb2dPolyline
 66
     1
 10
0.0
 20
0.0
 30
0.0
  0
VERTEX
  5
15E
330
15D
100
AcDbEntity
  8
Ebene 1
370
     0
100
AcDbVertex
100
AcDb2dVertex
 10
134.8913356867633
 20
-203.598942006392
 30
0.0
  0
VERTEX
  5
15F
330
15D
100
AcDbEntity
  8
Ebene 1
370
     0
100
AcDbVertex
100
AcDb2dVertex
 10
135.6961099921176
 20
-204.1914984298549
 30
0.0
  0
VERTEX
  5
160
330
15D
100
AcDbEntity
  8
Ebene 1
370
     0
100
AcDbVertex
100
AcDb2dVertex
 10
135.6961099921176
 20
-203.598942006392
 30
0.0
  0
VERTEX
  5
161
330
15D
100
AcDbEntity
  8
Ebene 1
370
     0
100
AcDbVertex
100
AcDb2dVertex
 10
134.8913356867633
 20
-203.598942006392
 30
0.0
  0
SEQEND
  5
162
330
15D
100
AcDbEntity
  8
Ebene 1
370
     0
  0
HATCH
  5
163
330
1F
100
AcDbEntity
  8
Ebene 1
 62
   179
420
  1709851
100
AcDbHatch
 10
0.0
 20
0.0
 30
0.0
210
0.0
220
0.0
230
1.0
  2
SOLID
 70
     1
 71
     0
 91
        1
 92
        1
 93
        3
 72
     1
 10
134.8913356867633
 20
-203.598942006392
 11
135.6961099921176
 21
-204.1914984298549
 72
     1
 10
135.6961099921176
 20
-204.1914984298549
 11
135.6961099921176
 21
-203.598942006392
 72
     1
 10
135.6961099921176
 20
-203.598942006392
 11
134.8913356867633
 21
-203.598942006392
 97
        0
 75
     2
 76
     1
 98
        0
  0
POLYLINE
  5
164
330
1F
100
AcDbEntity
  8
Ebene 1
370
     0
100
AcDb2dPolyline
 66
     1
 10
0.0
 20
0.0
 30
0.0
  0
VERTEX
  5
165
330
164
100
AcDbEntity
  8
Ebene 1
370
     0
100
AcDbVertex
100
AcDb2dVertex
 10
135.6961099921176
 20
-206.6464734726439
 30
0.0
  0
VERTEX
  5
166
330
164
100
AcDbEntity
  8
Ebene 1
370
     0
100
AcDbVertex
100
AcDb2dVertex
 10
134.8916801963118
 20
-205.8637477783952
 30
0.0
  0
VERTEX
  5
167
330
164
100
AcDbEntity
  8
Ebene 1
370
     0
100
AcDbVertex
100
AcDb2dVertex
 10
134.8916801963118
 20
-206.6464734726439
 30
0.0
  0
VERTEX
  5
168
330
164
100
AcDbEntity
  8
Ebene 1
370
     0
100
AcDbVertex
100
AcDb2dVertex
 10
135.6961099921176
 20
-206.6464734726439
 30
0.0
  0
SEQEND
  5
169
330
164
100
AcDbEntity
  8
Ebene 1
370
     0
  0
HATCH
  5
16A
330
1F
100
AcDbEntity
  8
Ebene 1
 62
   179
420
  1709851
100
AcDbHatch
 10
0.0
 20
0.0
 30
0.0
210
0.0
220
0.0
230
1.0
  2
SOLID
 70
     1
 71
     0
 91
        1
 92
        1
 93
        3
 72
     1
 10
135.6961099921176
 20
-206.6464734726439
 11
134.8916801963118
 21
-205.8637477783952
 72
     1
 10
134.8916801963118
 20
-205.8637477783952
 11
134.8916801963118
 21
-206.6464734726439
 72
     1
 10
134.8916801963118
 20
-206.6464734726439
 11
135.6961099921176
 21
-206.6464734726439
 97
        0
 75
     2
 76
     1
 98
        0
  0
POLYLINE
  5
16B
330
1F
100
AcDbEntity
  8
Ebene 1
370
     0
100
AcDb2dPolyline
 66
     1
 10
0.0
 20
0.0
 30
0.0
  0
VERTEX
  5
16C
330
16B
100
AcDbEntity
  8
Ebene 1
370
     0
100
AcDbVertex
100
AcDb2dVertex
 10
134.8913356867633
 20
-205.8637477783952
 30
0.0
  0
VERTEX
  5
16D
330
16B
100
AcDbEntity
  8
Ebene 1
370
     0
100
AcDbVertex
100
AcDb2dVertex
 10
135.6961099921176
 20
-206.647162491741
 30
0.0
  0
VERTEX
  5
16E
330
16B
100
AcDbEntity
  8
Ebene 1
370
     0
100
AcDbVertex
100
AcDb2dVertex
 10
135.6961099921176
 20
-205.8637477783952
 30
0.0
  0
VERTEX
  5
16F
330
16B
100
AcDbEntity
  8
Ebene 1
370
     0
100
AcDbVertex
100
AcDb2dVertex
 10
134.8913356867633
 20
-205.8637477783952
 30
0.0
  0
SEQEND
  5
170
330
16B
100
AcDbEntity
  8
Ebene 1
370
     0
  0
HATCH
  5
171
330
1F
100
AcDbEntity
  8
Ebene 1
 62
   179
420
  1709851
100
AcDbHatch
 10
0.0
 20
0.0
 30
0.0
210
0.0
220
0.0
230
1.0
  2
SOLID
 70
     1
 71
     0
 91
        1
 92
        1
 93
        3
 72
     1
 10
134.8913356867633
 20
-205.8637477783952
 11
135.6961099921176
 21
-206.647162491741
 72
     1
 10
135.6961099921176
 20
-206.647162491741
 11
135.6961099921176
 21
-205.8637477783952
 72
     1
 10
135.6961099921176
 20
-205.8637477783952
 11
134.8913356867633
 21
-205.8637477783952
 97
        0
 75
     2
 76
     1
 98
        0
  0
POLYLINE
  5
172
330
1F
100
AcDbEntity
  8
Ebene 1
370
     0
100
AcDb2dPolyline
 66
     1
 10
0.0
 20
0.0
 30
0.0
  0
VERTEX
  5
173
330
172
100
AcDbEntity
  8
Ebene 1
370
     0
100
AcDbVertex
100
AcDb2dVertex
 10
131.399386902914
 20
-206.6464734726439
 30
0.0
  0
VERTEX
  5
174
330
172
100
AcDbEntity
  8
Ebene 1
370
     0
100
AcDbVertex
100
AcDb2dVertex
 10
130.5949571071082
 20
-205.8637477783952
 30
0.0
  0
VERTEX
  5
175
330
172
100
AcDbEntity
  8
Ebene 1
370
     0
100
AcDbVertex
100
AcDb2dVertex
 10
130.5949571071082
 20
-206.6464734726439
 30
0.0
  0
VERTEX
  5
176
330
172
100
AcDbEntity
  8
Ebene 1
370
     0
100
AcDbVertex
100
AcDb2dVertex
 10
131.399386902914
 20
-206.6464734726439
 30
0.0
  0
SEQEND
  5
177
330
172
100
AcDbEntity
  8
Ebene 1
370
     0
  0
HATCH
  5
178
330
1F
100
AcDbEntity
  8
Ebene 1
 62
   179
420
  1709851
100
AcDbHatch
 10
0.0
 20
0.0
 30
0.0
210
0.0
220
0.0
230
1.0
  2
SOLID
 70
     1
 71
     0
 91
        1
 92
        1
 93
        3
 72
     1
 10
131.399386902914
 20
-206.6464734726439
 11
130.5949571071082
 21
-205.8637477783952
 72
     1
 10
130.5949571071082
 20
-205.8637477783952
 11
130.5949571071082
 21
-206.6464734726439
 72
     1
 10
130.5949571071082
 20
-206.6464734726439
 11
131.399386902914
 21
-206.6464734726439
 97
        0
 75
     2
 76
     1
 98
        0
  0
POLYLINE
  5
179
330
1F
100
AcDbEntity
  8
Ebene 1
370
     0
100
AcDb2dPolyline
 66
     1
 10
0.0
 20
0.0
 30
0.0
  0
VERTEX
  5
17A
330
179
100
AcDbEntity
  8
Ebene 1
370
     0
100
AcDbVertex
100
AcDb2dVertex
 10
130.5946125975597
 20
-205.8637477783952
 30
0.0
  0
VERTEX
  5
17B
330
179
100
AcDbEntity
  8
Ebene 1
370
     0
100
AcDbVertex
100
AcDb2dVertex
 10
131.399386902914
 20
-206.647162491741
 30
0.0
  0
VERTEX
  5
17C
330
179
100
AcDbEntity
  8
Ebene 1
370
     0
100
AcDbVertex
100
AcDb2dVertex
 10
131.399386902914
 20
-205.8637477783952
 30
0.0
  0
VERTEX
  5
17D
330
179
100
AcDbEntity
  8
Ebene 1
370
     0
100
AcDbVertex
100
AcDb2dVertex
 10
130.5946125975597
 20
-205.8637477783952
 30
0.0
  0
SEQEND
  5
17E
330
179
100
AcDbEntity
  8
Ebene 1
370
     0
  0
HATCH
  5
17F
330
1F
100
AcDbEntity
  8
Ebene 1
 62
   179
420
  1709851
100
AcDbHatch
 10
0.0
 20
0.0
 30
0.0
210
0.0
220
0.0
230
1.0
  2
SOLID
 70
     1
 71
     0
 91
        1
 92
        1
 93
        3
 72
     1
 10
130.5946125975597
 20
-205.8637477783952
 11
131.399386902914
 21
-206.647162491741
 72
     1
 10
131.399386902914
 20
-206.647162491741
 11
131.399386902914
 21
-205.8637477783952
 72
     1
 10
131.399386902914
 20
-205.8637477783952
 11
130.5946125975597
 21
-205.8637477783952
 97
        0
 75
     2
 76
     1
 98
        0
  0
POLYLINE
  5
180
330
1F
100
AcDbEntity
  8
Ebene 1
370
     0
100
AcDb2dPolyline
 66
     1
 10
0.0
 20
0.0
 30
0.0
  0
VERTEX
  5
181
330
180
100
AcDbEntity
  8
Ebene 1
370
     0
100
AcDbVertex
100
AcDb2dVertex
 10
131.399386902914
 20
-204.1914984298549
 30
0.0
  0
VERTEX
  5
182
330
180
100
AcDbEntity
  8
Ebene 1
370
     0
100
AcDbVertex
100
AcDb2dVertex
 10
130.5949571071082
 20
-203.598942006392
 30
0.0
  0
VERTEX
  5
183
330
180
100
AcDbEntity
  8
Ebene 1
370
     0
100
AcDbVertex
100
AcDb2dVertex
 10
130.5949571071082
 20
-204.1914984298549
 30
0.0
  0
VERTEX
  5
184
330
180
100
AcDbEntity
  8
Ebene 1
370
     0
100
AcDbVertex
100
AcDb2dVertex
 10
131.399386902914
 20
-204.1914984298549
 30
0.0
  0
SEQEND
  5
185
330
180
100
AcDbEntity
  8
Ebene 1
370
     0
  0
HATCH
  5
186
330
1F
100
AcDbEntity
  8
Ebene 1
 62
   179
420
  1709851
100
AcDbHatch
 10
0.0
 20
0.0
 30
0.0
210
0.0
220
0.0
230
1.0
  2
SOLID
 70
     1
 71
     0
 91
        1
 92
        1
 93
        3
 72
     1
 10
131.399386902914
 20
-204.1914984298549
 11
130.5949571071082
 21
-203.598942006392
 72
     1
 10
130.5949571071082
 20
-203.598942006392
 11
130.5949571071082
 21
-204.1914984298549
 72
     1
 10
130.5949571071082
 20
-204.1914984298549
 11
131.399386902914
 21
-204.1914984298549
 97
        0
 75
     2
 76
     1
 98
        0
  0
POLYLINE
  5
187
330
1F
100
AcDbEntity
  8
Ebene 1
370
     0
100
AcDb2dPolyline
 66
     1
 10
0.0
 20
0.0
 30
0.0
  0
VERTEX
  5
188
330
187
100
AcDbEntity
  8
Ebene 1
370
     0
100
AcDbVertex
100
AcDb2dVertex
 10
130.5946125975597
 20
-203.598942006392
 30
0.0
  0
VERTEX
  5
189
330
187
100
AcDbEntity
  8
Ebene 1
370
     0
100
AcDbVertex
100
AcDb2dVertex
 10
131.399386902914
 20
-204.1914984298549
 30
0.0
  0
VERTEX
  5
18A
330
187
100
AcDbEntity
  8
Ebene 1
370
     0
100
AcDbVertex
100
AcDb2dVertex
 10
131.399386902914
 20
-203.598942006392
 30
0.0
  0
VERTEX
  5
18B
330
187
100
AcDbEntity
  8
Ebene 1
370
     0
100
AcDbVertex
100
AcDb2dVertex
 10
130.5946125975597
 20
-203.598942006392
 30
0.0
  0
SEQEND
  5
18C
330
187
100
AcDbEntity
  8
Ebene 1
370
     0
  0
HATCH
  5
18D
330
1F
100
AcDbEntity
  8
Ebene 1
 62
   179
420
  1709851
100
AcDbHatch
 10
0.0
 20
0.0
 30
0.0
210
0.0
220
0.0
230
1.0
  2
SOLID
 70
     1
 71
     0
 91
        1
 92
        1
 93
        3
 72
     1
 10
130.5946125975597
 20
-203.598942006392
 11
131.399386902914
 21
-204.1914984298549
 72
     1
 10
131.399386902914
 20
-204.1914984298549
 11
131.399386902914
 21
-203.598942006392
 72
     1
 10
131.399386902914
 20
-203.598942006392
 11
130.5946125975597
 21
-203.598942006392
 97
        0
 75
     2
 76
     1
 98
        0
  0
POLYLINE
  5
18E
330
1F
100
AcDbEntity
  8
Ebene 1
370
     0
100
AcDb2dPolyline
 66
     1
 10
0.0
 20
0.0
 30
0.0
  0
VERTEX
  5
18F
330
18E
100
AcDbEntity
  8
Ebene 1
370
     0
100
AcDbVertex
100
AcDb2dVertex
 10
130.5946125975597
 20
-208.3187228211842
 30
0.0
  0
VERTEX
  5
190
330
18E
100
AcDbEntity
  8
Ebene 1
370
     0
100
AcDbVertex
100
AcDb2dVertex
 10
130.5946125975597
 20
-202.8155272930461
 30
0.0
  0
VERTEX
  5
191
330
18E
100
AcDbEntity
  8
Ebene 1
370
     0
100
AcDbVertex
100
AcDb2dVertex
 10
130.1081651150424
 20
-202.8155272930461
 30
0.0
  0
VERTEX
  5
192
330
18E
100
AcDbEntity
  8
Ebene 1
370
     0
100
AcDbVertex
100
AcDb2dVertex
 10
130.5946125975597
 20
-208.3187228211842
 30
0.0
  0
SEQEND
  5
193
330
18E
100
AcDbEntity
  8
Ebene 1
370
     0
  0
HATCH
  5
194
330
1F
100
AcDbEntity
  8
Ebene 1
 62
   179
420
  1709851
100
AcDbHatch
 10
0.0
 20
0.0
 30
0.0
210
0.0
220
0.0
230
1.0
  2
SOLID
 70
     1
 71
     0
 91
        1
 92
        1
 93
        3
 72
     1
 10
130.5946125975597
 20
-208.3187228211842
 11
130.5946125975597
 21
-202.8155272930461
 72
     1
 10
130.5946125975597
 20
-202.8155272930461
 11
130.1081651150424
 21
-202.8155272930461
 72
     1
 10
130.1081651150424
 20
-202.8155272930461
 11
130.5946125975597
 21
-208.3187228211842
 97
        0
 75
     2
 76
     1
 98
        0
  0
SPLINE
  5
195
330
1F
100
AcDbEntity
  8
Ebene 1
370
     0
100
AcDbSpline
210
0.0
220
0.0
230
1.0
 70
    27
 71
     3
 72
    11
 73
     7
 74
     0
 42
0.0000000001
 43
0.0000000001
 40
0.0
 40
0.0
 40
0.0
 40
0.0
 40
1.0
 40
1.0
 40
1.0
 40
2.0
 40
2.0
 40
2.0
 40
2.0
 10
130.5949571071082
 20
-208.3187228211842
 30
0.0
 10
130.5949571071082
 20
-208.3187228211842
 30
0.0
 10
130.5949571071082
 20
-202.8155272930461
 30
0.0
 10
130.5949571071082
 20
-202.8155272930461
 30
0.0
 10
130.5949571071082
 20
-202.8155272930461
 30
0.0
 10
130.5949571071082
 20
-208.3187228211842
 30
0.0
 10
130.5949571071082
 20
-208.3187228211842
 30
0.0
  0
HATCH
  5
196
330
1F
100
AcDbEntity
  8
Ebene 1
 62
   179
420
  1709851
100
AcDbHatch
 10
0.0
 20
0.0
 30
0.0
210
0.0
220
0.0
230
1.0
  2
SOLID
 70
     1
 71
     0
 91
        1
 92
        1
 93
        1
 72
     4
 94
        3
 73
     0
 74
     1
 95
       11
 96
        7
 40
0.0
 40
0.0
 40
0.0
 40
0.0
 40
1.0
 40
1.0
 40
1.0
 40
2.0
 40
2.0
 40
2.0
 40
2.0
 10
130.5949571071082
 20
-208.3187228211842
 10
130.5949571071082
 20
-208.3187228211842
 10
130.5949571071082
 20
-202.8155272930461
 10
130.5949571071082
 20
-202.8155272930461
 10
130.5949571071082
 20
-202.8155272930461
 10
130.5949571071082
 20
-208.3187228211842
 10
130.5949571071082
 20
-208.3187228211842
 97
        0
 75
     2
 76
     1
 98
        0
  0
SPLINE
  5
197
330
1F
100
AcDbEntity
  8
Ebene 1
370
     0
100
AcDbSpline
210
0.0
220
0.0
230
1.0
 70
    27
 71
     3
 72
    11
 73
     7
 74
     0
 42
0.0000000001
 43
0.0000000001
 40
0.0
 40
0.0
 40
0.0
 40
0.0
 40
1.0
 40
1.0
 40
1.0
 40
2.0
 40
2.0
 40
2.0
 40
2.0
 10
130.5949571071082
 20
-206.6464734726439
 30
0.0
 10
130.5949571071082
 20
-206.6464734726439
 30
0.0
 10
130.5949571071082
 20
-202.8155272930461
 30
0.0
 10
130.5949571071082
 20
-202.8155272930461
 30
0.0
 10
130.5949571071082
 20
-202.8155272930461
 30
0.0
 10
130.5949571071082
 20
-206.6464734726439
 30
0.0
 10
130.5949571071082
 20
-206.6464734726439
 30
0.0
  0
HATCH
  5
198
330
1F
100
AcDbEntity
  8
Ebene 1
 62
   179
420
  1709851
100
AcDbHatch
 10
0.0
 20
0.0
 30
0.0
210
0.0
220
0.0
230
1.0
  2
SOLID
 70
     1
 71
     0
 91
        1
 92
        1
 93
        1
 72
     4
 94
        3
 73
     0
 74
     1
 95
       11
 96
        7
 40
0.0
 40
0.0
 40
0.0
 40
0.0
 40
1.0
 40
1.0
 40
1.0
 40
2.0
 40
2.0
 40
2.0
 40
2.0
 10
130.5949571071082
 20
-206.6464734726439
 10
130.5949571071082
 20
-206.6464734726439
 10
130.5949571071082
 20
-202.8155272930461
 10
130.5949571071082
 20
-202.8155272930461
 10
130.5949571071082
 20
-202.8155272930461
 10
130.5949571071082
 20
-206.6464734726439
 10
130.5949571071082
 20
-206.6464734726439
 97
        0
 75
     2
 76
     1
 98
        0
  0
SPLINE
  5
199
330
1F
100
AcDbEntity
  8
Ebene 1
370
     0
100
AcDbSpline
210
0.0
220
0.0
230
1.0
 70
    27
 71
     3
 72
    11
 73
     7
 74
     0
 42
0.0000000001
 43
0.0000000001
 40
0.0
 40
0.0
 40
0.0
 40
0.0
 40
1.0
 40
1.0
 40
1.0
 40
2.0
 40
2.0
 40
2.0
 40
2.0
 10
130.5949571071082
 20
-205.8637477783952
 30
0.0
 10
130.5949571071082
 20
-205.8637477783952
 30
0.0
 10
130.5949571071082
 20
-202.8155272930461
 30
0.0
 10
130.5949571071082
 20
-202.8155272930461
 30
0.0
 10
130.5949571071082
 20
-202.8155272930461
 30
0.0
 10
130.5949571071082
 20
-205.8637477783952
 30
0.0
 10
130.5949571071082
 20
-205.8637477783952
 30
0.0
  0
HATCH
  5
19A
330
1F
100
AcDbEntity
  8
Ebene 1
 62
   179
420
  1709851
100
AcDbHatch
 10
0.0
 20
0.0
 30
0.0
210
0.0
220
0.0
230
1.0
  2
SOLID
 70
     1
 71
     0
 91
        1
 92
        1
 93
        1
 72
     4
 94
        3
 73
     0
 74
     1
 95
       11
 96
        7
 40
0.0
 40
0.0
 40
0.0
 40
0.0
 40
1.0
 40
1.0
 40
1.0
 40
2.0
 40
2.0
 40
2.0
 40
2.0
 10
130.5949571071082
 20
-205.8637477783952
 10
130.5949571071082
 20
-205.8637477783952
 10
130.5949571071082
 20
-202.8155272930461
 10
130.5949571071082
 20
-202.8155272930461
 10
130.5949571071082
 20
-202.8155272930461
 10
130.5949571071082
 20
-205.8637477783952
 10
130.5949571071082
 20
-205.8637477783952
 97
        0
 75
     2
 76
     1
 98
        0
  0
SPLINE
  5
19B
330
1F
100
AcDbEntity
  8
Ebene 1
370
     0
100
AcDbSpline
210
0.0
220
0.0
230
1.0
 70
    27
 71
     3
 72
    11
 73
     7
 74
     0
 42
0.0000000001
 43
0.0000000001
 40
0.0
 40
0.0
 40
0.0
 40
0.0
 40
1.0
 40
1.0
 40
1.0
 40
2.0
 40
2.0
 40
2.0
 40
2.0
 10
130.5949571071082
 20
-204.1914984298549
 30
0.0
 10
130.5949571071082
 20
-204.1914984298549
 30
0.0
 10
130.5949571071082
 20
-202.8155272930461
 30
0.0
 10
130.5949571071082
 20
-202.8155272930461
 30
0.0
 10
130.5949571071082
 20
-202.8155272930461
 30
0.0
 10
130.5949571071082
 20
-204.1914984298549
 30
0.0
 10
130.5949571071082
 20
-204.1914984298549
 30
0.0
  0
HATCH
  5
19C
330
1F
100
AcDbEntity
  8
Ebene 1
 62
   179
420
  1709851
100
AcDbHatch
 10
0.0
 20
0.0
 30
0.0
210
0.0
220
0.0
230
1.0
  2
SOLID
 70
     1
 71
     0
 91
        1
 92
        1
 93
        1
 72
     4
 94
        3
 73
     0
 74
     1
 95
       11
 96
        7
 40
0.0
 40
0.0
 40
0.0
 40
0.0
 40
1.0
 40
1.0
 40
1.0
 40
2.0
 40
2.0
 40
2.0
 40
2.0
 10
130.5949571071082
 20
-204.1914984298549
 10
130.5949571071082
 20
-204.1914984298549
 10
130.5949571071082
 20
-202.8155272930461
 10
130.5949571071082
 20
-202.8155272930461
 10
130.5949571071082
 20
-202.8155272930461
 10
130.5949571071082
 20
-204.1914984298549
 10
130.5949571071082
 20
-204.1914984298549
 97
        0
 75
     2
 76
     1
 98
        0
  0
POLYLINE
  5
19D
330
1F
100
AcDbEntity
  8
Ebene 1
 62
   179
420
  1709851
370
    18
100
AcDb2dPolyline
 66
     1
 10
0.0
 20
0.0
 30
0.0
  0
VERTEX
  5
19E
330
19D
100
AcDbEntity
  8
Ebene 1
 62
   179
420
  1709851
370
    18
100
AcDbVertex
100
AcDb2dVertex
 10
130.6580023544883
 20
-205.5040798097351
 30
0.0
  0
VERTEX
  5
19F
330
19D
100
AcDbEntity
  8
Ebene 1
 62
   179
420
  1709851
370
    18
100
AcDbVertex
100
AcDb2dVertex
 10
131.9285535694484
 20
-204.233528594775
 30
0.0
  0
SEQEND
  5
1A0
330
19D
100
AcDbEntity
  8
Ebene 1
370
    18
  0
POLYLINE
  5
1A1
330
1F
100
AcDbEntity
  8
Ebene 1
 62
   179
420
  1709851
370
    18
100
AcDb2dPolyline
 66
     1
 10
0.0
 20
0.0
 30
0.0
  0
VERTEX
  5
1A2
330
1A1
100
AcDbEntity
  8
Ebene 1
 62
   179
420
  1709851
370
    18
100
AcDbVertex
100
AcDb2dVertex
 10
131.7376952795656
 20
-205.8210285943781
 30
0.0
  0
VERTEX
  5
1A3
330
1A1
100
AcDbEntity
  8
Ebene 1
 62
   179
420
  1709851
370
    18
100
AcDbVertex
100
AcDb2dVertex
 10
133.3465548711773
 20
-204.233528594775
 30
0.0
  0
SEQEND
  5
1A4
330
1A1
100
AcDbEntity
  8
Ebene 1
370
    18
  0
POLYLINE
  5
1A5
330
1F
100
AcDbEntity
  8
Ebene 1
 62
   179
420
  1709851
370
    18
100
AcDb2dPolyline
 66
     1
 10
0.0
 20
0.0
 30
0.0
  0
VERTEX
  5
1A6
330
1A5
100
AcDbEntity
  8
Ebene 1
 62
   179
420
  1709851
370
    18
100
AcDbVertex
100
AcDb2dVertex
 10
133.1556965812944
 20
-205.8210285943781
 30
0.0
  0
VERTEX
  5
1A7
330
1A5
100
AcDbEntity
  8
Ebene 1
 62
   179
420
  1709851
370
    18
100
AcDbVertex
100
AcDb2dVertex
 10
134.7431965808975
 20
-204.233528594775
 30
0.0
  0
SEQEND
  5
1A8
330
1A5
100
AcDbEntity
  8
Ebene 1
370
    18
  0
POLYLINE
  5
1A9
330
1F
100
AcDbEntity
  8
Ebene 1
 62
   179
420
  1709851
370
    18
100
AcDb2dPolyline
 66
     1
 10
0.0
 20
0.0
 30
0.0
  0
VERTEX
  5
1AA
330
1A9
100
AcDbEntity
  8
Ebene 1
 62
   179
420
  1709851
370
    18
100
AcDbVertex
100
AcDb2dVertex
 10
134.5743869021203
 20
-205.8210285943781
 30
0.0
  0
VERTEX
  5
1AB
330
1A9
100
AcDbEntity
  8
Ebene 1
 62
   179
420
  1709851
370
    18
100
AcDbVertex
100
AcDb2dVertex
 10
135.6533908081005
 20
-204.7413356693008
 30
0.0
  0
SEQEND
  5
1AC
330
1A9
100
AcDbEntity
  8
Ebene 1
370
    18
  0
POLYLINE
  5
1AD
330
1F
100
AcDbEntity
  8
Ebene 1
 62
   179
420
  1709851
370
    18
100
AcDb2dPolyline
 66
     1
 10
0.0
 20
0.0
 30
0.0
  0
VERTEX
  5
1AE
330
1AD
100
AcDbEntity
  8
Ebene 1
 62
   179
420
  1709851
370
    18
100
AcDbVertex
100
AcDb2dVertex
 10
130.6580023544883
 20
-204.7840548533179
 30
0.0
  0
VERTEX
  5
1AF
330
1AD
100
AcDbEntity
  8
Ebene 1
 62
   179
420
  1709851
370
    18
100
AcDbVertex
100
AcDb2dVertex
 10
131.2085286130312
 20
-204.233528594775
 30
0.0
  0
SEQEND
  5
1B0
330
1AD
100
AcDbEntity
  8
Ebene 1
370
    18
  0
POLYLINE
  5
1B1
330
1F
100
AcDbEntity
  8
Ebene 1
 62
   179
420
  1709851
370
    18
100
AcDb2dPolyline
 66
     1
 10
0.0
 20
0.0
 30
0.0
  0
VERTEX
  5
1B2
330
1B1
100
AcDbEntity
  8
Ebene 1
 62
   179
420
  1709851
370
    18
100
AcDbVertex
100
AcDb2dVertex
 10
131.0390299151569
 20
-205.8210285943781
 30
0.0
  0
VERTEX
  5
1B3
330
1B1
100
AcDbEntity
  8
Ebene 1
 62
   179
420
  1709851
370
    18
100
AcDbVertex
100
AcDb2dVertex
 10
132.62652991476
 20
-204.233528594775
 30
0.0
  0
SEQEND
  5
1B4
330
1B1
100
AcDbEntity
  8
Ebene 1
370
    18
  0
POLYLINE
  5
1B5
330
1F
100
AcDbEntity
  8
Ebene 1
 62
   179
420
  1709851
370
    18
100
AcDb2dPolyline
 66
     1
 10
0.0
 20
0.0
 30
0.0
  0
VERTEX
  5
1B6
330
1B5
100
AcDbEntity
  8
Ebene 1
 62
   179
420
  1709851
370
    18
100
AcDbVertex
100
AcDb2dVertex
 10
132.4363606439742
 20
-205.8210285943781
 30
0.0
  0
VERTEX
  5
1B7
330
1B5
100
AcDbEntity
  8
Ebene 1
 62
   179
420
  1709851
370
    18
100
AcDbVertex
100
AcDb2dVertex
 10
134.0452202355859
 20
-204.233528594775
 30
0.0
  0
SEQEND
  5
1B8
330
1B5
100
AcDbEntity
  8
Ebene 1
370
    18
  0
POLYLINE
  5
1B9
330
1F
100
AcDbEntity
  8
Ebene 1
 62
   179
420
  1709851
370
    18
100
AcDb2dPolyline
 66
     1
 10
0.0
 20
0.0
 30
0.0
  0
VERTEX
  5
1BA
330
1B9
100
AcDbEntity
  8
Ebene 1
 62
   179
420
  1709851
370
    18
100
AcDbVertex
100
AcDb2dVertex
 10
133.8543619457031
 20
-205.8210285943781
 30
0.0
  0
VERTEX
  5
1BB
330
1B9
100
AcDbEntity
  8
Ebene 1
 62
   179
420
  1709851
370
    18
100
AcDbVertex
100
AcDb2dVertex
 10
135.4632215373148
 20
-204.233528594775
 30
0.0
  0
SEQEND
  5
1BC
330
1B9
100
AcDbEntity
  8
Ebene 1
370
    18
  0
POLYLINE
  5
1BD
330
1F
100
AcDbEntity
  8
Ebene 1
 62
   179
420
  1709851
370
    18
100
AcDb2dPolyline
 66
     1
 10
0.0
 20
0.0
 30
0.0
  0
VERTEX
  5
1BE
330
1BD
100
AcDbEntity
  8
Ebene 1
 62
   179
420
  1709851
370
    18
100
AcDbVertex
100
AcDb2dVertex
 10
135.2723632474319
 20
-205.8210285943781
 30
0.0
  0
VERTEX
  5
1BF
330
1BD
100
AcDbEntity
  8
Ebene 1
 62
   179
420
  1709851
370
    18
100
AcDbVertex
100
AcDb2dVertex
 10
135.6533908081005
 20
-205.4400010337094
 30
0.0
  0
SEQEND
  5
1C0
330
1BD
100
AcDbEntity
  8
Ebene 1
370
    18
  0
POLYLINE
  5
1C1
330
1F
100
AcDbEntity
  8
Ebene 1
370
     0
100
AcDb2dPolyline
 66
     1
 10
0.0
 20
0.0
 30
0.0
  0
VERTEX
  5
1C2
330
1C1
100
AcDbEntity
  8
Ebene 1
370
     0
100
AcDbVertex
100
AcDb2dVertex
 10
164.7368868945797
 20
-174.3673068140471
 30
0.0
  0
VERTEX
  5
1C3
330
1C1
100
AcDbEntity
  8
Ebene 1
370
     0
100
AcDbVertex
100
AcDb2dVertex
 10
164.1229708791082
 20
-175.1720811194014
 30
0.0
  0
VERTEX
  5
1C4
330
1C1
100
AcDbEntity
  8
Ebene 1
370
     0
100
AcDbVertex
100
AcDb2dVertex
 10
164.1229708791082
 20
-174.3673068140471
 30
0.0
  0
VERTEX
  5
1C5
330
1C1
100
AcDbEntity
  8
Ebene 1
370
     0
100
AcDbVertex
100
AcDb2dVertex
 10
164.7368868945797
 20
-174.3673068140471
 30
0.0
  0
SEQEND
  5
1C6
330
1C1
100
AcDbEntity
  8
Ebene 1
370
     0
  0
HATCH
  5
1C7
330
1F
100
AcDbEntity
  8
Ebene 1
 62
   179
420
  1709851
100
AcDbHatch
 10
0.0
 20
0.0
 30
0.0
210
0.0
220
0.0
230
1.0
  2
SOLID
 70
     1
 71
     0
 91
        1
 92
        1
 93
        3
 72
     1
 10
164.7368868945797
 20
-174.3673068140471
 11
164.1229708791082
 21
-175.1720811194014
 72
     1
 10
164.1229708791082
 20
-175.1720811194014
 11
164.1229708791082
 21
-174.3673068140471
 72
     1
 10
164.1229708791082
 20
-174.3673068140471
 11
164.7368868945797
 21
-174.3673068140471
 97
        0
 75
     2
 76
     1
 98
        0
  0
SPLINE
  5
1C8
330
1F
100
AcDbEntity
  8
Ebene 1
370
     0
100
AcDbSpline
210
0.0
220
0.0
230
1.0
 70
    27
 71
     3
 72
    11
 73
     7
 74
     0
 42
0.0000000001
 43
0.0000000001
 40
0.0
 40
0.0
 40
0.0
 40
0.0
 40
1.0
 40
1.0
 40
1.0
 40
2.0
 40
2.0
 40
2.0
 40
2.0
 10
168.8427516939004
 20
-171.8062228303124
 30
0.0
 10
168.8427516939004
 20
-171.8062228303124
 30
0.0
 10
168.8427516939004
 20
-170.0712727439405
 30
0.0
 10
168.8427516939004
 20
-170.0712727439405
 30
0.0
 10
168.8427516939004
 20
-170.0712727439405
 30
0.0
 10
168.8427516939004
 20
-171.8062228303124
 30
0.0
 10
168.8427516939004
 20
-171.8062228303124
 30
0.0
  0
HATCH
  5
1C9
330
1F
100
AcDbEntity
  8
Ebene 1
 62
   179
420
  1709851
100
AcDbHatch
 10
0.0
 20
0.0
 30
0.0
210
0.0
220
0.0
230
1.0
  2
SOLID
 70
     1
 71
     0
 91
        1
 92
        1
 93
        1
 72
     4
 94
        3
 73
     0
 74
     1
 95
       11
 96
        7
 40
0.0
 40
0.0
 40
0.0
 40
0.0
 40
1.0
 40
1.0
 40
1.0
 40
2.0
 40
2.0
 40
2.0
 40
2.0
 10
168.8427516939004
 20
-171.8062228303124
 10
168.8427516939004
 20
-171.8062228303124
 10
168.8427516939004
 20
-170.0712727439405
 10
168.8427516939004
 20
-170.0712727439405
 10
168.8427516939004
 20
-170.0712727439405
 10
168.8427516939004
 20
-171.8062228303124
 10
168.8427516939004
 20
-171.8062228303124
 97
        0
 75
     2
 76
     1
 98
        0
  0
POLYLINE
  5
1CA
330
1F
100
AcDbEntity
  8
Ebene 1
370
     0
100
AcDb2dPolyline
 66
     1
 10
0.0
 20
0.0
 30
0.0
  0
VERTEX
  5
1CB
330
1CA
100
AcDbEntity
  8
Ebene 1
370
     0
100
AcDbVertex
100
AcDb2dVertex
 10
169.3512477875233
 20
-169.5627766503177
 30
0.0
  0
VERTEX
  5
1CC
330
1CA
100
AcDbEntity
  8
Ebene 1
370
     0
100
AcDbVertex
100
AcDb2dVertex
 10
163.3609157577709
 20
-170.0705837248435
 30
0.0
  0
VERTEX
  5
1CD
330
1CA
100
AcDbEntity
  8
Ebene 1
370
     0
100
AcDbVertex
100
AcDb2dVertex
 10
163.3609157577709
 20
-169.5627766503177
 30
0.0
  0
VERTEX
  5
1CE
330
1CA
100
AcDbEntity
  8
Ebene 1
370
     0
100
AcDbVertex
100
AcDb2dVertex
 10
169.3512477875233
 20
-169.5627766503177
 30
0.0
  0
SEQEND
  5
1CF
330
1CA
100
AcDbEntity
  8
Ebene 1
370
     0
  0
HATCH
  5
1D0
330
1F
100
AcDbEntity
  8
Ebene 1
 62
   179
420
  1709851
100
AcDbHatch
 10
0.0
 20
0.0
 30
0.0
210
0.0
220
0.0
230
1.0
  2
SOLID
 70
     1
 71
     0
 91
        1
 92
        1
 93
        3
 72
     1
 10
169.3512477875233
 20
-169.5627766503177
 11
163.3609157577709
 21
-170.0705837248435
 72
     1
 10
163.3609157577709
 20
-170.0705837248435
 11
163.3609157577709
 21
-169.5627766503177
 72
     1
 10
163.3609157577709
 20
-169.5627766503177
 11
169.3512477875233
 21
-169.5627766503177
 97
        0
 75
     2
 76
     1
 98
        0
  0
POLYLINE
  5
1D1
330
1F
100
AcDbEntity
  8
Ebene 1
370
     0
100
AcDb2dPolyline
 66
     1
 10
0.0
 20
0.0
 30
0.0
  0
VERTEX
  5
1D2
330
1D1
100
AcDbEntity
  8
Ebene 1
370
     0
100
AcDbVertex
100
AcDb2dVertex
 10
163.3609157577709
 20
-170.0705837248435
 30
0.0
  0
VERTEX
  5
1D3
330
1D1
100
AcDbEntity
  8
Ebene 1
370
     0
100
AcDbVertex
100
AcDb2dVertex
 10
169.3509032779748
 20
-169.5627766503177
 30
0.0
  0
VERTEX
  5
1D4
330
1D1
100
AcDbEntity
  8
Ebene 1
370
     0
100
AcDbVertex
100
AcDb2dVertex
 10
164.1226263695596
 20
-170.0705837248435
 30
0.0
  0
VERTEX
  5
1D5
330
1D1
100
AcDbEntity
  8
Ebene 1
370
     0
100
AcDbVertex
100
AcDb2dVertex
 10
163.3609157577709
 20
-170.0705837248435
 30
0.0
  0
SEQEND
  5
1D6
330
1D1
100
AcDbEntity
  8
Ebene 1
370
     0
  0
HATCH
  5
1D7
330
1F
100
AcDbEntity
  8
Ebene 1
 62
   179
420
  1709851
100
AcDbHatch
 10
0.0
 20
0.0
 30
0.0
210
0.0
220
0.0
230
1.0
  2
SOLID
 70
     1
 71
     0
 91
        1
 92
        1
 93
        3
 72
     1
 10
163.3609157577709
 20
-170.0705837248435
 11
169.3509032779748
 21
-169.5627766503177
 72
     1
 10
169.3509032779748
 20
-169.5627766503177
 11
164.1226263695596
 21
-170.0705837248435
 72
     1
 10
164.1226263695596
 20
-170.0705837248435
 11
163.3609157577709
 21
-170.0705837248435
 97
        0
 75
     2
 76
     1
 98
        0
  0
POLYLINE
  5
1D8
330
1F
100
AcDbEntity
  8
Ebene 1
370
     0
100
AcDb2dPolyline
 66
     1
 10
0.0
 20
0.0
 30
0.0
  0
VERTEX
  5
1D9
330
1D8
100
AcDbEntity
  8
Ebene 1
370
     0
100
AcDbVertex
100
AcDb2dVertex
 10
164.1229708791082
 20
-170.0705837248435
 30
0.0
  0
VERTEX
  5
1DA
330
1D8
100
AcDbEntity
  8
Ebene 1
370
     0
100
AcDbVertex
100
AcDb2dVertex
 10
169.3509032779748
 20
-169.5627766503177
 30
0.0
  0
VERTEX
  5
1DB
330
1D8
100
AcDbEntity
  8
Ebene 1
370
     0
100
AcDbVertex
100
AcDb2dVertex
 10
164.7365423850312
 20
-170.0705837248435
 30
0.0
  0
VERTEX
  5
1DC
330
1D8
100
AcDbEntity
  8
Ebene 1
370
     0
100
AcDbVertex
100
AcDb2dVertex
 10
164.1229708791082
 20
-170.0705837248435
 30
0.0
  0
SEQEND
  5
1DD
330
1D8
100
AcDbEntity
  8
Ebene 1
370
     0
  0
HATCH
  5
1DE
330
1F
100
AcDbEntity
  8
Ebene 1
 62
   179
420
  1709851
100
AcDbHatch
 10
0.0
 20
0.0
 30
0.0
210
0.0
220
0.0
230
1.0
  2
SOLID
 70
     1
 71
     0
 91
        1
 92
        1
 93
        3
 72
     1
 10
164.1229708791082
 20
-170.0705837248435
 11
169.3509032779748
 21
-169.5627766503177
 72
     1
 10
169.3509032779748
 20
-169.5627766503177
 11
164.7365423850312
 21
-170.0705837248435
 72
     1
 10
164.7365423850312
 20
-170.0705837248435
 11
164.1229708791082
 21
-170.0705837248435
 97
        0
 75
     2
 76
     1
 98
        0
  0
POLYLINE
  5
1DF
330
1F
100
AcDbEntity
  8
Ebene 1
370
     0
100
AcDb2dPolyline
 66
     1
 10
0.0
 20
0.0
 30
0.0
  0
VERTEX
  5
1E0
330
1DF
100
AcDbEntity
  8
Ebene 1
370
     0
100
AcDbVertex
100
AcDb2dVertex
 10
164.1229708791082
 20
-170.0705837248435
 30
0.0
  0
VERTEX
  5
1E1
330
1DF
100
AcDbEntity
  8
Ebene 1
370
     0
100
AcDbVertex
100
AcDb2dVertex
 10
164.7365423850312
 20
-170.0705837248435
 30
0.0
  0
VERTEX
  5
1E2
330
1DF
100
AcDbEntity
  8
Ebene 1
370
     0
100
AcDbVertex
100
AcDb2dVertex
 10
164.1229708791082
 20
-170.8746690111008
 30
0.0
  0
VERTEX
  5
1E3
330
1DF
100
AcDbEntity
  8
Ebene 1
370
     0
100
AcDbVertex
100
AcDb2dVertex
 10
164.1229708791082
 20
-170.0705837248435
 30
0.0
  0
SEQEND
  5
1E4
330
1DF
100
AcDbEntity
  8
Ebene 1
370
     0
  0
HATCH
  5
1E5
330
1F
100
AcDbEntity
  8
Ebene 1
 62
   179
420
  1709851
100
AcDbHatch
 10
0.0
 20
0.0
 30
0.0
210
0.0
220
0.0
230
1.0
  2
SOLID
 70
     1
 71
     0
 91
        1
 92
        1
 93
        3
 72
     1
 10
164.1229708791082
 20
-170.0705837248435
 11
164.7365423850312
 21
-170.0705837248435
 72
     1
 10
164.7365423850312
 20
-170.0705837248435
 11
164.1229708791082
 21
-170.8746690111008
 72
     1
 10
164.1229708791082
 20
-170.8746690111008
 11
164.1229708791082
 21
-170.0705837248435
 97
        0
 75
     2
 76
     1
 98
        0
  0
POLYLINE
  5
1E6
330
1F
100
AcDbEntity
  8
Ebene 1
370
     0
100
AcDb2dPolyline
 66
     1
 10
0.0
 20
0.0
 30
0.0
  0
VERTEX
  5
1E7
330
1E6
100
AcDbEntity
  8
Ebene 1
370
     0
100
AcDbVertex
100
AcDb2dVertex
 10
164.7368868945797
 20
-170.0705837248435
 30
0.0
  0
VERTEX
  5
1E8
330
1E6
100
AcDbEntity
  8
Ebene 1
370
     0
100
AcDbVertex
100
AcDb2dVertex
 10
169.3512477875233
 20
-169.5627766503177
 30
0.0
  0
VERTEX
  5
1E9
330
1E6
100
AcDbEntity
  8
Ebene 1
370
     0
100
AcDbVertex
100
AcDb2dVertex
 10
166.3877766511114
 20
-170.0705837248435
 30
0.0
  0
VERTEX
  5
1EA
330
1E6
100
AcDbEntity
  8
Ebene 1
370
     0
100
AcDbVertex
100
AcDb2dVertex
 10
164.7368868945797
 20
-170.0705837248435
 30
0.0
  0
SEQEND
  5
1EB
330
1E6
100
AcDbEntity
  8
Ebene 1
370
     0
  0
HATCH
  5
1EC
330
1F
100
AcDbEntity
  8
Ebene 1
 62
   179
420
  1709851
100
AcDbHatch
 10
0.0
 20
0.0
 30
0.0
210
0.0
220
0.0
230
1.0
  2
SOLID
 70
     1
 71
     0
 91
        1
 92
        1
 93
        3
 72
     1
 10
164.7368868945797
 20
-170.0705837248435
 11
169.3512477875233
 21
-169.5627766503177
 72
     1
 10
169.3512477875233
 20
-169.5627766503177
 11
166.3877766511114
 21
-170.0705837248435
 72
     1
 10
166.3877766511114
 20
-170.0705837248435
 11
164.7368868945797
 21
-170.0705837248435
 97
        0
 75
     2
 76
     1
 98
        0
  0
POLYLINE
  5
1ED
330
1F
100
AcDbEntity
  8
Ebene 1
370
     0
100
AcDb2dPolyline
 66
     1
 10
0.0
 20
0.0
 30
0.0
  0
VERTEX
  5
1EE
330
1ED
100
AcDbEntity
  8
Ebene 1
370
     0
100
AcDbVertex
100
AcDb2dVertex
 10
166.3877766511114
 20
-170.0705837248435
 30
0.0
  0
VERTEX
  5
1EF
330
1ED
100
AcDbEntity
  8
Ebene 1
370
     0
100
AcDbVertex
100
AcDb2dVertex
 10
169.3509032779748
 20
-169.5627766503177
 30
0.0
  0
VERTEX
  5
1F0
330
1ED
100
AcDbEntity
  8
Ebene 1
370
     0
100
AcDbVertex
100
AcDb2dVertex
 10
167.1918619373687
 20
-170.0705837248435
 30
0.0
  0
VERTEX
  5
1F1
330
1ED
100
AcDbEntity
  8
Ebene 1
370
     0
100
AcDbVertex
100
AcDb2dVertex
 10
166.3877766511114
 20
-170.0705837248435
 30
0.0
  0
SEQEND
  5
1F2
330
1ED
100
AcDbEntity
  8
Ebene 1
370
     0
  0
HATCH
  5
1F3
330
1F
100
AcDbEntity
  8
Ebene 1
 62
   179
420
  1709851
100
AcDbHatch
 10
0.0
 20
0.0
 30
0.0
210
0.0
220
0.0
230
1.0
  2
SOLID
 70
     1
 71
     0
 91
        1
 92
        1
 93
        3
 72
     1
 10
166.3877766511114
 20
-170.0705837248435
 11
169.3509032779748
 21
-169.5627766503177
 72
     1
 10
169.3509032779748
 20
-169.5627766503177
 11
167.1918619373687
 21
-170.0705837248435
 72
     1
 10
167.1918619373687
 20
-170.0705837248435
 11
166.3877766511114
 21
-170.0705837248435
 97
        0
 75
     2
 76
     1
 98
        0
  0
POLYLINE
  5
1F4
330
1F
100
AcDbEntity
  8
Ebene 1
370
     0
100
AcDb2dPolyline
 66
     1
 10
0.0
 20
0.0
 30
0.0
  0
VERTEX
  5
1F5
330
1F4
100
AcDbEntity
  8
Ebene 1
370
     0
100
AcDbVertex
100
AcDb2dVertex
 10
167.1922064469172
 20
-170.0705837248435
 30
0.0
  0
VERTEX
  5
1F6
330
1F4
100
AcDbEntity
  8
Ebene 1
370
     0
100
AcDbVertex
100
AcDb2dVertex
 10
169.3509032779748
 20
-169.5627766503177
 30
0.0
  0
VERTEX
  5
1F7
330
1F4
100
AcDbEntity
  8
Ebene 1
370
     0
100
AcDbVertex
100
AcDb2dVertex
 10
168.843096203449
 20
-170.0705837248435
 30
0.0
  0
VERTEX
  5
1F8
330
1F4
100
AcDbEntity
  8
Ebene 1
370
     0
100
AcDbVertex
100
AcDb2dVertex
 10
167.1922064469172
 20
-170.0705837248435
 30
0.0
  0
SEQEND
  5
1F9
330
1F4
100
AcDbEntity
  8
Ebene 1
370
     0
  0
HATCH
  5
1FA
330
1F
100
AcDbEntity
  8
Ebene 1
 62
   179
420
  1709851
100
AcDbHatch
 10
0.0
 20
0.0
 30
0.0
210
0.0
220
0.0
230
1.0
  2
SOLID
 70
     1
 71
     0
 91
        1
 92
        1
 93
        3
 72
     1
 10
167.1922064469172
 20
-170.0705837248435
 11
169.3509032779748
 21
-169.5627766503177
 72
     1
 10
169.3509032779748
 20
-169.5627766503177
 11
168.843096203449
 21
-170.0705837248435
 72
     1
 10
168.843096203449
 20
-170.0705837248435
 11
167.1922064469172
 21
-170.0705837248435
 97
        0
 75
     2
 76
     1
 98
        0
  0
POLYLINE
  5
1FB
330
1F
100
AcDbEntity
  8
Ebene 1
370
     0
100
AcDb2dPolyline
 66
     1
 10
0.0
 20
0.0
 30
0.0
  0
VERTEX
  5
1FC
330
1FB
100
AcDbEntity
  8
Ebene 1
370
     0
100
AcDbVertex
100
AcDb2dVertex
 10
168.843096203449
 20
-170.0705837248435
 30
0.0
  0
VERTEX
  5
1FD
330
1FB
100
AcDbEntity
  8
Ebene 1
370
     0
100
AcDbVertex
100
AcDb2dVertex
 10
169.3509032779748
 20
-169.5627766503177
 30
0.0
  0
VERTEX
  5
1FE
330
1FB
100
AcDbEntity
  8
Ebene 1
370
     0
100
AcDbVertex
100
AcDb2dVertex
 10
168.843096203449
 20
-172.6109971356667
 30
0.0
  0
VERTEX
  5
1FF
330
1FB
100
AcDbEntity
  8
Ebene 1
370
     0
100
AcDbVertex
100
AcDb2dVertex
 10
168.843096203449
 20
-170.0705837248435
 30
0.0
  0
SEQEND
  5
200
330
1FB
100
AcDbEntity
  8
Ebene 1
370
     0
  0
HATCH
  5
201
330
1F
100
AcDbEntity
  8
Ebene 1
 62
   179
420
  1709851
100
AcDbHatch
 10
0.0
 20
0.0
 30
0.0
210
0.0
220
0.0
230
1.0
  2
SOLID
 70
     1
 71
     0
 91
        1
 92
        1
 93
        3
 72
     1
 10
168.843096203449
 20
-170.0705837248435
 11
169.3509032779748
 21
-169.5627766503177
 72
     1
 10
169.3509032779748
 20
-169.5627766503177
 11
168.843096203449
 21
-172.6109971356667
 72
     1
 10
168.843096203449
 20
-172.6109971356667
 11
168.843096203449
 21
-170.0705837248435
 97
        0
 75
     2
 76
     1
 98
        0
  0
POLYLINE
  5
202
330
1F
100
AcDbEntity
  8
Ebene 1
370
     0
100
AcDb2dPolyline
 66
     1
 10
0.0
 20
0.0
 30
0.0
  0
VERTEX
  5
203
330
202
100
AcDbEntity
  8
Ebene 1
370
     0
100
AcDbVertex
100
AcDb2dVertex
 10
168.843096203449
 20
-172.6109971356667
 30
0.0
  0
VERTEX
  5
204
330
202
100
AcDbEntity
  8
Ebene 1
370
     0
100
AcDbVertex
100
AcDb2dVertex
 10
169.3509032779748
 20
-169.5627766503177
 30
0.0
  0
VERTEX
  5
205
330
202
100
AcDbEntity
  8
Ebene 1
370
     0
100
AcDbVertex
100
AcDb2dVertex
 10
168.843096203449
 20
-173.4364420139326
 30
0.0
  0
VERTEX
  5
206
330
202
100
AcDbEntity
  8
Ebene 1
370
     0
100
AcDbVertex
100
AcDb2dVertex
 10
168.843096203449
 20
-172.6109971356667
 30
0.0
  0
SEQEND
  5
207
330
202
100
AcDbEntity
  8
Ebene 1
370
     0
  0
HATCH
  5
208
330
1F
100
AcDbEntity
  8
Ebene 1
 62
   179
420
  1709851
100
AcDbHatch
 10
0.0
 20
0.0
 30
0.0
210
0.0
220
0.0
230
1.0
  2
SOLID
 70
     1
 71
     0
 91
        1
 92
        1
 93
        3
 72
     1
 10
168.843096203449
 20
-172.6109971356667
 11
169.3509032779748
 21
-169.5627766503177
 72
     1
 10
169.3509032779748
 20
-169.5627766503177
 11
168.843096203449
 21
-173.4364420139326
 72
     1
 10
168.843096203449
 20
-173.4364420139326
 11
168.843096203449
 21
-172.6109971356667
 97
        0
 75
     2
 76
     1
 98
        0
  0
POLYLINE
  5
209
330
1F
100
AcDbEntity
  8
Ebene 1
370
     0
100
AcDb2dPolyline
 66
     1
 10
0.0
 20
0.0
 30
0.0
  0
VERTEX
  5
20A
330
209
100
AcDbEntity
  8
Ebene 1
370
     0
100
AcDbVertex
100
AcDb2dVertex
 10
168.843096203449
 20
-173.4364420139326
 30
0.0
  0
VERTEX
  5
20B
330
209
100
AcDbEntity
  8
Ebene 1
370
     0
100
AcDbVertex
100
AcDb2dVertex
 10
169.3509032779748
 20
-169.5627766503177
 30
0.0
  0
VERTEX
  5
20C
330
209
100
AcDbEntity
  8
Ebene 1
370
     0
100
AcDbVertex
100
AcDb2dVertex
 10
168.843096203449
 20
-175.1720811194014
 30
0.0
  0
VERTEX
  5
20D
330
209
100
AcDbEntity
  8
Ebene 1
370
     0
100
AcDbVertex
100
AcDb2dVertex
 10
168.843096203449
 20
-173.4364420139326
 30
0.0
  0
SEQEND
  5
20E
330
209
100
AcDbEntity
  8
Ebene 1
370
     0
  0
HATCH
  5
20F
330
1F
100
AcDbEntity
  8
Ebene 1
 62
   179
420
  1709851
100
AcDbHatch
 10
0.0
 20
0.0
 30
0.0
210
0.0
220
0.0
230
1.0
  2
SOLID
 70
     1
 71
     0
 91
        1
 92
        1
 93
        3
 72
     1
 10
168.843096203449
 20
-173.4364420139326
 11
169.3509032779748
 21
-169.5627766503177
 72
     1
 10
169.3509032779748
 20
-169.5627766503177
 11
168.843096203449
 21
-175.1720811194014
 72
     1
 10
168.843096203449
 20
-175.1720811194014
 11
168.843096203449
 21
-173.4364420139326
 97
        0
 75
     2
 76
     1
 98
        0
  0
POLYLINE
  5
210
330
1F
100
AcDbEntity
  8
Ebene 1
370
     0
100
AcDb2dPolyline
 66
     1
 10
0.0
 20
0.0
 30
0.0
  0
VERTEX
  5
211
330
210
100
AcDbEntity
  8
Ebene 1
370
     0
100
AcDbVertex
100
AcDb2dVertex
 10
164.1229708791082
 20
-175.1720811194014
 30
0.0
  0
VERTEX
  5
212
330
210
100
AcDbEntity
  8
Ebene 1
370
     0
100
AcDbVertex
100
AcDb2dVertex
 10
163.3609157577709
 20
-175.6585286019187
 30
0.0
  0
VERTEX
  5
213
330
210
100
AcDbEntity
  8
Ebene 1
370
     0
100
AcDbVertex
100
AcDb2dVertex
 10
163.3609157577709
 20
-175.1720811194014
 30
0.0
  0
VERTEX
  5
214
330
210
100
AcDbEntity
  8
Ebene 1
370
     0
100
AcDbVertex
100
AcDb2dVertex
 10
164.1229708791082
 20
-175.1720811194014
 30
0.0
  0
SEQEND
  5
215
330
210
100
AcDbEntity
  8
Ebene 1
370
     0
  0
HATCH
  5
216
330
1F
100
AcDbEntity
  8
Ebene 1
 62
   179
420
  1709851
100
AcDbHatch
 10
0.0
 20
0.0
 30
0.0
210
0.0
220
0.0
230
1.0
  2
SOLID
 70
     1
 71
     0
 91
        1
 92
        1
 93
        3
 72
     1
 10
164.1229708791082
 20
-175.1720811194014
 11
163.3609157577709
 21
-175.6585286019187
 72
     1
 10
163.3609157577709
 20
-175.6585286019187
 11
163.3609157577709
 21
-175.1720811194014
 72
     1
 10
163.3609157577709
 20
-175.1720811194014
 11
164.1229708791082
 21
-175.1720811194014
 97
        0
 75
     2
 76
     1
 98
        0
  0
POLYLINE
  5
217
330
1F
100
AcDbEntity
  8
Ebene 1
370
     0
100
AcDb2dPolyline
 66
     1
 10
0.0
 20
0.0
 30
0.0
  0
VERTEX
  5
218
330
217
100
AcDbEntity
  8
Ebene 1
370
     0
100
AcDbVertex
100
AcDb2dVertex
 10
163.3609157577709
 20
-175.6585286019187
 30
0.0
  0
VERTEX
  5
219
330
217
100
AcDbEntity
  8
Ebene 1
370
     0
100
AcDbVertex
100
AcDb2dVertex
 10
164.1226263695596
 20
-175.1720811194014
 30
0.0
  0
VERTEX
  5
21A
330
217
100
AcDbEntity
  8
Ebene 1
370
     0
100
AcDbVertex
100
AcDb2dVertex
 10
169.3509032779748
 20
-175.6585286019187
 30
0.0
  0
VERTEX
  5
21B
330
217
100
AcDbEntity
  8
Ebene 1
370
     0
100
AcDbVertex
100
AcDb2dVertex
 10
163.3609157577709
 20
-175.6585286019187
 30
0.0
  0
SEQEND
  5
21C
330
217
100
AcDbEntity
  8
Ebene 1
370
     0
  0
HATCH
  5
21D
330
1F
100
AcDbEntity
  8
Ebene 1
 62
   179
420
  1709851
100
AcDbHatch
 10
0.0
 20
0.0
 30
0.0
210
0.0
220
0.0
230
1.0
  2
SOLID
 70
     1
 71
     0
 91
        1
 92
        1
 93
        3
 72
     1
 10
163.3609157577709
 20
-175.6585286019187
 11
164.1226263695596
 21
-175.1720811194014
 72
     1
 10
164.1226263695596
 20
-175.1720811194014
 11
169.3509032779748
 21
-175.6585286019187
 72
     1
 10
169.3509032779748
 20
-175.6585286019187
 11
163.3609157577709
 21
-175.6585286019187
 97
        0
 75
     2
 76
     1
 98
        0
  0
POLYLINE
  5
21E
330
1F
100
AcDbEntity
  8
Ebene 1
370
     0
100
AcDb2dPolyline
 66
     1
 10
0.0
 20
0.0
 30
0.0
  0
VERTEX
  5
21F
330
21E
100
AcDbEntity
  8
Ebene 1
370
     0
100
AcDbVertex
100
AcDb2dVertex
 10
169.3512477875233
 20
-175.6585286019187
 30
0.0
  0
VERTEX
  5
220
330
21E
100
AcDbEntity
  8
Ebene 1
370
     0
100
AcDbVertex
100
AcDb2dVertex
 10
164.1229708791082
 20
-175.1720811194014
 30
0.0
  0
VERTEX
  5
221
330
21E
100
AcDbEntity
  8
Ebene 1
370
     0
100
AcDbVertex
100
AcDb2dVertex
 10
164.7368868945797
 20
-175.1720811194014
 30
0.0
  0
VERTEX
  5
222
330
21E
100
AcDbEntity
  8
Ebene 1
370
     0
100
AcDbVertex
100
AcDb2dVertex
 10
169.3512477875233
 20
-175.6585286019187
 30
0.0
  0
SEQEND
  5
223
330
21E
100
AcDbEntity
  8
Ebene 1
370
     0
  0
HATCH
  5
224
330
1F
100
AcDbEntity
  8
Ebene 1
 62
   179
420
  1709851
100
AcDbHatch
 10
0.0
 20
0.0
 30
0.0
210
0.0
220
0.0
230
1.0
  2
SOLID
 70
     1
 71
     0
 91
        1
 92
        1
 93
        3
 72
     1
 10
169.3512477875233
 20
-175.6585286019187
 11
164.1229708791082
 21
-175.1720811194014
 72
     1
 10
164.1229708791082
 20
-175.1720811194014
 11
164.7368868945797
 21
-175.1720811194014
 72
     1
 10
164.7368868945797
 20
-175.1720811194014
 11
169.3512477875233
 21
-175.6585286019187
 97
        0
 75
     2
 76
     1
 98
        0
  0
POLYLINE
  5
225
330
1F
100
AcDbEntity
  8
Ebene 1
370
     0
100
AcDb2dPolyline
 66
     1
 10
0.0
 20
0.0
 30
0.0
  0
VERTEX
  5
226
330
225
100
AcDbEntity
  8
Ebene 1
370
     0
100
AcDbVertex
100
AcDb2dVertex
 10
164.7368868945797
 20
-175.1720811194014
 30
0.0
  0
VERTEX
  5
227
330
225
100
AcDbEntity
  8
Ebene 1
370
     0
100
AcDbVertex
100
AcDb2dVertex
 10
164.1229708791082
 20
-175.1720811194014
 30
0.0
  0
VERTEX
  5
228
330
225
100
AcDbEntity
  8
Ebene 1
370
     0
100
AcDbVertex
100
AcDb2dVertex
 10
164.7368868945797
 20
-174.3679958331441
 30
0.0
  0
VERTEX
  5
229
330
225
100
AcDbEntity
  8
Ebene 1
370
     0
100
AcDbVertex
100
AcDb2dVertex
 10
164.7368868945797
 20
-175.1720811194014
 30
0.0
  0
SEQEND
  5
22A
330
225
100
AcDbEntity
  8
Ebene 1
370
     0
  0
HATCH
  5
22B
330
1F
100
AcDbEntity
  8
Ebene 1
 62
   179
420
  1709851
100
AcDbHatch
 10
0.0
 20
0.0
 30
0.0
210
0.0
220
0.0
230
1.0
  2
SOLID
 70
     1
 71
     0
 91
        1
 92
        1
 93
        3
 72
     1
 10
164.7368868945797
 20
-175.1720811194014
 11
164.1229708791082
 21
-175.1720811194014
 72
     1
 10
164.1229708791082
 20
-175.1720811194014
 11
164.7368868945797
 21
-174.3679958331441
 72
     1
 10
164.7368868945797
 20
-174.3679958331441
 11
164.7368868945797
 21
-175.1720811194014
 97
        0
 75
     2
 76
     1
 98
        0
  0
POLYLINE
  5
22C
330
1F
100
AcDbEntity
  8
Ebene 1
370
     0
100
AcDb2dPolyline
 66
     1
 10
0.0
 20
0.0
 30
0.0
  0
VERTEX
  5
22D
330
22C
100
AcDbEntity
  8
Ebene 1
370
     0
100
AcDbVertex
100
AcDb2dVertex
 10
169.3512477875233
 20
-175.6585286019187
 30
0.0
  0
VERTEX
  5
22E
330
22C
100
AcDbEntity
  8
Ebene 1
370
     0
100
AcDbVertex
100
AcDb2dVertex
 10
164.7368868945797
 20
-175.1720811194014
 30
0.0
  0
VERTEX
  5
22F
330
22C
100
AcDbEntity
  8
Ebene 1
370
     0
100
AcDbVertex
100
AcDb2dVertex
 10
166.3877766511114
 20
-175.1720811194014
 30
0.0
  0
VERTEX
  5
230
330
22C
100
AcDbEntity
  8
Ebene 1
370
     0
100
AcDbVertex
100
AcDb2dVertex
 10
169.3512477875233
 20
-175.6585286019187
 30
0.0
  0
SEQEND
  5
231
330
22C
100
AcDbEntity
  8
Ebene 1
370
     0
  0
HATCH
  5
232
330
1F
100
AcDbEntity
  8
Ebene 1
 62
   179
420
  1709851
100
AcDbHatch
 10
0.0
 20
0.0
 30
0.0
210
0.0
220
0.0
230
1.0
  2
SOLID
 70
     1
 71
     0
 91
        1
 92
        1
 93
        3
 72
     1
 10
169.3512477875233
 20
-175.6585286019187
 11
164.7368868945797
 21
-175.1720811194014
 72
     1
 10
164.7368868945797
 20
-175.1720811194014
 11
166.3877766511114
 21
-175.1720811194014
 72
     1
 10
166.3877766511114
 20
-175.1720811194014
 11
169.3512477875233
 21
-175.6585286019187
 97
        0
 75
     2
 76
     1
 98
        0
  0
POLYLINE
  5
233
330
1F
100
AcDbEntity
  8
Ebene 1
370
     0
100
AcDb2dPolyline
 66
     1
 10
0.0
 20
0.0
 30
0.0
  0
VERTEX
  5
234
330
233
100
AcDbEntity
  8
Ebene 1
370
     0
100
AcDbVertex
100
AcDb2dVertex
 10
169.3512477875233
 20
-175.6585286019187
 30
0.0
  0
VERTEX
  5
235
330
233
100
AcDbEntity
  8
Ebene 1
370
     0
100
AcDbVertex
100
AcDb2dVertex
 10
166.3877766511114
 20
-175.1720811194014
 30
0.0
  0
VERTEX
  5
236
330
233
100
AcDbEntity
  8
Ebene 1
370
     0
100
AcDbVertex
100
AcDb2dVertex
 10
167.1922064469172
 20
-175.1720811194014
 30
0.0
  0
VERTEX
  5
237
330
233
100
AcDbEntity
  8
Ebene 1
370
     0
100
AcDbVertex
100
AcDb2dVertex
 10
169.3512477875233
 20
-175.6585286019187
 30
0.0
  0
SEQEND
  5
238
330
233
100
AcDbEntity
  8
Ebene 1
370
     0
  0
HATCH
  5
239
330
1F
100
AcDbEntity
  8
Ebene 1
 62
   179
420
  1709851
100
AcDbHatch
 10
0.0
 20
0.0
 30
0.0
210
0.0
220
0.0
230
1.0
  2
SOLID
 70
     1
 71
     0
 91
        1
 92
        1
 93
        3
 72
     1
 10
169.3512477875233
 20
-175.6585286019187
 11
166.3877766511114
 21
-175.1720811194014
 72
     1
 10
166.3877766511114
 20
-175.1720811194014
 11
167.1922064469172
 21
-175.1720811194014
 72
     1
 10
167.1922064469172
 20
-175.1720811194014
 11
169.3512477875233
 21
-175.6585286019187
 97
        0
 75
     2
 76
     1
 98
        0
  0
POLYLINE
  5
23A
330
1F
100
AcDbEntity
  8
Ebene 1
370
     0
100
AcDb2dPolyline
 66
     1
 10
0.0
 20
0.0
 30
0.0
  0
VERTEX
  5
23B
330
23A
100
AcDbEntity
  8
Ebene 1
370
     0
100
AcDbVertex
100
AcDb2dVertex
 10
167.1922064469172
 20
-175.1720811194014
 30
0.0
  0
VERTEX
  5
23C
330
23A
100
AcDbEntity
  8
Ebene 1
370
     0
100
AcDbVertex
100
AcDb2dVertex
 10
166.3877766511114
 20
-175.1720811194014
 30
0.0
  0
VERTEX
  5
23D
330
23A
100
AcDbEntity
  8
Ebene 1
370
     0
100
AcDbVertex
100
AcDb2dVertex
 10
166.3877766511114
 20
-174.3679958331441
 30
0.0
  0
VERTEX
  5
23E
330
23A
100
AcDbEntity
  8
Ebene 1
370
     0
100
AcDbVertex
100
AcDb2dVertex
 10
167.1922064469172
 20
-175.1720811194014
 30
0.0
  0
SEQEND
  5
23F
330
23A
100
AcDbEntity
  8
Ebene 1
370
     0
  0
HATCH
  5
240
330
1F
100
AcDbEntity
  8
Ebene 1
 62
   179
420
  1709851
100
AcDbHatch
 10
0.0
 20
0.0
 30
0.0
210
0.0
220
0.0
230
1.0
  2
SOLID
 70
     1
 71
     0
 91
        1
 92
        1
 93
        3
 72
     1
 10
167.1922064469172
 20
-175.1720811194014
 11
166.3877766511114
 21
-175.1720811194014
 72
     1
 10
166.3877766511114
 20
-175.1720811194014
 11
166.3877766511114
 21
-174.3679958331441
 72
     1
 10
166.3877766511114
 20
-174.3679958331441
 11
167.1922064469172
 21
-175.1720811194014
 97
        0
 75
     2
 76
     1
 98
        0
  0
POLYLINE
  5
241
330
1F
100
AcDbEntity
  8
Ebene 1
370
     0
100
AcDb2dPolyline
 66
     1
 10
0.0
 20
0.0
 30
0.0
  0
VERTEX
  5
242
330
241
100
AcDbEntity
  8
Ebene 1
370
     0
100
AcDbVertex
100
AcDb2dVertex
 10
167.1922064469172
 20
-175.1720811194014
 30
0.0
  0
VERTEX
  5
243
330
241
100
AcDbEntity
  8
Ebene 1
370
     0
100
AcDbVertex
100
AcDb2dVertex
 10
166.3877766511114
 20
-174.3679958331441
 30
0.0
  0
VERTEX
  5
244
330
241
100
AcDbEntity
  8
Ebene 1
370
     0
100
AcDbVertex
100
AcDb2dVertex
 10
167.1922064469172
 20
-174.3679958331441
 30
0.0
  0
VERTEX
  5
245
330
241
100
AcDbEntity
  8
Ebene 1
370
     0
100
AcDbVertex
100
AcDb2dVertex
 10
167.1922064469172
 20
-175.1720811194014
 30
0.0
  0
SEQEND
  5
246
330
241
100
AcDbEntity
  8
Ebene 1
370
     0
  0
HATCH
  5
247
330
1F
100
AcDbEntity
  8
Ebene 1
 62
   179
420
  1709851
100
AcDbHatch
 10
0.0
 20
0.0
 30
0.0
210
0.0
220
0.0
230
1.0
  2
SOLID
 70
     1
 71
     0
 91
        1
 92
        1
 93
        3
 72
     1
 10
167.1922064469172
 20
-175.1720811194014
 11
166.3877766511114
 21
-174.3679958331441
 72
     1
 10
166.3877766511114
 20
-174.3679958331441
 11
167.1922064469172
 21
-174.3679958331441
 72
     1
 10
167.1922064469172
 20
-174.3679958331441
 11
167.1922064469172
 21
-175.1720811194014
 97
        0
 75
     2
 76
     1
 98
        0
  0
POLYLINE
  5
248
330
1F
100
AcDbEntity
  8
Ebene 1
370
     0
100
AcDb2dPolyline
 66
     1
 10
0.0
 20
0.0
 30
0.0
  0
VERTEX
  5
249
330
248
100
AcDbEntity
  8
Ebene 1
370
     0
100
AcDbVertex
100
AcDb2dVertex
 10
169.3512477875233
 20
-175.6585286019187
 30
0.0
  0
VERTEX
  5
24A
330
248
100
AcDbEntity
  8
Ebene 1
370
     0
100
AcDbVertex
100
AcDb2dVertex
 10
167.1922064469172
 20
-175.1720811194014
 30
0.0
  0
VERTEX
  5
24B
330
248
100
AcDbEntity
  8
Ebene 1
370
     0
100
AcDbVertex
100
AcDb2dVertex
 10
168.843096203449
 20
-175.1720811194014
 30
0.0
  0
VERTEX
  5
24C
330
248
100
AcDbEntity
  8
Ebene 1
370
     0
100
AcDbVertex
100
AcDb2dVertex
 10
169.3512477875233
 20
-175.6585286019187
 30
0.0
  0
SEQEND
  5
24D
330
248
100
AcDbEntity
  8
Ebene 1
370
     0
  0
HATCH
  5
24E
330
1F
100
AcDbEntity
  8
Ebene 1
 62
   179
420
  1709851
100
AcDbHatch
 10
0.0
 20
0.0
 30
0.0
210
0.0
220
0.0
230
1.0
  2
SOLID
 70
     1
 71
     0
 91
        1
 92
        1
 93
        3
 72
     1
 10
169.3512477875233
 20
-175.6585286019187
 11
167.1922064469172
 21
-175.1720811194014
 72
     1
 10
167.1922064469172
 20
-175.1720811194014
 11
168.843096203449
 21
-175.1720811194014
 72
     1
 10
168.843096203449
 20
-175.1720811194014
 11
169.3512477875233
 21
-175.6585286019187
 97
        0
 75
     2
 76
     1
 98
        0
  0
POLYLINE
  5
24F
330
1F
100
AcDbEntity
  8
Ebene 1
370
     0
100
AcDb2dPolyline
 66
     1
 10
0.0
 20
0.0
 30
0.0
  0
VERTEX
  5
250
330
24F
100
AcDbEntity
  8
Ebene 1
370
     0
100
AcDbVertex
100
AcDb2dVertex
 10
169.3512477875233
 20
-175.6585286019187
 30
0.0
  0
VERTEX
  5
251
330
24F
100
AcDbEntity
  8
Ebene 1
370
     0
100
AcDbVertex
100
AcDb2dVertex
 10
168.843096203449
 20
-175.1720811194014
 30
0.0
  0
VERTEX
  5
252
330
24F
100
AcDbEntity
  8
Ebene 1
370
     0
100
AcDbVertex
100
AcDb2dVertex
 10
169.3512477875233
 20
-169.5627766503177
 30
0.0
  0
VERTEX
  5
253
330
24F
100
AcDbEntity
  8
Ebene 1
370
     0
100
AcDbVertex
100
AcDb2dVertex
 10
169.3512477875233
 20
-175.6585286019187
 30
0.0
  0
SEQEND
  5
254
330
24F
100
AcDbEntity
  8
Ebene 1
370
     0
  0
HATCH
  5
255
330
1F
100
AcDbEntity
  8
Ebene 1
 62
   179
420
  1709851
100
AcDbHatch
 10
0.0
 20
0.0
 30
0.0
210
0.0
220
0.0
230
1.0
  2
SOLID
 70
     1
 71
     0
 91
        1
 92
        1
 93
        3
 72
     1
 10
169.3512477875233
 20
-175.6585286019187
 11
168.843096203449
 21
-175.1720811194014
 72
     1
 10
168.843096203449
 20
-175.1720811194014
 11
169.3512477875233
 21
-169.5627766503177
 72
     1
 10
169.3512477875233
 20
-169.5627766503177
 11
169.3512477875233
 21
-175.6585286019187
 97
        0
 75
     2
 76
     1
 98
        0
  0
SPLINE
  5
256
330
1F
100
AcDbEntity
  8
Ebene 1
370
     0
100
AcDbSpline
210
0.0
220
0.0
230
1.0
 70
    27
 71
     3
 72
    11
 73
     7
 74
     0
 42
0.0000000001
 43
0.0000000001
 40
0.0
 40
0.0
 40
0.0
 40
0.0
 40
1.0
 40
1.0
 40
1.0
 40
2.0
 40
2.0
 40
2.0
 40
2.0
 10
168.8427516939004
 20
-173.4364420139326
 30
0.0
 10
168.8427516939004
 20
-173.4364420139326
 30
0.0
 10
168.8427516939004
 20
-172.6109971356667
 30
0.0
 10
168.8427516939004
 20
-172.6109971356667
 30
0.0
 10
168.8427516939004
 20
-172.6109971356667
 30
0.0
 10
168.8427516939004
 20
-173.4364420139326
 30
0.0
 10
168.8427516939004
 20
-173.4364420139326
 30
0.0
  0
HATCH
  5
257
330
1F
100
AcDbEntity
  8
Ebene 1
 62
   179
420
  1709851
100
AcDbHatch
 10
0.0
 20
0.0
 30
0.0
210
0.0
220
0.0
230
1.0
  2
SOLID
 70
     1
 71
     0
 91
        1
 92
        1
 93
        1
 72
     4
 94
        3
 73
     0
 74
     1
 95
       11
 96
        7
 40
0.0
 40
0.0
 40
0.0
 40
0.0
 40
1.0
 40
1.0
 40
1.0
 40
2.0
 40
2.0
 40
2.0
 40
2.0
 10
168.8427516939004
 20
-173.4364420139326
 10
168.8427516939004
 20
-173.4364420139326
 10
168.8427516939004
 20
-172.6109971356667
 10
168.8427516939004
 20
-172.6109971356667
 10
168.8427516939004
 20
-172.6109971356667
 10
168.8427516939004
 20
-173.4364420139326
 10
168.8427516939004
 20
-173.4364420139326
 97
        0
 75
     2
 76
     1
 98
        0
  0
SPLINE
  5
258
330
1F
100
AcDbEntity
  8
Ebene 1
370
     0
100
AcDbSpline
210
0.0
220
0.0
230
1.0
 70
    27
 71
     3
 72
    11
 73
     7
 74
     0
 42
0.0000000001
 43
0.0000000001
 40
0.0
 40
0.0
 40
0.0
 40
0.0
 40
1.0
 40
1.0
 40
1.0
 40
2.0
 40
2.0
 40
2.0
 40
2.0
 10
168.8427516939004
 20
-172.6109971356667
 30
0.0
 10
168.8427516939004
 20
-172.6109971356667
 30
0.0
 10
168.8427516939004
 20
-170.0712727439405
 30
0.0
 10
168.8427516939004
 20
-170.0712727439405
 30
0.0
 10
168.8427516939004
 20
-170.0712727439405
 30
0.0
 10
168.8427516939004
 20
-172.6109971356667
 30
0.0
 10
168.8427516939004
 20
-172.6109971356667
 30
0.0
  0
HATCH
  5
259
330
1F
100
AcDbEntity
  8
Ebene 1
 62
   179
420
  1709851
100
AcDbHatch
 10
0.0
 20
0.0
 30
0.0
210
0.0
220
0.0
230
1.0
  2
SOLID
 70
     1
 71
     0
 91
        1
 92
        1
 93
        1
 72
     4
 94
        3
 73
     0
 74
     1
 95
       11
 96
        7
 40
0.0
 40
0.0
 40
0.0
 40
0.0
 40
1.0
 40
1.0
 40
1.0
 40
2.0
 40
2.0
 40
2.0
 40
2.0
 10
168.8427516939004
 20
-172.6109971356667
 10
168.8427516939004
 20
-172.6109971356667
 10
168.8427516939004
 20
-170.0712727439405
 10
168.8427516939004
 20
-170.0712727439405
 10
168.8427516939004
 20
-170.0712727439405
 10
168.8427516939004
 20
-172.6109971356667
 10
168.8427516939004
 20
-172.6109971356667
 97
        0
 75
     2
 76
     1
 98
        0
  0
POLYLINE
  5
25A
330
1F
100
AcDbEntity
  8
Ebene 1
370
     0
100
AcDb2dPolyline
 66
     1
 10
0.0
 20
0.0
 30
0.0
  0
VERTEX
  5
25B
330
25A
100
AcDbEntity
  8
Ebene 1
370
     0
100
AcDbVertex
100
AcDb2dVertex
 10
166.3877766511114
 20
-170.0705837248435
 30
0.0
  0
VERTEX
  5
25C
330
25A
100
AcDbEntity
  8
Ebene 1
370
     0
100
AcDbVertex
100
AcDb2dVertex
 10
167.1918619373687
 20
-170.8746690111008
 30
0.0
  0
VERTEX
  5
25D
330
25A
100
AcDbEntity
  8
Ebene 1
370
     0
100
AcDbVertex
100
AcDb2dVertex
 10
166.3877766511114
 20
-170.8746690111008
 30
0.0
  0
VERTEX
  5
25E
330
25A
100
AcDbEntity
  8
Ebene 1
370
     0
100
AcDbVertex
100
AcDb2dVertex
 10
166.3877766511114
 20
-170.0705837248435
 30
0.0
  0
SEQEND
  5
25F
330
25A
100
AcDbEntity
  8
Ebene 1
370
     0
  0
HATCH
  5
260
330
1F
100
AcDbEntity
  8
Ebene 1
 62
   179
420
  1709851
100
AcDbHatch
 10
0.0
 20
0.0
 30
0.0
210
0.0
220
0.0
230
1.0
  2
SOLID
 70
     1
 71
     0
 91
        1
 92
        1
 93
        3
 72
     1
 10
166.3877766511114
 20
-170.0705837248435
 11
167.1918619373687
 21
-170.8746690111008
 72
     1
 10
167.1918619373687
 20
-170.8746690111008
 11
166.3877766511114
 21
-170.8746690111008
 72
     1
 10
166.3877766511114
 20
-170.8746690111008
 11
166.3877766511114
 21
-170.0705837248435
 97
        0
 75
     2
 76
     1
 98
        0
  0
POLYLINE
  5
261
330
1F
100
AcDbEntity
  8
Ebene 1
370
     0
100
AcDb2dPolyline
 66
     1
 10
0.0
 20
0.0
 30
0.0
  0
VERTEX
  5
262
330
261
100
AcDbEntity
  8
Ebene 1
370
     0
100
AcDbVertex
100
AcDb2dVertex
 10
167.1922064469172
 20
-170.8746690111008
 30
0.0
  0
VERTEX
  5
263
330
261
100
AcDbEntity
  8
Ebene 1
370
     0
100
AcDbVertex
100
AcDb2dVertex
 10
166.3877766511114
 20
-170.0712727439405
 30
0.0
  0
VERTEX
  5
264
330
261
100
AcDbEntity
  8
Ebene 1
370
     0
100
AcDbVertex
100
AcDb2dVertex
 10
167.1922064469172
 20
-170.0712727439405
 30
0.0
  0
VERTEX
  5
265
330
261
100
AcDbEntity
  8
Ebene 1
370
     0
100
AcDbVertex
100
AcDb2dVertex
 10
167.1922064469172
 20
-170.8746690111008
 30
0.0
  0
SEQEND
  5
266
330
261
100
AcDbEntity
  8
Ebene 1
370
     0
  0
HATCH
  5
267
330
1F
100
AcDbEntity
  8
Ebene 1
 62
   179
420
  1709851
100
AcDbHatch
 10
0.0
 20
0.0
 30
0.0
210
0.0
220
0.0
230
1.0
  2
SOLID
 70
     1
 71
     0
 91
        1
 92
        1
 93
        3
 72
     1
 10
167.1922064469172
 20
-170.8746690111008
 11
166.3877766511114
 21
-170.0712727439405
 72
     1
 10
166.3877766511114
 20
-170.0712727439405
 11
167.1922064469172
 21
-170.0712727439405
 72
     1
 10
167.1922064469172
 20
-170.0712727439405
 11
167.1922064469172
 21
-170.8746690111008
 97
        0
 75
     2
 76
     1
 98
        0
  0
POLYLINE
  5
268
330
1F
100
AcDbEntity
  8
Ebene 1
370
     0
100
AcDb2dPolyline
 66
     1
 10
0.0
 20
0.0
 30
0.0
  0
VERTEX
  5
269
330
268
100
AcDbEntity
  8
Ebene 1
370
     0
100
AcDbVertex
100
AcDb2dVertex
 10
164.7368868945797
 20
-170.8746690111008
 30
0.0
  0
VERTEX
  5
26A
330
268
100
AcDbEntity
  8
Ebene 1
370
     0
100
AcDbVertex
100
AcDb2dVertex
 10
164.1229708791082
 20
-170.8746690111008
 30
0.0
  0
VERTEX
  5
26B
330
268
100
AcDbEntity
  8
Ebene 1
370
     0
100
AcDbVertex
100
AcDb2dVertex
 10
164.7368868945797
 20
-170.0712727439405
 30
0.0
  0
VERTEX
  5
26C
330
268
100
AcDbEntity
  8
Ebene 1
370
     0
100
AcDbVertex
100
AcDb2dVertex
 10
164.7368868945797
 20
-170.8746690111008
 30
0.0
  0
SEQEND
  5
26D
330
268
100
AcDbEntity
  8
Ebene 1
370
     0
  0
HATCH
  5
26E
330
1F
100
AcDbEntity
  8
Ebene 1
 62
   179
420
  1709851
100
AcDbHatch
 10
0.0
 20
0.0
 30
0.0
210
0.0
220
0.0
230
1.0
  2
SOLID
 70
     1
 71
     0
 91
        1
 92
        1
 93
        3
 72
     1
 10
164.7368868945797
 20
-170.8746690111008
 11
164.1229708791082
 21
-170.8746690111008
 72
     1
 10
164.1229708791082
 20
-170.8746690111008
 11
164.7368868945797
 21
-170.0712727439405
 72
     1
 10
164.7368868945797
 20
-170.0712727439405
 11
164.7368868945797
 21
-170.8746690111008
 97
        0
 75
     2
 76
     1
 98
        0
  0
POLYLINE
  5
26F
330
1F
100
AcDbEntity
  8
Ebene 1
 62
   179
420
  1709851
370
    18
100
AcDb2dPolyline
 66
     1
 10
0.0
 20
0.0
 30
0.0
  0
VERTEX
  5
270
330
26F
100
AcDbEntity
  8
Ebene 1
 62
   179
420
  1709851
370
    18
100
AcDbVertex
100
AcDb2dVertex
 10
164.7579019770397
 20
-171.3831651047237
 30
0.0
  0
VERTEX
  5
271
330
26F
100
AcDbEntity
  8
Ebene 1
 62
   179
420
  1709851
370
    18
100
AcDbVertex
100
AcDb2dVertex
 10
166.0274196633543
 20
-170.1133029088606
 30
0.0
  0
SEQEND
  5
272
330
26F
100
AcDbEntity
  8
Ebene 1
370
    18
  0
POLYLINE
  5
273
330
1F
100
AcDbEntity
  8
Ebene 1
 62
   179
420
  1709851
370
    18
100
AcDb2dPolyline
 66
     1
 10
0.0
 20
0.0
 30
0.0
  0
VERTEX
  5
274
330
273
100
AcDbEntity
  8
Ebene 1
 62
   179
420
  1709851
370
    18
100
AcDbVertex
100
AcDb2dVertex
 10
164.7579019770397
 20
-172.8011664064525
 30
0.0
  0
VERTEX
  5
275
330
273
100
AcDbEntity
  8
Ebene 1
 62
   179
420
  1709851
370
    18
100
AcDbVertex
100
AcDb2dVertex
 10
166.3664170591028
 20
-171.2136664068494
 30
0.0
  0
SEQEND
  5
276
330
273
100
AcDbEntity
  8
Ebene 1
370
    18
  0
POLYLINE
  5
277
330
1F
100
AcDbEntity
  8
Ebene 1
 62
   179
420
  1709851
370
    18
100
AcDb2dPolyline
 66
     1
 10
0.0
 20
0.0
 30
0.0
  0
VERTEX
  5
278
330
277
100
AcDbEntity
  8
Ebene 1
 62
   179
420
  1709851
370
    18
100
AcDbVertex
100
AcDb2dVertex
 10
164.7579019770397
 20
-174.2191677081813
 30
0.0
  0
VERTEX
  5
279
330
277
100
AcDbEntity
  8
Ebene 1
 62
   179
420
  1709851
370
    18
100
AcDbVertex
100
AcDb2dVertex
 10
166.3664170591028
 20
-172.6109971356667
 30
0.0
  0
SEQEND
  5
27A
330
277
100
AcDbEntity
  8
Ebene 1
370
    18
  0
POLYLINE
  5
27B
330
1F
100
AcDbEntity
  8
Ebene 1
 62
   179
420
  1709851
370
    18
100
AcDb2dPolyline
 66
     1
 10
0.0
 20
0.0
 30
0.0
  0
VERTEX
  5
27C
330
27B
100
AcDbEntity
  8
Ebene 1
 62
   179
420
  1709851
370
    18
100
AcDbVertex
100
AcDb2dVertex
 10
165.2870686435741
 20
-175.1080023433758
 30
0.0
  0
VERTEX
  5
27D
330
27B
100
AcDbEntity
  8
Ebene 1
 62
   179
420
  1709851
370
    18
100
AcDbVertex
100
AcDb2dVertex
 10
166.3664170591028
 20
-174.0289984373955
 30
0.0
  0
SEQEND
  5
27E
330
27B
100
AcDbEntity
  8
Ebene 1
370
    18
  0
POLYLINE
  5
27F
330
1F
100
AcDbEntity
  8
Ebene 1
 62
   179
420
  1709851
370
    18
100
AcDb2dPolyline
 66
     1
 10
0.0
 20
0.0
 30
0.0
  0
VERTEX
  5
280
330
27F
100
AcDbEntity
  8
Ebene 1
 62
   179
420
  1709851
370
    18
100
AcDbVertex
100
AcDb2dVertex
 10
164.7579019770397
 20
-170.684499740315
 30
0.0
  0
VERTEX
  5
281
330
27F
100
AcDbEntity
  8
Ebene 1
 62
   179
420
  1709851
370
    18
100
AcDbVertex
100
AcDb2dVertex
 10
165.3294433180426
 20
-170.1133029088606
 30
0.0
  0
SEQEND
  5
282
330
27F
100
AcDbEntity
  8
Ebene 1
370
    18
  0
POLYLINE
  5
283
330
1F
100
AcDbEntity
  8
Ebene 1
 62
   179
420
  1709851
370
    18
100
AcDb2dPolyline
 66
     1
 10
0.0
 20
0.0
 30
0.0
  0
VERTEX
  5
284
330
283
100
AcDbEntity
  8
Ebene 1
 62
   179
420
  1709851
370
    18
100
AcDbVertex
100
AcDb2dVertex
 10
164.7579019770397
 20
-172.1025010420438
 30
0.0
  0
VERTEX
  5
285
330
283
100
AcDbEntity
  8
Ebene 1
 62
   179
420
  1709851
370
    18
100
AcDbVertex
100
AcDb2dVertex
 10
166.3664170591028
 20
-170.4943304695292
 30
0.0
  0
SEQEND
  5
286
330
283
100
AcDbEntity
  8
Ebene 1
370
    18
  0
POLYLINE
  5
287
330
1F
100
AcDbEntity
  8
Ebene 1
 62
   179
420
  1709851
370
    18
100
AcDb2dPolyline
 66
     1
 10
0.0
 20
0.0
 30
0.0
  0
VERTEX
  5
288
330
287
100
AcDbEntity
  8
Ebene 1
 62
   179
420
  1709851
370
    18
100
AcDbVertex
100
AcDb2dVertex
 10
164.7579019770397
 20
-173.5205023437726
 30
0.0
  0
VERTEX
  5
289
330
287
100
AcDbEntity
  8
Ebene 1
 62
   179
420
  1709851
370
    18
100
AcDbVertex
100
AcDb2dVertex
 10
166.3664170591028
 20
-171.912331771258
 30
0.0
  0
SEQEND
  5
28A
330
287
100
AcDbEntity
  8
Ebene 1
370
    18
  0
POLYLINE
  5
28B
330
1F
100
AcDbEntity
  8
Ebene 1
 62
   179
420
  1709851
370
    18
100
AcDb2dPolyline
 66
     1
 10
0.0
 20
0.0
 30
0.0
  0
VERTEX
  5
28C
330
28B
100
AcDbEntity
  8
Ebene 1
 62
   179
420
  1709851
370
    18
100
AcDbVertex
100
AcDb2dVertex
 10
164.7579019770397
 20
-174.91783307259
 30
0.0
  0
VERTEX
  5
28D
330
28B
100
AcDbEntity
  8
Ebene 1
 62
   179
420
  1709851
370
    18
100
AcDbVertex
100
AcDb2dVertex
 10
166.3664170591028
 20
-173.3303330729869
 30
0.0
  0
SEQEND
  5
28E
330
28B
100
AcDbEntity
  8
Ebene 1
370
    18
  0
POLYLINE
  5
28F
330
1F
100
AcDbEntity
  8
Ebene 1
 62
   179
420
  1709851
370
    18
100
AcDb2dPolyline
 66
     1
 10
0.0
 20
0.0
 30
0.0
  0
VERTEX
  5
290
330
28F
100
AcDbEntity
  8
Ebene 1
 62
   179
420
  1709851
370
    18
100
AcDbVertex
100
AcDb2dVertex
 10
165.9857340079827
 20
-175.1080023433758
 30
0.0
  0
VERTEX
  5
291
330
28F
100
AcDbEntity
  8
Ebene 1
 62
   179
420
  1709851
370
    18
100
AcDbVertex
100
AcDb2dVertex
 10
166.3664170591028
 20
-174.7483343747157
 30
0.0
  0
SEQEND
  5
292
330
28F
100
AcDbEntity
  8
Ebene 1
370
    18
  0
POLYLINE
  5
293
330
1F
100
AcDbEntity
  8
Ebene 1
370
     0
100
AcDb2dPolyline
 66
     1
 10
0.0
 20
0.0
 30
0.0
  0
VERTEX
  5
294
330
293
100
AcDbEntity
  8
Ebene 1
370
     0
100
AcDbVertex
100
AcDb2dVertex
 10
121.5140299175382
 20
-190.7294433116926
 30
0.0
  0
VERTEX
  5
295
330
293
100
AcDbEntity
  8
Ebene 1
370
     0
100
AcDbVertex
100
AcDb2dVertex
 10
120.7099446312808
 20
-192.3169433112958
 30
0.0
  0
VERTEX
  5
296
330
293
100
AcDbEntity
  8
Ebene 1
370
     0
100
AcDbVertex
100
AcDb2dVertex
 10
120.7099446312808
 20
-191.53352859795
 30
0.0
  0
VERTEX
  5
297
330
293
100
AcDbEntity
  8
Ebene 1
370
     0
100
AcDbVertex
100
AcDb2dVertex
 10
121.5140299175382
 20
-190.7294433116926
 30
0.0
  0
SEQEND
  5
298
330
293
100
AcDbEntity
  8
Ebene 1
370
     0
  0
HATCH
  5
299
330
1F
100
AcDbEntity
  8
Ebene 1
 62
   139
420
  4081750
100
AcDbHatch
 10
0.0
 20
0.0
 30
0.0
210
0.0
220
0.0
230
1.0
  2
SOLID
 70
     1
 71
     0
 91
        1
 92
        1
 93
        3
 72
     1
 10
121.5140299175382
 20
-190.7294433116926
 11
120.7099446312808
 21
-192.3169433112958
 72
     1
 10
120.7099446312808
 20
-192.3169433112958
 11
120.7099446312808
 21
-191.53352859795
 72
     1
 10
120.7099446312808
 20
-191.53352859795
 11
121.5140299175382
 21
-190.7294433116926
 97
        0
 75
     2
 76
     1
 98
        0
  0
POLYLINE
  5
29A
330
1F
100
AcDbEntity
  8
Ebene 1
370
     0
100
AcDb2dPolyline
 66
     1
 10
0.0
 20
0.0
 30
0.0
  0
VERTEX
  5
29B
330
29A
100
AcDbEntity
  8
Ebene 1
370
     0
100
AcDbVertex
100
AcDb2dVertex
 10
120.7099446312808
 20
-192.3169433112958
 30
0.0
  0
VERTEX
  5
29C
330
29A
100
AcDbEntity
  8
Ebene 1
370
     0
100
AcDbVertex
100
AcDb2dVertex
 10
121.5140299175382
 20
-190.7294433116926
 30
0.0
  0
VERTEX
  5
29D
330
29A
100
AcDbEntity
  8
Ebene 1
370
     0
100
AcDbVertex
100
AcDb2dVertex
 10
121.112331783958
 20
-192.3169433112958
 30
0.0
  0
VERTEX
  5
29E
330
29A
100
AcDbEntity
  8
Ebene 1
370
     0
100
AcDbVertex
100
AcDb2dVertex
 10
120.7099446312808
 20
-192.3169433112958
 30
0.0
  0
SEQEND
  5
29F
330
29A
100
AcDbEntity
  8
Ebene 1
370
     0
  0
HATCH
  5
2A0
330
1F
100
AcDbEntity
  8
Ebene 1
 62
   139
420
  4081750
100
AcDbHatch
 10
0.0
 20
0.0
 30
0.0
210
0.0
220
0.0
230
1.0
  2
SOLID
 70
     1
 71
     0
 91
        1
 92
        1
 93
        3
 72
     1
 10
120.7099446312808
 20
-192.3169433112958
 11
121.5140299175382
 21
-190.7294433116926
 72
     1
 10
121.5140299175382
 20
-190.7294433116926
 11
121.112331783958
 21
-192.3169433112958
 72
     1
 10
121.112331783958
 20
-192.3169433112958
 11
120.7099446312808
 21
-192.3169433112958
 97
        0
 75
     2
 76
     1
 98
        0
  0
POLYLINE
  5
2A1
330
1F
100
AcDbEntity
  8
Ebene 1
370
     0
100
AcDb2dPolyline
 66
     1
 10
0.0
 20
0.0
 30
0.0
  0
VERTEX
  5
2A2
330
2A1
100
AcDbEntity
  8
Ebene 1
370
     0
100
AcDbVertex
100
AcDb2dVertex
 10
121.112331783958
 20
-192.3169433112958
 30
0.0
  0
VERTEX
  5
2A3
330
2A1
100
AcDbEntity
  8
Ebene 1
370
     0
100
AcDbVertex
100
AcDb2dVertex
 10
121.5143744270867
 20
-190.7294433116926
 30
0.0
  0
VERTEX
  5
2A4
330
2A1
100
AcDbEntity
  8
Ebene 1
370
     0
100
AcDbVertex
100
AcDb2dVertex
 10
121.112331783958
 20
-201.3341362343887
 30
0.0
  0
VERTEX
  5
2A5
330
2A1
100
AcDbEntity
  8
Ebene 1
370
     0
100
AcDbVertex
100
AcDb2dVertex
 10
121.112331783958
 20
-192.3169433112958
 30
0.0
  0
SEQEND
  5
2A6
330
2A1
100
AcDbEntity
  8
Ebene 1
370
     0
  0
HATCH
  5
2A7
330
1F
100
AcDbEntity
  8
Ebene 1
 62
   139
420
  4081750
100
AcDbHatch
 10
0.0
 20
0.0
 30
0.0
210
0.0
220
0.0
230
1.0
  2
SOLID
 70
     1
 71
     0
 91
        1
 92
        1
 93
        3
 72
     1
 10
121.112331783958
 20
-192.3169433112958
 11
121.5143744270867
 21
-190.7294433116926
 72
     1
 10
121.5143744270867
 20
-190.7294433116926
 11
121.112331783958
 21
-201.3341362343887
 72
     1
 10
121.112331783958
 20
-201.3341362343887
 11
121.112331783958
 21
-192.3169433112958
 97
        0
 75
     2
 76
     1
 98
        0
  0
POLYLINE
  5
2A8
330
1F
100
AcDbEntity
  8
Ebene 1
370
     0
100
AcDb2dPolyline
 66
     1
 10
0.0
 20
0.0
 30
0.0
  0
VERTEX
  5
2A9
330
2A8
100
AcDbEntity
  8
Ebene 1
370
     0
100
AcDbVertex
100
AcDb2dVertex
 10
121.112331783958
 20
-201.3341362343887
 30
0.0
  0
VERTEX
  5
2AA
330
2A8
100
AcDbEntity
  8
Ebene 1
370
     0
100
AcDbVertex
100
AcDb2dVertex
 10
113.3012667902511
 20
-201.7151637950573
 30
0.0
  0
VERTEX
  5
2AB
330
2A8
100
AcDbEntity
  8
Ebene 1
370
     0
100
AcDbVertex
100
AcDb2dVertex
 10
113.3012667902511
 20
-201.3341362343887
 30
0.0
  0
VERTEX
  5
2AC
330
2A8
100
AcDbEntity
  8
Ebene 1
370
     0
100
AcDbVertex
100
AcDb2dVertex
 10
121.112331783958
 20
-201.3341362343887
 30
0.0
  0
SEQEND
  5
2AD
330
2A8
100
AcDbEntity
  8
Ebene 1
370
     0
  0
HATCH
  5
2AE
330
1F
100
AcDbEntity
  8
Ebene 1
 62
   139
420
  4081750
100
AcDbHatch
 10
0.0
 20
0.0
 30
0.0
210
0.0
220
0.0
230
1.0
  2
SOLID
 70
     1
 71
     0
 91
        1
 92
        1
 93
        3
 72
     1
 10
121.112331783958
 20
-201.3341362343887
 11
113.3012667902511
 21
-201.7151637950573
 72
     1
 10
113.3012667902511
 20
-201.7151637950573
 11
113.3012667902511
 21
-201.3341362343887
 72
     1
 10
113.3012667902511
 20
-201.3341362343887
 11
121.112331783958
 21
-201.3341362343887
 97
        0
 75
     2
 76
     1
 98
        0
  0
POLYLINE
  5
2AF
330
1F
100
AcDbEntity
  8
Ebene 1
370
     0
100
AcDb2dPolyline
 66
     1
 10
0.0
 20
0.0
 30
0.0
  0
VERTEX
  5
2B0
330
2AF
100
AcDbEntity
  8
Ebene 1
370
     0
100
AcDbVertex
100
AcDb2dVertex
 10
113.3016112997996
 20
-201.7151637950573
 30
0.0
  0
VERTEX
  5
2B1
330
2AF
100
AcDbEntity
  8
Ebene 1
370
     0
100
AcDbVertex
100
AcDb2dVertex
 10
121.112331783958
 20
-201.3341362343887
 30
0.0
  0
VERTEX
  5
2B2
330
2AF
100
AcDbEntity
  8
Ebene 1
370
     0
100
AcDbVertex
100
AcDb2dVertex
 10
129.303390809688
 20
-201.7151637950573
 30
0.0
  0
VERTEX
  5
2B3
330
2AF
100
AcDbEntity
  8
Ebene 1
370
     0
100
AcDbVertex
100
AcDb2dVertex
 10
113.3016112997996
 20
-201.7151637950573
 30
0.0
  0
SEQEND
  5
2B4
330
2AF
100
AcDbEntity
  8
Ebene 1
370
     0
  0
HATCH
  5
2B5
330
1F
100
AcDbEntity
  8
Ebene 1
 62
   139
420
  4081750
100
AcDbHatch
 10
0.0
 20
0.0
 30
0.0
210
0.0
220
0.0
230
1.0
  2
SOLID
 70
     1
 71
     0
 91
        1
 92
        1
 93
        3
 72
     1
 10
113.3016112997996
 20
-201.7151637950573
 11
121.112331783958
 21
-201.3341362343887
 72
     1
 10
121.112331783958
 20
-201.3341362343887
 11
129.303390809688
 21
-201.7151637950573
 72
     1
 10
129.303390809688
 20
-201.7151637950573
 11
113.3016112997996
 21
-201.7151637950573
 97
        0
 75
     2
 76
     1
 98
        0
  0
POLYLINE
  5
2B6
330
1F
100
AcDbEntity
  8
Ebene 1
370
     0
100
AcDb2dPolyline
 66
     1
 10
0.0
 20
0.0
 30
0.0
  0
VERTEX
  5
2B7
330
2B6
100
AcDbEntity
  8
Ebene 1
370
     0
100
AcDbVertex
100
AcDb2dVertex
 10
129.303390809688
 20
-201.7151637950573
 30
0.0
  0
VERTEX
  5
2B8
330
2B6
100
AcDbEntity
  8
Ebene 1
370
     0
100
AcDbVertex
100
AcDb2dVertex
 10
121.1119872744095
 20
-201.3341362343887
 30
0.0
  0
VERTEX
  5
2B9
330
2B6
100
AcDbEntity
  8
Ebene 1
370
     0
100
AcDbVertex
100
AcDb2dVertex
 10
121.5140299175382
 20
-201.3341362343887
 30
0.0
  0
VERTEX
  5
2BA
330
2B6
100
AcDbEntity
  8
Ebene 1
370
     0
100
AcDbVertex
100
AcDb2dVertex
 10
129.303390809688
 20
-201.7151637950573
 30
0.0
  0
SEQEND
  5
2BB
330
2B6
100
AcDbEntity
  8
Ebene 1
370
     0
  0
HATCH
  5
2BC
330
1F
100
AcDbEntity
  8
Ebene 1
 62
   139
420
  4081750
100
AcDbHatch
 10
0.0
 20
0.0
 30
0.0
210
0.0
220
0.0
230
1.0
  2
SOLID
 70
     1
 71
     0
 91
        1
 92
        1
 93
        3
 72
     1
 10
129.303390809688
 20
-201.7151637950573
 11
121.1119872744095
 21
-201.3341362343887
 72
     1
 10
121.1119872744095
 20
-201.3341362343887
 11
121.5140299175382
 21
-201.3341362343887
 72
     1
 10
121.5140299175382
 20
-201.3341362343887
 11
129.303390809688
 21
-201.7151637950573
 97
        0
 75
     2
 76
     1
 98
        0
  0
POLYLINE
  5
2BD
330
1F
100
AcDbEntity
  8
Ebene 1
370
     0
100
AcDb2dPolyline
 66
     1
 10
0.0
 20
0.0
 30
0.0
  0
VERTEX
  5
2BE
330
2BD
100
AcDbEntity
  8
Ebene 1
370
     0
100
AcDbVertex
100
AcDb2dVertex
 10
121.5140299175382
 20
-201.3341362343887
 30
0.0
  0
VERTEX
  5
2BF
330
2BD
100
AcDbEntity
  8
Ebene 1
370
     0
100
AcDbVertex
100
AcDb2dVertex
 10
121.1119872744095
 20
-201.3341362343887
 30
0.0
  0
VERTEX
  5
2C0
330
2BD
100
AcDbEntity
  8
Ebene 1
370
     0
100
AcDbVertex
100
AcDb2dVertex
 10
121.5140299175382
 20
-190.7294433116926
 30
0.0
  0
VERTEX
  5
2C1
330
2BD
100
AcDbEntity
  8
Ebene 1
370
     0
100
AcDbVertex
100
AcDb2dVertex
 10
121.5140299175382
 20
-201.3341362343887
 30
0.0
  0
SEQEND
  5
2C2
330
2BD
100
AcDbEntity
  8
Ebene 1
370
     0
  0
HATCH
  5
2C3
330
1F
100
AcDbEntity
  8
Ebene 1
 62
   139
420
  4081750
100
AcDbHatch
 10
0.0
 20
0.0
 30
0.0
210
0.0
220
0.0
230
1.0
  2
SOLID
 70
     1
 71
     0
 91
        1
 92
        1
 93
        3
 72
     1
 10
121.5140299175382
 20
-201.3341362343887
 11
121.1119872744095
 21
-201.3341362343887
 72
     1
 10
121.1119872744095
 20
-201.3341362343887
 11
121.5140299175382
 21
-190.7294433116926
 72
     1
 10
121.5140299175382
 20
-190.7294433116926
 11
121.5140299175382
 21
-201.3341362343887
 97
        0
 75
     2
 76
     1
 98
        0
  0
POLYLINE
  5
2C4
330
1F
100
AcDbEntity
  8
Ebene 1
370
     0
100
AcDb2dPolyline
 66
     1
 10
0.0
 20
0.0
 30
0.0
  0
VERTEX
  5
2C5
330
2C4
100
AcDbEntity
  8
Ebene 1
370
     0
100
AcDbVertex
100
AcDb2dVertex
 10
129.303390809688
 20
-201.7151637950573
 30
0.0
  0
VERTEX
  5
2C6
330
2C4
100
AcDbEntity
  8
Ebene 1
370
     0
100
AcDbVertex
100
AcDb2dVertex
 10
121.5140299175382
 20
-201.3341362343887
 30
0.0
  0
VERTEX
  5
2C7
330
2C4
100
AcDbEntity
  8
Ebene 1
370
     0
100
AcDbVertex
100
AcDb2dVertex
 10
129.303390809688
 20
-201.3341362343887
 30
0.0
  0
VERTEX
  5
2C8
330
2C4
100
AcDbEntity
  8
Ebene 1
370
     0
100
AcDbVertex
100
AcDb2dVertex
 10
129.303390809688
 20
-201.7151637950573
 30
0.0
  0
SEQEND
  5
2C9
330
2C4
100
AcDbEntity
  8
Ebene 1
370
     0
  0
HATCH
  5
2CA
330
1F
100
AcDbEntity
  8
Ebene 1
 62
   139
420
  4081750
100
AcDbHatch
 10
0.0
 20
0.0
 30
0.0
210
0.0
220
0.0
230
1.0
  2
SOLID
 70
     1
 71
     0
 91
        1
 92
        1
 93
        3
 72
     1
 10
129.303390809688
 20
-201.7151637950573
 11
121.5140299175382
 21
-201.3341362343887
 72
     1
 10
121.5140299175382
 20
-201.3341362343887
 11
129.303390809688
 21
-201.3341362343887
 72
     1
 10
129.303390809688
 20
-201.3341362343887
 11
129.303390809688
 21
-201.7151637950573
 97
        0
 75
     2
 76
     1
 98
        0
  0
POLYLINE
  5
2CB
330
1F
100
AcDbEntity
  8
Ebene 1
370
     0
100
AcDb2dPolyline
 66
     1
 10
0.0
 20
0.0
 30
0.0
  0
VERTEX
  5
2CC
330
2CB
100
AcDbEntity
  8
Ebene 1
370
     0
100
AcDbVertex
100
AcDb2dVertex
 10
151.2534721844088
 20
-155.4654459246753
 30
0.0
  0
VERTEX
  5
2CD
330
2CB
100
AcDbEntity
  8
Ebene 1
370
     0
100
AcDbVertex
100
AcDb2dVertex
 10
152.8623317760205
 20
-155.8678330773525
 30
0.0
  0
VERTEX
  5
2CE
330
2CB
100
AcDbEntity
  8
Ebene 1
370
     0
100
AcDbVertex
100
AcDb2dVertex
 10
152.0575574706662
 20
-156.2702202300297
 30
0.0
  0
VERTEX
  5
2CF
330
2CB
100
AcDbEntity
  8
Ebene 1
370
     0
100
AcDbVertex
100
AcDb2dVertex
 10
151.2534721844088
 20
-155.4654459246753
 30
0.0
  0
SEQEND
  5
2D0
330
2CB
100
AcDbEntity
  8
Ebene 1
370
     0
  0
HATCH
  5
2D1
330
1F
100
AcDbEntity
  8
Ebene 1
 62
   139
420
  4081750
100
AcDbHatch
 10
0.0
 20
0.0
 30
0.0
210
0.0
220
0.0
230
1.0
  2
SOLID
 70
     1
 71
     0
 91
        1
 92
        1
 93
        3
 72
     1
 10
151.2534721844088
 20
-155.4654459246753
 11
152.8623317760205
 21
-155.8678330773525
 72
     1
 10
152.8623317760205
 20
-155.8678330773525
 11
152.0575574706662
 21
-156.2702202300297
 72
     1
 10
152.0575574706662
 20
-156.2702202300297
 11
151.2534721844088
 21
-155.4654459246753
 97
        0
 75
     2
 76
     1
 98
        0
  0
POLYLINE
  5
2D2
330
1F
100
AcDbEntity
  8
Ebene 1
370
     0
100
AcDb2dPolyline
 66
     1
 10
0.0
 20
0.0
 30
0.0
  0
VERTEX
  5
2D3
330
2D2
100
AcDbEntity
  8
Ebene 1
370
     0
100
AcDbVertex
100
AcDb2dVertex
 10
152.8623317760205
 20
-155.8678330773525
 30
0.0
  0
VERTEX
  5
2D4
330
2D2
100
AcDbEntity
  8
Ebene 1
370
     0
100
AcDbVertex
100
AcDb2dVertex
 10
151.2531276748603
 20
-155.4654459246753
 30
0.0
  0
VERTEX
  5
2D5
330
2D2
100
AcDbEntity
  8
Ebene 1
370
     0
100
AcDbVertex
100
AcDb2dVertex
 10
161.8581651071049
 20
-155.4654459246753
 30
0.0
  0
VERTEX
  5
2D6
330
2D2
100
AcDbEntity
  8
Ebene 1
370
     0
100
AcDbVertex
100
AcDb2dVertex
 10
152.8623317760205
 20
-155.8678330773525
 30
0.0
  0
SEQEND
  5
2D7
330
2D2
100
AcDbEntity
  8
Ebene 1
370
     0
  0
HATCH
  5
2D8
330
1F
100
AcDbEntity
  8
Ebene 1
 62
   139
420
  4081750
100
AcDbHatch
 10
0.0
 20
0.0
 30
0.0
210
0.0
220
0.0
230
1.0
  2
SOLID
 70
     1
 71
     0
 91
        1
 92
        1
 93
        3
 72
     1
 10
152.8623317760205
 20
-155.8678330773525
 11
151.2531276748603
 21
-155.4654459246753
 72
     1
 10
151.2531276748603
 20
-155.4654459246753
 11
161.8581651071049
 21
-155.4654459246753
 72
     1
 10
161.8581651071049
 20
-155.4654459246753
 11
152.8623317760205
 21
-155.8678330773525
 97
        0
 75
     2
 76
     1
 98
        0
  0
POLYLINE
  5
2D9
330
1F
100
AcDbEntity
  8
Ebene 1
370
     0
100
AcDb2dPolyline
 66
     1
 10
0.0
 20
0.0
 30
0.0
  0
VERTEX
  5
2DA
330
2D9
100
AcDbEntity
  8
Ebene 1
370
     0
100
AcDbVertex
100
AcDb2dVertex
 10
152.8623317760205
 20
-155.8678330773525
 30
0.0
  0
VERTEX
  5
2DB
330
2D9
100
AcDbEntity
  8
Ebene 1
370
     0
100
AcDbVertex
100
AcDb2dVertex
 10
161.8581651071049
 20
-155.4654459246753
 30
0.0
  0
VERTEX
  5
2DC
330
2D9
100
AcDbEntity
  8
Ebene 1
370
     0
100
AcDbVertex
100
AcDb2dVertex
 10
161.8581651071049
 20
-155.8678330773525
 30
0.0
  0
VERTEX
  5
2DD
330
2D9
100
AcDbEntity
  8
Ebene 1
370
     0
100
AcDbVertex
100
AcDb2dVertex
 10
152.8623317760205
 20
-155.8678330773525
 30
0.0
  0
SEQEND
  5
2DE
330
2D9
100
AcDbEntity
  8
Ebene 1
370
     0
  0
HATCH
  5
2DF
330
1F
100
AcDbEntity
  8
Ebene 1
 62
   139
420
  4081750
100
AcDbHatch
 10
0.0
 20
0.0
 30
0.0
210
0.0
220
0.0
230
1.0
  2
SOLID
 70
     1
 71
     0
 91
        1
 92
        1
 93
        3
 72
     1
 10
152.8623317760205
 20
-155.8678330773525
 11
161.8581651071049
 21
-155.4654459246753
 72
     1
 10
161.8581651071049
 20
-155.4654459246753
 11
161.8581651071049
 21
-155.8678330773525
 72
     1
 10
161.8581651071049
 20
-155.8678330773525
 11
152.8623317760205
 21
-155.8678330773525
 97
        0
 75
     2
 76
     1
 98
        0
  0
POLYLINE
  5
2E0
330
1F
100
AcDbEntity
  8
Ebene 1
370
     0
100
AcDb2dPolyline
 66
     1
 10
0.0
 20
0.0
 30
0.0
  0
VERTEX
  5
2E1
330
2E0
100
AcDbEntity
  8
Ebene 1
370
     0
100
AcDbVertex
100
AcDb2dVertex
 10
161.8578205975564
 20
-163.6785535615109
 30
0.0
  0
VERTEX
  5
2E2
330
2E0
100
AcDbEntity
  8
Ebene 1
370
     0
100
AcDbVertex
100
AcDb2dVertex
 10
161.8578205975564
 20
-155.8678330773525
 30
0.0
  0
VERTEX
  5
2E3
330
2E0
100
AcDbEntity
  8
Ebene 1
370
     0
100
AcDbVertex
100
AcDb2dVertex
 10
161.8578205975564
 20
-155.4661349437724
 30
0.0
  0
VERTEX
  5
2E4
330
2E0
100
AcDbEntity
  8
Ebene 1
370
     0
100
AcDbVertex
100
AcDb2dVertex
 10
161.8578205975564
 20
-163.6785535615109
 30
0.0
  0
SEQEND
  5
2E5
330
2E0
100
AcDbEntity
  8
Ebene 1
370
     0
  0
SPLINE
  5
2E6
330
1F
100
AcDbEntity
  8
Ebene 1
370
     0
100
AcDbSpline
210
0.0
220
0.0
230
1.0
 70
    27
 71
     3
 72
    11
 73
     7
 74
     0
 42
0.0000000001
 43
0.0000000001
 40
0.0
 40
0.0
 40
0.0
 40
0.0
 40
1.0
 40
1.0
 40
1.0
 40
2.0
 40
2.0
 40
2.0
 40
2.0
 10
161.8578205975564
 20
-163.6785535615109
 30
0.0
 10
161.8578205975564
 20
-163.6785535615109
 30
0.0
 10
161.8578205975564
 20
-147.6766017968482
 30
0.0
 10
161.8578205975564
 20
-147.6766017968482
 30
0.0
 10
161.8578205975564
 20
-147.6766017968482
 30
0.0
 10
161.8578205975564
 20
-163.6785535615109
 30
0.0
 10
161.8578205975564
 20
-163.6785535615109
 30
0.0
  0
HATCH
  5
2E7
330
1F
100
AcDbEntity
  8
Ebene 1
 62
   139
420
  4081750
100
AcDbHatch
 10
0.0
 20
0.0
 30
0.0
210
0.0
220
0.0
230
1.0
  2
SOLID
 70
     1
 71
     0
 91
        1
 92
        1
 93
        1
 72
     4
 94
        3
 73
     0
 74
     1
 95
       11
 96
        7
 40
0.0
 40
0.0
 40
0.0
 40
0.0
 40
1.0
 40
1.0
 40
1.0
 40
2.0
 40
2.0
 40
2.0
 40
2.0
 10
161.8578205975564
 20
-163.6785535615109
 10
161.8578205975564
 20
-163.6785535615109
 10
161.8578205975564
 20
-147.6766017968482
 10
161.8578205975564
 20
-147.6766017968482
 10
161.8578205975564
 20
-147.6766017968482
 10
161.8578205975564
 20
-163.6785535615109
 10
161.8578205975564
 20
-163.6785535615109
 97
        0
 75
     2
 76
     1
 98
        0
  0
POLYLINE
  5
2E8
330
1F
100
AcDbEntity
  8
Ebene 1
370
     0
100
AcDb2dPolyline
 66
     1
 10
0.0
 20
0.0
 30
0.0
  0
VERTEX
  5
2E9
330
2E8
100
AcDbEntity
  8
Ebene 1
370
     0
100
AcDbVertex
100
AcDb2dVertex
 10
161.8581651071049
 20
-163.6785535615109
 30
0.0
  0
VERTEX
  5
2EA
330
2E8
100
AcDbEntity
  8
Ebene 1
370
     0
100
AcDbVertex
100
AcDb2dVertex
 10
161.8581651071049
 20
-147.6766017968482
 30
0.0
  0
VERTEX
  5
2EB
330
2E8
100
AcDbEntity
  8
Ebene 1
370
     0
100
AcDbVertex
100
AcDb2dVertex
 10
162.2602077502336
 20
-163.6785535615109
 30
0.0
  0
VERTEX
  5
2EC
330
2E8
100
AcDbEntity
  8
Ebene 1
370
     0
100
AcDbVertex
100
AcDb2dVertex
 10
161.8581651071049
 20
-163.6785535615109
 30
0.0
  0
SEQEND
  5
2ED
330
2E8
100
AcDbEntity
  8
Ebene 1
370
     0
  0
HATCH
  5
2EE
330
1F
100
AcDbEntity
  8
Ebene 1
 62
   139
420
  4081750
100
AcDbHatch
 10
0.0
 20
0.0
 30
0.0
210
0.0
220
0.0
230
1.0
  2
SOLID
 70
     1
 71
     0
 91
        1
 92
        1
 93
        3
 72
     1
 10
161.8581651071049
 20
-163.6785535615109
 11
161.8581651071049
 21
-147.6766017968482
 72
     1
 10
161.8581651071049
 20
-147.6766017968482
 11
162.2602077502336
 21
-163.6785535615109
 72
     1
 10
162.2602077502336
 20
-163.6785535615109
 11
161.8581651071049
 21
-163.6785535615109
 97
        0
 75
     2
 76
     1
 98
        0
  0
POLYLINE
  5
2EF
330
1F
100
AcDbEntity
  8
Ebene 1
370
     0
100
AcDb2dPolyline
 66
     1
 10
0.0
 20
0.0
 30
0.0
  0
VERTEX
  5
2F0
330
2EF
100
AcDbEntity
  8
Ebene 1
370
     0
100
AcDbVertex
100
AcDb2dVertex
 10
162.259863240685
 20
-163.6785535615109
 30
0.0
  0
VERTEX
  5
2F1
330
2EF
100
AcDbEntity
  8
Ebene 1
370
     0
100
AcDbVertex
100
AcDb2dVertex
 10
161.8578205975564
 20
-147.6766017968482
 30
0.0
  0
VERTEX
  5
2F2
330
2EF
100
AcDbEntity
  8
Ebene 1
370
     0
100
AcDbVertex
100
AcDb2dVertex
 10
162.259863240685
 20
-147.6766017968482
 30
0.0
  0
VERTEX
  5
2F3
330
2EF
100
AcDbEntity
  8
Ebene 1
370
     0
100
AcDbVertex
100
AcDb2dVertex
 10
162.259863240685
 20
-163.6785535615109
 30
0.0
  0
SEQEND
  5
2F4
330
2EF
100
AcDbEntity
  8
Ebene 1
370
     0
  0
HATCH
  5
2F5
330
1F
100
AcDbEntity
  8
Ebene 1
 62
   139
420
  4081750
100
AcDbHatch
 10
0.0
 20
0.0
 30
0.0
210
0.0
220
0.0
230
1.0
  2
SOLID
 70
     1
 71
     0
 91
        1
 92
        1
 93
        3
 72
     1
 10
162.259863240685
 20
-163.6785535615109
 11
161.8578205975564
 21
-147.6766017968482
 72
     1
 10
161.8578205975564
 20
-147.6766017968482
 11
162.259863240685
 21
-147.6766017968482
 72
     1
 10
162.259863240685
 20
-147.6766017968482
 11
162.259863240685
 21
-163.6785535615109
 97
        0
 75
     2
 76
     1
 98
        0
  0
POLYLINE
  5
2F6
330
1F
100
AcDbEntity
  8
Ebene 1
370
     0
100
AcDb2dPolyline
 66
     1
 10
0.0
 20
0.0
 30
0.0
  0
VERTEX
  5
2F7
330
2F6
100
AcDbEntity
  8
Ebene 1
370
     0
100
AcDbVertex
100
AcDb2dVertex
 10
152.8623317760205
 20
-156.2702202300297
 30
0.0
  0
VERTEX
  5
2F8
330
2F6
100
AcDbEntity
  8
Ebene 1
370
     0
100
AcDbVertex
100
AcDb2dVertex
 10
152.0579019802147
 20
-156.2702202300297
 30
0.0
  0
VERTEX
  5
2F9
330
2F6
100
AcDbEntity
  8
Ebene 1
370
     0
100
AcDbVertex
100
AcDb2dVertex
 10
152.8623317760205
 20
-155.8678330773525
 30
0.0
  0
VERTEX
  5
2FA
330
2F6
100
AcDbEntity
  8
Ebene 1
370
     0
100
AcDbVertex
100
AcDb2dVertex
 10
152.8623317760205
 20
-156.2702202300297
 30
0.0
  0
SEQEND
  5
2FB
330
2F6
100
AcDbEntity
  8
Ebene 1
370
     0
  0
HATCH
  5
2FC
330
1F
100
AcDbEntity
  8
Ebene 1
 62
   139
420
  4081750
100
AcDbHatch
 10
0.0
 20
0.0
 30
0.0
210
0.0
220
0.0
230
1.0
  2
SOLID
 70
     1
 71
     0
 91
        1
 92
        1
 93
        3
 72
     1
 10
152.8623317760205
 20
-156.2702202300297
 11
152.0579019802147
 21
-156.2702202300297
 72
     1
 10
152.0579019802147
 20
-156.2702202300297
 11
152.8623317760205
 21
-155.8678330773525
 72
     1
 10
152.8623317760205
 20
-155.8678330773525
 11
152.8623317760205
 21
-156.2702202300297
 97
        0
 75
     2
 76
     1
 98
        0
  0
INSERT
  5
2FE
330
1F
100
AcDbEntity
  8
Ebene 1
100
AcDbBlockReference
  2
block 3
 10
0.0
 20
0.0
 30
0.0
  0
POLYLINE
  5
683
330
1F
100
AcDbEntity
  8
Ebene 1
 62
   179
420
  1709851
370
    35
100
AcDb2dPolyline
 66
     1
 10
0.0
 20
0.0
 30
0.0
  0
VERTEX
  5
684
330
683
100
AcDbEntity
  8
Ebene 1
 62
   179
420
  1709851
370
    35
100
AcDbVertex
100
AcDb2dVertex
 10
117.7464734948689
 20
-162.4507215305679
 30
0.0
  0
VERTEX
  5
685
330
683
100
AcDbEntity
  8
Ebene 1
 62
   179
420
  1709851
370
    35
100
AcDbVertex
100
AcDb2dVertex
 10
117.7464734948689
 20
-162.0276638049792
 30
0.0
  0
SEQEND
  5
686
330
683
100
AcDbEntity
  8
Ebene 1
370
    35
  0
POLYLINE
  5
687
330
1F
100
AcDbEntity
  8
Ebene 1
 62
   179
420
  1709851
370
    35
100
AcDb2dPolyline
 66
     1
 10
0.0
 20
0.0
 30
0.0
  0
VERTEX
  5
688
330
687
100
AcDbEntity
  8
Ebene 1
 62
   179
420
  1709851
370
    35
100
AcDbVertex
100
AcDb2dVertex
 10
117.7464734948689
 20
-170.4516112855121
 30
0.0
  0
VERTEX
  5
689
330
687
100
AcDbEntity
  8
Ebene 1
 62
   179
420
  1709851
370
    35
100
AcDbVertex
100
AcDb2dVertex
 10
117.7464734948689
 20
-163.4663356796195
 30
0.0
  0
SEQEND
  5
68A
330
687
100
AcDbEntity
  8
Ebene 1
370
    35
  0
POLYLINE
  5
68B
330
1F
100
AcDbEntity
  8
Ebene 1
 62
   179
420
  1709851
370
    35
100
AcDb2dPolyline
 66
     1
 10
0.0
 20
0.0
 30
0.0
  0
VERTEX
  5
68C
330
68B
100
AcDbEntity
  8
Ebene 1
 62
   179
420
  1709851
370
    35
100
AcDbVertex
100
AcDb2dVertex
 10
117.7464734948689
 20
-172.4621690107039
 30
0.0
  0
VERTEX
  5
68D
330
68B
100
AcDbEntity
  8
Ebene 1
 62
   179
420
  1709851
370
    35
100
AcDbVertex
100
AcDb2dVertex
 10
117.7464734948689
 20
-171.4465548616523
 30
0.0
  0
SEQEND
  5
68E
330
68B
100
AcDbEntity
  8
Ebene 1
370
    35
  0
POLYLINE
  5
68F
330
1F
100
AcDbEntity
  8
Ebene 1
 62
   179
420
  1709851
370
    35
100
AcDb2dPolyline
 66
     1
 10
0.0
 20
0.0
 30
0.0
  0
VERTEX
  5
690
330
68F
100
AcDbEntity
  8
Ebene 1
 62
   179
420
  1709851
370
    35
100
AcDbVertex
100
AcDb2dVertex
 10
117.7464734948689
 20
-180.019330467148
 30
0.0
  0
VERTEX
  5
691
330
68F
100
AcDbEntity
  8
Ebene 1
 62
   179
420
  1709851
370
    35
100
AcDbVertex
100
AcDb2dVertex
 10
117.7464734948689
 20
-180.019330467148
 30
0.0
  0
VERTEX
  5
692
330
68F
100
AcDbEntity
  8
Ebene 1
 62
   179
420
  1709851
370
    35
100
AcDbVertex
100
AcDb2dVertex
 10
117.7464734948689
 20
-173.4571125868441
 30
0.0
  0
SEQEND
  5
693
330
68F
100
AcDbEntity
  8
Ebene 1
370
    35
  0
INSERT
  5
695
330
1F
100
AcDbEntity
  8
Ebene 1
100
AcDbBlockReference
  2
block 4
 10
0.0
 20
0.0
 30
0.0
  0
POLYLINE
  5
6F5
330
1F
100
AcDbEntity
  8
Ebene 1
 62
   179
420
  1709851
370
    35
100
AcDb2dPolyline
 66
     1
 10
0.0
 20
0.0
 30
0.0
  0
VERTEX
  5
6F6
330
6F5
100
AcDbEntity
  8
Ebene 1
 62
   179
420
  1709851
370
    35
100
AcDbVertex
100
AcDb2dVertex
 10
137.1988606427836
 20
-159.212331774433
 30
0.0
  0
VERTEX
  5
6F7
330
6F5
100
AcDbEntity
  8
Ebene 1
 62
   179
420
  1709851
370
    35
100
AcDbVertex
100
AcDb2dVertex
 10
140.5433593398642
 20
-159.212331774433
 30
0.0
  0
SEQEND
  5
6F8
330
6F5
100
AcDbEntity
  8
Ebene 1
370
    35
  0
POLYLINE
  5
6F9
330
1F
100
AcDbEntity
  8
Ebene 1
 62
   179
420
  1709851
370
    35
100
AcDb2dPolyline
 66
     1
 10
0.0
 20
0.0
 30
0.0
  0
VERTEX
  5
6FA
330
6F9
100
AcDbEntity
  8
Ebene 1
 62
   179
420
  1709851
370
    35
100
AcDbVertex
100
AcDb2dVertex
 10
135.2089734905033
 20
-159.212331774433
 30
0.0
  0
VERTEX
  5
6FB
330
6F9
100
AcDbEntity
  8
Ebene 1
 62
   179
420
  1709851
370
    35
100
AcDbVertex
100
AcDb2dVertex
 10
136.2039170666435
 20
-159.212331774433
 30
0.0
  0
SEQEND
  5
6FC
330
6F9
100
AcDbEntity
  8
Ebene 1
370
    35
  0
POLYLINE
  5
6FD
330
1F
100
AcDbEntity
  8
Ebene 1
 62
   179
420
  1709851
370
    35
100
AcDb2dPolyline
 66
     1
 10
0.0
 20
0.0
 30
0.0
  0
VERTEX
  5
6FE
330
6FD
100
AcDbEntity
  8
Ebene 1
 62
   179
420
  1709851
370
    35
100
AcDbVertex
100
AcDb2dVertex
 10
127.2080837355591
 20
-159.212331774433
 30
0.0
  0
VERTEX
  5
6FF
330
6FD
100
AcDbEntity
  8
Ebene 1
 62
   179
420
  1709851
370
    35
100
AcDbVertex
100
AcDb2dVertex
 10
134.2143744239117
 20
-159.212331774433
 30
0.0
  0
SEQEND
  5
700
330
6FD
100
AcDbEntity
  8
Ebene 1
370
    35
  0
POLYLINE
  5
701
330
1F
100
AcDbEntity
  8
Ebene 1
 62
   179
420
  1709851
370
    35
100
AcDb2dPolyline
 66
     1
 10
0.0
 20
0.0
 30
0.0
  0
VERTEX
  5
702
330
701
100
AcDbEntity
  8
Ebene 1
 62
   179
420
  1709851
370
    35
100
AcDbVertex
100
AcDb2dVertex
 10
125.2185410928273
 20
-159.212331774433
 30
0.0
  0
VERTEX
  5
703
330
701
100
AcDbEntity
  8
Ebene 1
 62
   179
420
  1709851
370
    35
100
AcDbVertex
100
AcDb2dVertex
 10
126.2131401594189
 20
-159.212331774433
 30
0.0
  0
SEQEND
  5
704
330
701
100
AcDbEntity
  8
Ebene 1
370
    35
  0
POLYLINE
  5
705
330
1F
100
AcDbEntity
  8
Ebene 1
 62
   179
420
  1709851
370
    35
100
AcDb2dPolyline
 66
     1
 10
0.0
 20
0.0
 30
0.0
  0
VERTEX
  5
706
330
705
100
AcDbEntity
  8
Ebene 1
 62
   179
420
  1709851
370
    35
100
AcDbVertex
100
AcDb2dVertex
 10
122.5516926776954
 20
-159.212331774433
 30
0.0
  0
VERTEX
  5
707
330
705
100
AcDbEntity
  8
Ebene 1
 62
   179
420
  1709851
370
    35
100
AcDbVertex
100
AcDb2dVertex
 10
124.2025824342271
 20
-159.212331774433
 30
0.0
  0
SEQEND
  5
708
330
705
100
AcDbEntity
  8
Ebene 1
370
    35
  0
POLYLINE
  5
709
330
1F
100
AcDbEntity
  8
Ebene 1
 62
   179
420
  1709851
370
    18
100
AcDb2dPolyline
 66
     1
 10
0.0
 20
0.0
 30
0.0
  0
VERTEX
  5
70A
330
709
100
AcDbEntity
  8
Ebene 1
 62
   179
420
  1709851
370
    18
100
AcDbVertex
100
AcDb2dVertex
 10
153.751166411215
 20
-162.217833075765
 30
0.0
  0
VERTEX
  5
70B
330
709
100
AcDbEntity
  8
Ebene 1
 62
   179
420
  1709851
370
    18
100
AcDbVertex
100
AcDb2dVertex
 10
137.7493869013265
 20
-167.2132215293773
 30
0.0
  0
SEQEND
  5
70C
330
709
100
AcDbEntity
  8
Ebene 1
370
    18
  0
POLYLINE
  5
70D
330
1F
100
AcDbEntity
  8
Ebene 1
 62
   179
420
  1709851
370
    18
100
AcDb2dPolyline
 66
     1
 10
0.0
 20
0.0
 30
0.0
  0
VERTEX
  5
70E
330
70D
100
AcDbEntity
  8
Ebene 1
 62
   179
420
  1709851
370
    18
100
AcDbVertex
100
AcDb2dVertex
 10
153.751166411215
 20
-77.23370088129921
 30
0.0
  0
VERTEX
  5
70F
330
70D
100
AcDbEntity
  8
Ebene 1
 62
   179
420
  1709851
370
    18
100
AcDbVertex
100
AcDb2dVertex
 10
153.751166411215
 20
-154.978998442158
 30
0.0
  0
SEQEND
  5
710
330
70D
100
AcDbEntity
  8
Ebene 1
370
    18
  0
POLYLINE
  5
711
330
1F
100
AcDbEntity
  8
Ebene 1
 62
   179
420
  1709851
370
    18
100
AcDb2dPolyline
 66
     1
 10
0.0
 20
0.0
 30
0.0
  0
VERTEX
  5
712
330
711
100
AcDbEntity
  8
Ebene 1
 62
   179
420
  1709851
370
    18
100
AcDbVertex
100
AcDb2dVertex
 10
153.751166411215
 20
-152.2270561685405
 30
0.0
  0
VERTEX
  5
713
330
711
100
AcDbEntity
  8
Ebene 1
 62
   179
420
  1709851
370
    18
100
AcDbVertex
100
AcDb2dVertex
 10
144.9458468604649
 20
-154.978998442158
 30
0.0
  0
SEQEND
  5
714
330
711
100
AcDbEntity
  8
Ebene 1
370
    18
  0
POLYLINE
  5
715
330
1F
100
AcDbEntity
  8
Ebene 1
 62
   179
420
  1709851
370
    18
100
AcDb2dPolyline
 66
     1
 10
0.0
 20
0.0
 30
0.0
  0
VERTEX
  5
716
330
715
100
AcDbEntity
  8
Ebene 1
 62
   179
420
  1709851
370
    18
100
AcDbVertex
100
AcDb2dVertex
 10
153.751166411215
 20
-155.8678330773525
 30
0.0
  0
VERTEX
  5
717
330
715
100
AcDbEntity
  8
Ebene 1
 62
   179
420
  1709851
370
    18
100
AcDbVertex
100
AcDb2dVertex
 10
153.751166411215
 20
-193.2057779464902
 30
0.0
  0
SEQEND
  5
718
330
715
100
AcDbEntity
  8
Ebene 1
370
    18
  0
POLYLINE
  5
719
330
1F
100
AcDbEntity
  8
Ebene 1
 62
   179
420
  1709851
370
    18
100
AcDb2dPolyline
 66
     1
 10
0.0
 20
0.0
 30
0.0
  0
VERTEX
  5
71A
330
719
100
AcDbEntity
  8
Ebene 1
 62
   179
420
  1709851
370
    18
100
AcDbVertex
100
AcDb2dVertex
 10
143.3583468608618
 20
-155.4654459246753
 30
0.0
  0
VERTEX
  5
71B
330
719
100
AcDbEntity
  8
Ebene 1
 62
   179
420
  1709851
370
    18
100
AcDbVertex
100
AcDb2dVertex
 10
139.5480712541755
 20
-156.6512477906983
 30
0.0
  0
SEQEND
  5
71C
330
719
100
AcDbEntity
  8
Ebene 1
370
    18
  0
ENDSEC
  0
SECTION
  2
OBJECTS
  0
DICTIONARY
  5
C
330
0
100
AcDbDictionary
281
     1
  3
ACAD_GROUP
350
D
  3
ACAD_LAYOUT
350
1A
  3
ACAD_MLINESTYLE
350
17
  3
ACAD_PLOTSETTINGS
350
19
  3
ACAD_PLOTSTYLENAME
350
E
  3
ACAD_TABLESTYLE
350
71D
  3
ACAD_VISUALSTYLE
350
2A
  0
DICTIONARY
  5
D
102
{ACAD_REACTORS
330
C
102
}
330
C
100
AcDbDictionary
281
     1
  0
DICTIONARY
  5
1A
102
{ACAD_REACTORS
330
C
102
}
330
C
100
AcDbDictionary
281
     1
  3
Layout1
350
1E
  3
Layout2
350
26
  3
Model
350
22
  0
DICTIONARY
  5
17
102
{ACAD_REACTORS
330
C
102
}
330
C
100
AcDbDictionary
281
     1
  3
Standard
350
18
  0
DICTIONARY
  5
19
102
{ACAD_REACTORS
330
C
102
}
330
C
100
AcDbDictionary
281
     1
  0
ACDBDICTIONARYWDFLT
  5
E
102
{ACAD_REACTORS
330
C
102
}
330
C
100
AcDbDictionary
281
     1
  3
Normal
350
F
100
AcDbDictionaryWithDefault
340
F
  0
DICTIONARY
  5
71D
102
{ACAD_REACTORS
330
C
102
}
330
C
100
AcDbDictionary
281
     1
  0
DICTIONARY
  5
2A
102
{ACAD_REACTORS
330
C
102
}
330
C
100
AcDbDictionary
281
     1
  3
2dWireframe
350
2F
  3
3D Hidden
350
31
  3
3dWireframe
350
30
  3
Basic
350
32
  3
Brighten
350
36
  3
ColorChange
350
3A
  3
Conceptual
350
34
  3
Dim
350
35
  3
Facepattern
350
39
  3
Flat
350
2B
  3
FlatWithEdges
350
2C
  3
Gouraud
350
2D
  3
GouraudWithEdges
350
2E
  3
Linepattern
350
38
  3
Realistic
350
33
  3
Thicken
350
37
  0
LAYOUT
  5
1E
102
{ACAD_REACTORS
330
1A
102
}
330
1A
100
AcDbPlotSettings
  1

  2
none_device
  4

  6

 40
0.0
 41
0.0
 42
0.0
 43
0.0
 44
0.0
 45
0.0
 46
0.0
 47
0.0
 48
0.0
 49
0.0
140
0.0
141
0.0
142
1.0
143
1.0
 70
   688
 72
     0
 73
     0
 74
     5
  7

 75
    16
 76
     0
 77
     2
 78
   300
147
1.0
148
0.0
149
0.0
100
AcDbLayout
  1
Layout1
 70
     1
 71
     1
 10
0.0
 20
0.0
 11
12.0
 21
9.0
 12
0.0
 22
0.0
 32
0.0
 14
1.000000000000000E+20
 24
1.000000000000000E+20
 34
1.000000000000000E+20
 15
-1.000000000000000E+20
 25
-1.000000000000000E+20
 35
-1.000000000000000E+20
146
0.0
 13
0.0
 23
0.0
 33
0.0
 16
1.0
 26
0.0
 36
0.0
 17
0.0
 27
1.0
 37
0.0
 76
     0
330
1B
  0
LAYOUT
  5
26
102
{ACAD_REACTORS
330
1A
102
}
330
1A
100
AcDbPlotSettings
  1

  2
none_device
  4

  6

 40
0.0
 41
0.0
 42
0.0
 43
0.0
 44
0.0
 45
0.0
 46
0.0
 47
0.0
 48
0.0
 49
0.0
140
0.0
141
0.0
142
1.0
143
1.0
 70
   688
 72
     0
 73
     0
 74
     5
  7

 75
    16
 76
     0
 77
     2
 78
   300
147
1.0
148
0.0
149
0.0
100
AcDbLayout
  1
Layout2
 70
     1
 71
     2
 10
0.0
 20
0.0
 11
0.0
 21
0.0
 12
0.0
 22
0.0
 32
0.0
 14
0.0
 24
0.0
 34
0.0
 15
0.0
 25
0.0
 35
0.0
146
0.0
 13
0.0
 23
0.0
 33
0.0
 16
1.0
 26
0.0
 36
0.0
 17
0.0
 27
1.0
 37
0.0
 76
     0
330
23
  0
LAYOUT
  5
22
102
{ACAD_REACTORS
330
1A
102
}
330
1A
100
AcDbPlotSettings
  1

  2
none_device
  4

  6

 40
0.0
 41
0.0
 42
0.0
 43
0.0
 44
0.0
 45
0.0
 46
0.0
 47
0.0
 48
0.0
 49
0.0
140
0.0
141
0.0
142
1.0
143
1.0
 70
  1712
 72
     0
 73
     0
 74
     0
  7

 75
     0
 76
     0
 77
     2
 78
   300
147
1.0
148
0.0
149
0.0
100
AcDbLayout
  1
Model
 70
     1
 71
     0
 10
0.0
 20
0.0
 11
12.0
 21
9.0
 12
0.0
 22
0.0
 32
0.0
 14
1.000000000000000E+20
 24
1.000000000000000E+20
 34
1.000000000000000E+20
 15
-1.000000000000000E+20
 25
-1.000000000000000E+20
 35
-1.000000000000000E+20
146
0.0
 13
0.0
 23
0.0
 33
0.0
 16
1.0
 26
0.0
 36
0.0
 17
0.0
 27
1.0
 37
0.0
 76
     0
330
1F
331
29
  0
MLINESTYLE
  5
18
102
{ACAD_REACTORS
330
17
102
}
330
17
100
AcDbMlineStyle
  2
Standard
 70
     0
  3

 62
   256
 51
90.0
 52
90.0
 71
     2
 49
0.5
 62
   256
  6
BYLAYER
 49
-0.5
 62
   256
  6
BYLAYER
  0
ACDBPLACEHOLDER
  5
F
102
{ACAD_REACTORS
330
E
102
}
330
E
  0
VISUALSTYLE
  5
2F
102
{ACAD_REACTORS
330
2A
102
}
330
2A
100
AcDbVisualStyle
  2
2dWireframe
 70
     4
 71
     0
 72
     2
 73
     0
 90
        0
 40
-0.6
 41
-30.0
 62
     5
 63
     7
421
 16777215
 74
     1
 91
        4
 64
     7
 65
   257
 75
     1
175
     1
 42
1.0
 92
        0
 66
   257
 43
1.0
 76
     1
 77
     6
 78
     2
 67
     7
 79
     5
170
     0
171
     0
290
     0
174
     0
 93
        1
 44
0.0
173
     0
291
     0
 45
0.0
1001
ACAD
1000
AcDbSavedByObjectVersion
1070
     0
  0
VISUALSTYLE
  5
31
102
{ACAD_REACTORS
330
2A
102
}
330
2A
100
AcDbVisualStyle
  2
3D Hidden
 70
     6
 71
     1
 72
     2
 73
     2
 90
        0
 40
-0.6
 41
-30.0
 62
     5
 63
     7
421
 16777215
 74
     2
 91
        2
 64
     7
 65
   257
 75
     2
175
     1
 42
40.0
 92
        0
 66
   257
 43
1.0
 76
     1
 77
     6
 78
     2
 67
     7
 79
     3
170
     0
171
     0
290
     0
174
     0
 93
        1
 44
0.0
173
     0
291
     0
 45
0.0
1001
ACAD
1000
AcDbSavedByObjectVersion
1070
     0
  0
VISUALSTYLE
  5
30
102
{ACAD_REACTORS
330
2A
102
}
330
2A
100
AcDbVisualStyle
  2
3dWireframe
 70
     5
 71
     0
 72
     2
 73
     0
 90
        0
 40
-0.6
 41
-30.0
 62
     5
 63
     7
421
 16777215
 74
     1
 91
        4
 64
     7
 65
   257
 75
     1
175
     1
 42
1.0
 92
        0
 66
   257
 43
1.0
 76
     1
 77
     6
 78
     2
 67
     7
 79
     5
170
     0
171
     0
290
     0
174
     0
 93
        1
 44
0.0
173
     0
291
     0
 45
0.0
1001
ACAD
1000
AcDbSavedByObjectVersion
1070
     0
  0
VISUALSTYLE
  5
32
102
{ACAD_REACTORS
330
2A
102
}
330
2A
100
AcDbVisualStyle
  2
Basic
 70
     7
 71
     1
 72
     0
 73
     1
 90
        0
 40
-0.6
 41
-30.0
 62
     5
 63
     7
421
 16777215
 74
     0
 91
        4
 64
     7
 65
   257
 75
     1
175
     1
 42
1.0
 92
        8
 66
     7
 43
1.0
 76
     1
 77
     6
 78
     2
 67
     7
 79
     5
170
     0
171
     0
290
     0
174
     0
 93
        1
 44
0.0
173
     0
291
     1
 45
0.0
1001
ACAD
1000
AcDbSavedByObjectVersion
1070
     0
  0
VISUALSTYLE
  5
36
102
{ACAD_REACTORS
330
2A
102
}
330
2A
100
AcDbVisualStyle
  2
Brighten
 70
    12
 71
     2
 72
     2
 73
     0
 90
        0
 40
-0.6
 41
-30.0
 62
     5
 63
     7
421
 16777215
 74
     1
 91
        4
 64
     7
 65
   257
 75
     1
175
     1
 42
1.0
 92
        8
 66
     7
 43
1.0
 76
     1
 77
     6
 78
     2
 67
     7
 79
     5
170
     0
171
     0
290
     0
174
     0
 93
        1
 44
50.0
173
     0
291
     1
 45
0.0
1001
ACAD
1000
AcDbSavedByObjectVersion
1070
     0
  0
VISUALSTYLE
  5
3A
102
{ACAD_REACTORS
330
2A
102
}
330
2A
100
AcDbVisualStyle
  2
ColorChange
 70
    16
 71
     2
 72
     2
 73
     3
 90
        0
 40
-0.6
 41
-30.0
 62
     5
 63
     8
421
  8421504
 74
     1
 91
        4
 64
     7
 65
   257
 75
     1
175
     1
 42
1.0
 92
        8
 66
     8
424
  8421504
 43
1.0
 76
     1
 77
     6
 78
     2
 67
     7
 79
     5
170
     0
171
     0
290
     0
174
     0
 93
        1
 44
0.0
173
     0
291
     1
 45
0.0
1001
ACAD
1000
AcDbSavedByObjectVersion
1070
     0
  0
VISUALSTYLE
  5
34
102
{ACAD_REACTORS
330
2A
102
}
330
2A
100
AcDbVisualStyle
  2
Conceptual
 70
     9
 71
     3
 72
     2
 73
     0
 90
        0
 40
-0.6
 41
-30.0
 62
     5
 63
     7
421
 16777215
 74
     2
 91
        2
 64
     7
 65
   257
 75
     1
175
     1
 42
40.0
 92
        8
 66
     7
 43
1.0
 76
     1
 77
     6
 78
     2
 67
     7
 79
     3
170
     0
171
     0
290
     0
174
     0
 93
        1
 44
0.0
173
     0
291
     0
 45
0.0
1001
ACAD
1000
AcDbSavedByObjectVersion
1070
     0
  0
VISUALSTYLE
  5
35
102
{ACAD_REACTORS
330
2A
102
}
330
2A
100
AcDbVisualStyle
  2
Dim
 70
    11
 71
     2
 72
     2
 73
     0
 90
        0
 40
-0.6
 41
-30.0
 62
     5
 63
     7
421
 16777215
 74
     1
 91
        4
 64
     7
 65
   257
 75
     1
175
     1
 42
1.0
 92
        8
 66
     7
 43
1.0
 76
     1
 77
     6
 78
     2
 67
     7
 79
     5
170
     0
171
     0
290
     0
174
     0
 93
        1
 44
-50.0
173
     0
291
     1
 45
0.0
1001
ACAD
1000
AcDbSavedByObjectVersion
1070
     0
  0
VISUALSTYLE
  5
39
102
{ACAD_REACTORS
330
2A
102
}
330
2A
100
AcDbVisualStyle
  2
Facepattern
 70
    15
 71
     2
 72
     2
 73
     0
 90
        0
 40
-0.6
 41
-30.0
 62
     5
 63
     7
421
 16777215
 74
     1
 91
        4
 64
     7
 65
   257
 75
     1
175
     1
 42
1.0
 92
        8
 66
     7
 43
1.0
 76
     1
 77
     6
 78
     2
 67
     7
 79
     5
170
     0
171
     0
290
     0
174
     0
 93
        1
 44
0.0
173
     0
291
     1
 45
0.0
1001
ACAD
1000
AcDbSavedByObjectVersion
1070
     0
  0
VISUALSTYLE
  5
2B
102
{ACAD_REACTORS
330
2A
102
}
330
2A
100
AcDbVisualStyle
  2
Flat
 70
     0
 71
     2
 72
     1
 73
     1
 90
        2
 40
-0.6
 41
30.0
 62
     5
 63
     7
421
 16777215
 74
     0
 91
        4
 64
     7
 65
   257
 75
     1
175
     1
 42
1.0
 92
        8
 66
     7
 43
1.0
 76
     1
 77
     6
 78
     2
 67
     7
 79
     5
170
     0
171
     0
290
     0
174
     0
 93
       13
 44
0.0
173
     0
291
     1
 45
0.0
1001
ACAD
1000
AcDbSavedByObjectVersion
1070
     0
  0
VISUALSTYLE
  5
2C
102
{ACAD_REACTORS
330
2A
102
}
330
2A
100
AcDbVisualStyle
  2
FlatWithEdges
 70
     1
 71
     2
 72
     1
 73
     1
 90
        2
 40
-0.6
 41
30.0
 62
     5
 63
     7
421
 16777215
 74
     1
 91
        4
 64
     7
 65
   257
 75
     1
175
     1
 42
1.0
 92
        0
 66
   257
 43
1.0
 76
     1
 77
     6
 78
     2
 67
     7
 79
     5
170
     0
171
     0
290
     0
174
     0
 93
       13
 44
0.0
173
     0
291
     1
 45
0.0
1001
ACAD
1000
AcDbSavedByObjectVersion
1070
     0
  0
VISUALSTYLE
  5
2D
102
{ACAD_REACTORS
330
2A
102
}
330
2A
100
AcDbVisualStyle
  2
Gouraud
 70
     2
 71
     2
 72
     2
 73
     1
 90
        2
 40
-0.6
 41
30.0
 62
     5
 63
     7
421
 16777215
 74
     0
 91
        4
 64
     7
 65
   257
 75
     1
175
     1
 42
1.0
 92
        0
 66
     7
 43
1.0
 76
     1
 77
     6
 78
     2
 67
     7
 79
     5
170
     0
171
     0
290
     0
174
     0
 93
       13
 44
0.0
173
     0
291
     1
 45
0.0
1001
ACAD
1000
AcDbSavedByObjectVersion
1070
     0
  0
VISUALSTYLE
  5
2E
102
{ACAD_REACTORS
330
2A
102
}
330
2A
100
AcDbVisualStyle
  2
GouraudWithEdges
 70
     3
 71
     2
 72
     2
 73
     1
 90
        2
 40
-0.6
 41
30.0
 62
     5
 63
     7
421
 16777215
 74
     1
 91
        4
 64
     7
 65
   257
 75
     1
175
     1
 42
1.0
 92
        0
 66
   257
 43
1.0
 76
     1
 77
     6
 78
     2
 67
     7
 79
     5
170
     0
171
     0
290
     0
174
     0
 93
       13
 44
0.0
173
     0
291
     1
 45
0.0
1001
ACAD
1000
AcDbSavedByObjectVersion
1070
     0
  0
VISUALSTYLE
  5
38
102
{ACAD_REACTORS
330
2A
102
}
330
2A
100
AcDbVisualStyle
  2
Linepattern
 70
    14
 71
     2
 72
     2
 73
     0
 90
        0
 40
-0.6
 41
-30.0
 62
     5
 63
     7
421
 16777215
 74
     1
 91
        4
 64
     7
 65
   257
 75
     7
175
     7
 42
1.0
 92
        8
 66
     7
 43
1.0
 76
     1
 77
     6
 78
     2
 67
     7
 79
     5
170
     0
171
     0
290
     0
174
     0
 93
        1
 44
0.0
173
     0
291
     1
 45
0.0
1001
ACAD
1000
AcDbSavedByObjectVersion
1070
     0
  0
VISUALSTYLE
  5
33
102
{ACAD_REACTORS
330
2A
102
}
330
2A
100
AcDbVisualStyle
  2
Realistic
 70
     8
 71
     2
 72
     2
 73
     0
 90
        0
 40
-0.6
 41
-30.0
 62
     5
 63
     7
421
 16777215
 74
     1
 91
        0
 64
     7
 65
   257
 75
     1
175
     1
 42
1.0
 92
        8
 66
     8
424
  7895160
 43
1.0
 76
     1
 77
     6
 78
     2
 67
     7
 79
     5
170
     0
171
     0
290
     0
174
     0
 93
       13
 44
0.0
173
     0
291
     0
 45
0.0
1001
ACAD
1000
AcDbSavedByObjectVersion
1070
     0
  0
VISUALSTYLE
  5
37
102
{ACAD_REACTORS
330
2A
102
}
330
2A
100
AcDbVisualStyle
  2
Thicken
 70
    13
 71
     2
 72
     2
 73
     0
 90
        0
 40
-0.6
 41
-30.0
 62
     5
 63
     7
421
 16777215
 74
     1
 91
        4
 64
     7
 65
   257
 75
     1
175
     1
 42
1.0
 92
       12
 66
     7
 43
1.0
 76
     1
 77
     6
 78
     2
 67
     7
 79
     5
170
     0
171
     0
290
     0
174
     0
 93
        1
 44
0.0
173
     0
291
     1
 45
0.0
1001
ACAD
1000
AcDbSavedByObjectVersion
1070
     0
  0
ENDSEC
  0
EOF
