  0
SECTION
  2
HEADER
  9
$ACADVER
  1
AC1018
  9
$ACADMAINTVER
 70
     0
  9
$DWGCODEPAGE
  3
ANSI_932
  9
$INSBASE
 10
0.0
 20
0.0
 30
0.0
  9
$EXTMIN
 10
1.000000000000000E+20
 20
1.000000000000000E+20
 30
1.000000000000000E+20
  9
$EXTMAX
 10
-1.000000000000000E+20
 20
-1.000000000000000E+20
 30
-1.000000000000000E+20
  9
$LIMMIN
 10
0.0
 20
0.0
  9
$LIMMAX
 10
12.0
 20
9.0
  9
$ORTHOMODE
 70
     0
  9
$REGENMODE
 70
     1
  9
$FILLMODE
 70
     1
  9
$QTEXTMODE
 70
     0
  9
$MIRRTEXT
 70
     1
  9
$LTSCALE
 40
1.0
  9
$ATTMODE
 70
     1
  9
$TEXTSIZE
 40
0.2
  9
$TRACEWID
 40
0.05
  9
$TEXTSTYLE
  7
Standard
  9
$CLAYER
  8
0
  9
$CELTYPE
  6
ByLayer
  9
$CECOLOR
 62
   256
  9
$CELTSCALE
 40
1.0
  9
$DISPSILH
 70
     0
  9
$DIMSCALE
 40
1.0
  9
$DIMASZ
 40
0.18
  9
$DIMEXO
 40
0.0625
  9
$DIMDLI
 40
0.38
  9
$DIMRND
 40
0.0
  9
$DIMDLE
 40
0.0
  9
$DIMEXE
 40
0.18
  9
$DIMTP
 40
0.0
  9
$DIMTM
 40
0.0
  9
$DIMTXT
 40
0.18
  9
$DIMCEN
 40
0.09
  9
$DIMTSZ
 40
0.0
  9
$DIMTOL
 70
     0
  9
$DIMLIM
 70
     0
  9
$DIMTIH
 70
     1
  9
$DIMTOH
 70
     1
  9
$DIMSE1
 70
     0
  9
$DIMSE2
 70
     0
  9
$DIMTAD
 70
     0
  9
$DIMZIN
 70
     0
  9
$DIMBLK
  1

  9
$DIMASO
 70
     1
  9
$DIMSHO
 70
     1
  9
$DIMPOST
  1

  9
$DIMAPOST
  1

  9
$DIMALT
 70
     0
  9
$DIMALTD
 70
     2
  9
$DIMALTF
 40
25.4
  9
$DIMLFAC
 40
1.0
  9
$DIMTOFL
 70
     0
  9
$DIMTVP
 40
0.0
  9
$DIMTIX
 70
     0
  9
$DIMSOXD
 70
     0
  9
$DIMSAH
 70
     0
  9
$DIMBLK1
  1

  9
$DIMBLK2
  1

  9
$DIMSTYLE
  2
Standard
  9
$DIMCLRD
 70
     0
  9
$DIMCLRE
 70
     0
  9
$DIMCLRT
 70
     0
  9
$DIMTFAC
 40
1.0
  9
$DIMGAP
 40
0.09
  9
$DIMJUST
 70
     0
  9
$DIMSD1
 70
     0
  9
$DIMSD2
 70
     0
  9
$DIMTOLJ
 70
     1
  9
$DIMTZIN
 70
     0
  9
$DIMALTZ
 70
     0
  9
$DIMALTTZ
 70
     0
  9
$DIMUPT
 70
     0
  9
$DIMDEC
 70
     4
  9
$DIMTDEC
 70
     4
  9
$DIMALTU
 70
     2
  9
$DIMALTTD
 70
     2
  9
$DIMTXSTY
  7
Standard
  9
$DIMAUNIT
 70
     0
  9
$DIMADEC
 70
     0
  9
$DIMALTRND
 40
0.0
  9
$DIMAZIN
 70
     0
  9
$DIMDSEP
 70
    46
  9
$DIMATFIT
 70
     3
  9
$DIMFRAC
 70
     0
  9
$DIMLDRBLK
  1

  9
$DIMLUNIT
 70
     2
  9
$DIMLWD
 70
    -2
  9
$DIMLWE
 70
    -2
  9
$DIMTMOVE
 70
     0
  9
$LUNITS
 70
     2
  9
$LUPREC
 70
     4
  9
$SKETCHINC
 40
0.1
  9
$FILLETRAD
 40
0.5
  9
$AUNITS
 70
     0
  9
$AUPREC
 70
     0
  9
$MENU
  1
.
  9
$ELEVATION
 40
0.0
  9
$PELEVATION
 40
0.0
  9
$THICKNESS
 40
0.0
  9
$LIMCHECK
 70
     0
  9
$CHAMFERA
 40
0.5
  9
$CHAMFERB
 40
0.5
  9
$CHAMFERC
 40
1.0
  9
$CHAMFERD
 40
0.0
  9
$SKPOLY
 70
     0
  9
$TDCREATE
 40
2456077.607222222
  9
$TDUCREATE
 40
2456077.565555556
  9
$TDUPDATE
 40
2456077.607222234
  9
$TDUUPDATE
 40
2456077.565555567
  9
$TDINDWG
 40
0.0000000116
  9
$TDUSRTIMER
 40
0.0000000116
  9
$USRTIMER
 70
     1
  9
$ANGBASE
 50
0.0
  9
$ANGDIR
 70
     0
  9
$PDMODE
 70
     0
  9
$PDSIZE
 40
0.0
  9
$PLINEWID
 40
0.0
  9
$SPLFRAME
 70
     0
  9
$SPLINETYPE
 70
     6
  9
$SPLINESEGS
 70
     8
  9
$HANDSEED
  5
8A3
  9
$SURFTAB1
 70
     6
  9
$SURFTAB2
 70
     6
  9
$SURFTYPE
 70
     6
  9
$SURFU
 70
     6
  9
$SURFV
 70
     6
  9
$UCSBASE
  2

  9
$UCSNAME
  2

  9
$UCSORG
 10
0.0
 20
0.0
 30
0.0
  9
$UCSXDIR
 10
1.0
 20
0.0
 30
0.0
  9
$UCSYDIR
 10
0.0
 20
1.0
 30
0.0
  9
$UCSORTHOREF
  2

  9
$UCSORTHOVIEW
 70
     0
  9
$UCSORGTOP
 10
0.0
 20
0.0
 30
0.0
  9
$UCSORGBOTTOM
 10
0.0
 20
0.0
 30
0.0
  9
$UCSORGLEFT
 10
0.0
 20
0.0
 30
0.0
  9
$UCSORGRIGHT
 10
0.0
 20
0.0
 30
0.0
  9
$UCSORGFRONT
 10
0.0
 20
0.0
 30
0.0
  9
$UCSORGBACK
 10
0.0
 20
0.0
 30
0.0
  9
$PUCSBASE
  2

  9
$PUCSNAME
  2

  9
$PUCSORG
 10
0.0
 20
0.0
 30
0.0
  9
$PUCSXDIR
 10
1.0
 20
0.0
 30
0.0
  9
$PUCSYDIR
 10
0.0
 20
1.0
 30
0.0
  9
$PUCSORTHOREF
  2

  9
$PUCSORTHOVIEW
 70
     0
  9
$PUCSORGTOP
 10
0.0
 20
0.0
 30
0.0
  9
$PUCSORGBOTTOM
 10
0.0
 20
0.0
 30
0.0
  9
$PUCSORGLEFT
 10
0.0
 20
0.0
 30
0.0
  9
$PUCSORGRIGHT
 10
0.0
 20
0.0
 30
0.0
  9
$PUCSORGFRONT
 10
0.0
 20
0.0
 30
0.0
  9
$PUCSORGBACK
 10
0.0
 20
0.0
 30
0.0
  9
$USERI1
 70
     0
  9
$USERI2
 70
     0
  9
$USERI3
 70
     0
  9
$USERI4
 70
     0
  9
$USERI5
 70
     0
  9
$USERR1
 40
0.0
  9
$USERR2
 40
0.0
  9
$USERR3
 40
0.0
  9
$USERR4
 40
0.0
  9
$USERR5
 40
0.0
  9
$WORLDVIEW
 70
     1
  9
$SHADEDGE
 70
     3
  9
$SHADEDIF
 70
    70
  9
$TILEMODE
 70
     1
  9
$MAXACTVP
 70
    64
  9
$PINSBASE
 10
0.0
 20
0.0
 30
0.0
  9
$PLIMCHECK
 70
     0
  9
$PEXTMIN
 10
1.000000000000000E+20
 20
1.000000000000000E+20
 30
1.000000000000000E+20
  9
$PEXTMAX
 10
-1.000000000000000E+20
 20
-1.000000000000000E+20
 30
-1.000000000000000E+20
  9
$PLIMMIN
 10
0.0
 20
0.0
  9
$PLIMMAX
 10
12.0
 20
9.0
  9
$UNITMODE
 70
     0
  9
$VISRETAIN
 70
     1
  9
$PLINEGEN
 70
     0
  9
$PSLTSCALE
 70
     1
  9
$TREEDEPTH
 70
  3020
  9
$CMLSTYLE
  2
Standard
  9
$CMLJUST
 70
     0
  9
$CMLSCALE
 40
1.0
  9
$PROXYGRAPHICS
 70
     1
  9
$MEASUREMENT
 70
     0
  9
$CELWEIGHT
370
    -1
  9
$ENDCAPS
280
     0
  9
$JOINSTYLE
280
     0
  9
$LWDISPLAY
290
     1
  9
$INSUNITS
 70
     1
  9
$HYPERLINKBASE
  1

  9
$STYLESHEET
  1

  9
$XEDIT
290
     1
  9
$CEPSNTYPE
380
     0
  9
$PSTYLEMODE
290
     1
  9
$FINGERPRINTGUID
  2
{853EC004-31F8-5BD9-5F9D-8B7BEA1697FA}
  9
$VERSIONGUID
  2
{FAEB1C32-E019-11D5-929B-00C0DF256EC4}
  9
$EXTNAMES
290
     1
  9
$PSVPSCALE
 40
0.0
  9
$OLESTARTUP
290
     0
  9
$SORTENTS
280
   127
  9
$INDEXCTL
280
     0
  9
$HIDETEXT
280
     1
  9
$XCLIPFRAME
290
     0
  9
$HALOGAP
280
     0
  9
$OBSCOLOR
 70
   257
  9
$OBSLTYPE
280
     0
  9
$INTERSECTIONDISPLAY
280
     0
  9
$INTERSECTIONCOLOR
 70
   257
  9
$DIMASSOC
280
     2
  9
$PROJECTNAME
  1

  0
ENDSEC
  0
SECTION
  2
CLASSES
  0
CLASS
  1
ACDBDICTIONARYWDFLT
  2
AcDbDictionaryWithDefault
  3
ObjectDBX Classes
 90
        0
 91
        3
280
     0
281
     0
  0
CLASS
  1
VISUALSTYLE
  2
AcDbVisualStyle
  3
ObjectDBX Classes
 90
     4095
 91
        3
280
     0
281
     0
  0
ENDSEC
  0
SECTION
  2
TABLES
  0
TABLE
  2
VPORT
  5
8
330
0
100
AcDbSymbolTable
 70
     1
  0
VPORT
  5
29
330
8
100
AcDbSymbolTableRecord
100
AcDbViewportTableRecord
  2
*Active
 70
     0
 10
0.0
 20
0.0
 11
1.0
 21
1.0
 12
0.0
 22
0.0
 13
0.0
 23
0.0
 14
0.5
 24
0.5
 15
0.5
 25
0.5
 16
0.0
 26
0.0
 36
1.0
 17
105.0008259828644
 27
-148.4999796178229
 37
0.0
 40
296.9999592356459
 41
0.7070763662937379
 42
50.0
 43
0.0
 44
0.0
 50
0.0
 51
0.0
 71
     0
 72
   100
 73
     1
 74
     3
 75
     0
 76
     0
 77
     0
 78
     0
281
     0
 65
     1
110
0.0
120
0.0
130
0.0
111
1.0
121
0.0
131
0.0
112
0.0
122
1.0
132
0.0
 79
     0
146
0.0
  0
ENDTAB
  0
TABLE
  2
LTYPE
  5
5
330
0
100
AcDbSymbolTable
 70
     1
  0
LTYPE
  5
14
330
5
100
AcDbSymbolTableRecord
100
AcDbLinetypeTableRecord
  2
ByBlock
 70
     0
  3

 72
    65
 73
     0
 40
0.0
  0
LTYPE
  5
15
330
5
100
AcDbSymbolTableRecord
100
AcDbLinetypeTableRecord
  2
ByLayer
 70
     0
  3

 72
    65
 73
     0
 40
0.0
  0
LTYPE
  5
16
330
5
100
AcDbSymbolTableRecord
100
AcDbLinetypeTableRecord
  2
Continuous
 70
     0
  3
Solid line
 72
    65
 73
     0
 40
0.0
  0
ENDTAB
  0
TABLE
  2
LAYER
  5
2
330
0
100
AcDbSymbolTable
 70
     2
  0
LAYER
  5
10
330
2
100
AcDbSymbolTableRecord
100
AcDbLayerTableRecord
  2
0
 70
     0
 62
     7
  6
Continuous
370
    -3
390
F
  0
LAYER
  5
3B
330
2
100
AcDbSymbolTableRecord
100
AcDbLayerTableRecord
  2
Ebene 1
 70
     0
 62
     7
  6
Continuous
370
    -3
390
F
  0
ENDTAB
  0
TABLE
  2
STYLE
  5
3
330
0
100
AcDbSymbolTable
 70
     1
  0
STYLE
  5
11
330
3
100
AcDbSymbolTableRecord
100
AcDbTextStyleTableRecord
  2
Standard
 70
     0
 40
0.0
 41
1.0
 50
0.0
 71
     0
 42
0.2
  3
txt
  4

  0
ENDTAB
  0
TABLE
  2
VIEW
  5
6
330
0
100
AcDbSymbolTable
 70
     0
  0
ENDTAB
  0
TABLE
  2
UCS
  5
7
330
0
100
AcDbSymbolTable
 70
     0
  0
ENDTAB
  0
TABLE
  2
APPID
  5
9
330
0
100
AcDbSymbolTable
 70
     1
  0
APPID
  5
12
330
9
100
AcDbSymbolTableRecord
100
AcDbRegAppTableRecord
  2
ACAD
 70
     0
  0
ENDTAB
  0
TABLE
  2
DIMSTYLE
  5
A
330
0
100
AcDbSymbolTable
 70
     1
100
AcDbDimStyleTable
  0
DIMSTYLE
105
27
330
A
100
AcDbSymbolTableRecord
100
AcDbDimStyleTableRecord
  2
Standard
 70
     0
340
11
  0
ENDTAB
  0
TABLE
  2
BLOCK_RECORD
  5
1
330
0
100
AcDbSymbolTable
 70
     5
  0
BLOCK_RECORD
  5
1F
330
1
100
AcDbSymbolTableRecord
100
AcDbBlockTableRecord
  2
*Model_Space
340
22
  0
BLOCK_RECORD
  5
1B
330
1
100
AcDbSymbolTableRecord
100
AcDbBlockTableRecord
  2
*Paper_Space
340
1E
  0
BLOCK_RECORD
  5
23
330
1
100
AcDbSymbolTableRecord
100
AcDbBlockTableRecord
  2
*Paper_Space0
340
26
  0
BLOCK_RECORD
  5
4A
330
1
100
AcDbSymbolTableRecord
100
AcDbBlockTableRecord
  2
block 2
340
0
102
{BLKREFS
331
4B
102
}
  0
BLOCK_RECORD
  5
50F
330
1
100
AcDbSymbolTableRecord
100
AcDbBlockTableRecord
  2
block 3
340
0
102
{BLKREFS
331
510
102
}
  0
BLOCK_RECORD
  5
777
330
1
100
AcDbSymbolTableRecord
100
AcDbBlockTableRecord
  2
block 4
340
0
102
{BLKREFS
331
778
102
}
  0
BLOCK_RECORD
  5
78B
330
1
100
AcDbSymbolTableRecord
100
AcDbBlockTableRecord
  2
block 5
340
0
102
{BLKREFS
331
78C
102
}
  0
ENDTAB
  0
ENDSEC
  0
SECTION
  2
BLOCKS
  0
BLOCK
  5
20
330
1F
100
AcDbEntity
  8
0
100
AcDbBlockBegin
  2
*Model_Space
 70
     0
 71
     0
 10
0.0
 20
0.0
 30
0.0
  3
*Model_Space
  1

  0
ENDBLK
  5
21
330
1F
100
AcDbEntity
  8
0
100
AcDbBlockEnd
  0
BLOCK
  5
1C
330
1B
100
AcDbEntity
 67
     1
  8
0
100
AcDbBlockBegin
  2
*Paper_Space
 70
     0
 71
     0
 10
0.0
 20
0.0
 30
0.0
  3
*Paper_Space
  1

  0
ENDBLK
  5
1D
330
1B
100
AcDbEntity
 67
     1
  8
0
100
AcDbBlockEnd
  0
BLOCK
  5
24
330
23
100
AcDbEntity
  8
0
100
AcDbBlockBegin
  2
*Paper_Space0
 70
     0
 71
     0
 10
0.0
 20
0.0
 30
0.0
  3
*Paper_Space0
  1

  0
ENDBLK
  5
25
330
23
100
AcDbEntity
  8
0
100
AcDbBlockEnd
  0
BLOCK
  5
4C
330
4A
100
AcDbEntity
  8
0
100
AcDbBlockBegin
  2
block 2
 70
     0
 71
     0
 10
0.0
 20
0.0
 30
0.0
  3
block 2
  1

  0
POLYLINE
  5
4E
330
4A
100
AcDbEntity
  8
Ebene 1
 62
   179
420
  1709851
370
    25
100
AcDb2dPolyline
 66
     1
 10
0.0
 20
0.0
 30
0.0
  0
VERTEX
  5
4F
330
4E
100
AcDbEntity
  8
Ebene 1
 62
   179
420
  1709851
370
    25
100
AcDbVertex
100
AcDb2dVertex
 10
154.4143472921256
 20
-200.8752495157534
 30
0.0
  0
VERTEX
  5
50
330
4E
100
AcDbEntity
  8
Ebene 1
 62
   179
420
  1709851
370
    25
100
AcDbVertex
100
AcDb2dVertex
 10
154.4143472921256
 20
-90.91451956277484
 30
0.0
  0
SEQEND
  5
51
330
4E
100
AcDbEntity
  8
Ebene 1
370
    25
  0
POLYLINE
  5
52
330
4A
100
AcDbEntity
  8
Ebene 1
 62
   179
420
  1709851
370
    25
100
AcDb2dPolyline
 66
     1
 10
0.0
 20
0.0
 30
0.0
  0
VERTEX
  5
53
330
52
100
AcDbEntity
  8
Ebene 1
 62
   179
420
  1709851
370
    25
100
AcDbVertex
100
AcDb2dVertex
 10
154.4143472921256
 20
-90.91451956277484
 30
0.0
  0
VERTEX
  5
54
330
52
100
AcDbEntity
  8
Ebene 1
 62
   179
420
  1709851
370
    25
100
AcDbVertex
100
AcDb2dVertex
 10
54.44422199159728
 20
-90.91451956277484
 30
0.0
  0
SEQEND
  5
55
330
52
100
AcDbEntity
  8
Ebene 1
370
    25
  0
POLYLINE
  5
56
330
4A
100
AcDbEntity
  8
Ebene 1
 62
   179
420
  1709851
370
    25
100
AcDb2dPolyline
 66
     1
 10
0.0
 20
0.0
 30
0.0
  0
VERTEX
  5
57
330
56
100
AcDbEntity
  8
Ebene 1
 62
   179
420
  1709851
370
    25
100
AcDbVertex
100
AcDb2dVertex
 10
54.44422199159728
 20
-90.91451956277484
 30
0.0
  0
VERTEX
  5
58
330
56
100
AcDbEntity
  8
Ebene 1
 62
   179
420
  1709851
370
    25
100
AcDbVertex
100
AcDb2dVertex
 10
54.44422199159728
 20
-200.8752495157534
 30
0.0
  0
SEQEND
  5
59
330
56
100
AcDbEntity
  8
Ebene 1
370
    25
  0
POLYLINE
  5
5A
330
4A
100
AcDbEntity
  8
Ebene 1
 62
   179
420
  1709851
370
    25
100
AcDb2dPolyline
 66
     1
 10
0.0
 20
0.0
 30
0.0
  0
VERTEX
  5
5B
330
5A
100
AcDbEntity
  8
Ebene 1
 62
   179
420
  1709851
370
    25
100
AcDbVertex
100
AcDb2dVertex
 10
54.44422199159728
 20
-200.8752495157534
 30
0.0
  0
VERTEX
  5
5C
330
5A
100
AcDbEntity
  8
Ebene 1
 62
   179
420
  1709851
370
    25
100
AcDbVertex
100
AcDb2dVertex
 10
154.4143472921256
 20
-200.8752495157534
 30
0.0
  0
SEQEND
  5
5D
330
5A
100
AcDbEntity
  8
Ebene 1
370
    25
  0
POLYLINE
  5
5E
330
4A
100
AcDbEntity
  8
Ebene 1
 62
   179
420
  1709851
370
    35
100
AcDb2dPolyline
 66
     1
 10
0.0
 20
0.0
 30
0.0
  0
VERTEX
  5
5F
330
5E
100
AcDbEntity
  8
Ebene 1
 62
   179
420
  1709851
370
    35
100
AcDbVertex
100
AcDb2dVertex
 10
154.4143472921256
 20
-135.0258666654623
 30
0.0
  0
VERTEX
  5
60
330
5E
100
AcDbEntity
  8
Ebene 1
 62
   179
420
  1709851
370
    35
100
AcDbVertex
100
AcDb2dVertex
 10
65.49350448666482
 20
-186.3548610645224
 30
0.0
  0
SEQEND
  5
61
330
5E
100
AcDbEntity
  8
Ebene 1
370
    35
  0
POLYLINE
  5
62
330
4A
100
AcDbEntity
  8
Ebene 1
 62
   179
420
  1709851
370
    35
100
AcDb2dPolyline
 66
     1
 10
0.0
 20
0.0
 30
0.0
  0
VERTEX
  5
63
330
62
100
AcDbEntity
  8
Ebene 1
 62
   179
420
  1709851
370
    35
100
AcDbVertex
100
AcDb2dVertex
 10
154.4143472921256
 20
-133.0363240227305
 30
0.0
  0
VERTEX
  5
64
330
62
100
AcDbEntity
  8
Ebene 1
 62
   179
420
  1709851
370
    35
100
AcDbVertex
100
AcDb2dVertex
 10
63.75752087164743
 20
-185.3599174883823
 30
0.0
  0
SEQEND
  5
65
330
62
100
AcDbEntity
  8
Ebene 1
370
    35
  0
POLYLINE
  5
66
330
4A
100
AcDbEntity
  8
Ebene 1
 62
   179
420
  1709851
370
    35
100
AcDb2dPolyline
 66
     1
 10
0.0
 20
0.0
 30
0.0
  0
VERTEX
  5
67
330
66
100
AcDbEntity
  8
Ebene 1
 62
   179
420
  1709851
370
    35
100
AcDbVertex
100
AcDb2dVertex
 10
63.75752087164743
 20
-185.3599174883823
 30
0.0
  0
VERTEX
  5
68
330
66
100
AcDbEntity
  8
Ebene 1
 62
   179
420
  1709851
370
    35
100
AcDbVertex
100
AcDb2dVertex
 10
65.49315997711629
 20
-186.3548610645224
 30
0.0
  0
SEQEND
  5
69
330
66
100
AcDbEntity
  8
Ebene 1
370
    35
  0
POLYLINE
  5
6A
330
4A
100
AcDbEntity
  8
Ebene 1
 62
   179
420
  1709851
370
    35
100
AcDb2dPolyline
 66
     1
 10
0.0
 20
0.0
 30
0.0
  0
VERTEX
  5
6B
330
6A
100
AcDbEntity
  8
Ebene 1
 62
   179
420
  1709851
370
    35
100
AcDbVertex
100
AcDb2dVertex
 10
63.75752087164743
 20
-185.3599174883823
 30
0.0
  0
VERTEX
  5
6C
330
6A
100
AcDbEntity
  8
Ebene 1
 62
   179
420
  1709851
370
    35
100
AcDbVertex
100
AcDb2dVertex
 10
63.75752087164743
 20
-200.8752495157534
 30
0.0
  0
SEQEND
  5
6D
330
6A
100
AcDbEntity
  8
Ebene 1
370
    35
  0
POLYLINE
  5
6E
330
4A
100
AcDbEntity
  8
Ebene 1
 62
   179
420
  1709851
370
    35
100
AcDb2dPolyline
 66
     1
 10
0.0
 20
0.0
 30
0.0
  0
VERTEX
  5
6F
330
6E
100
AcDbEntity
  8
Ebene 1
 62
   179
420
  1709851
370
    35
100
AcDbVertex
100
AcDb2dVertex
 10
65.49315997711629
 20
-186.3548610645224
 30
0.0
  0
VERTEX
  5
70
330
6E
100
AcDbEntity
  8
Ebene 1
 62
   179
420
  1709851
370
    35
100
AcDbVertex
100
AcDb2dVertex
 10
65.49315997711629
 20
-200.8752495157534
 30
0.0
  0
SEQEND
  5
71
330
6E
100
AcDbEntity
  8
Ebene 1
370
    35
  0
MTEXT
  5
72
330
4A
100
AcDbEntity
  8
Ebene 1
 62
   179
420
  1709851
100
AcDbMText
 10
130.1360703884729
 20
-180.957085458233
 30
0.0
 40
3.323900430802021
 41
0.0
 71
     7
 72
     1
  1
\fArial|b0|i0|c0|p34;\W1.00063;1
 73
     1
 44
1.0
  0
MTEXT
  5
73
330
4A
100
AcDbEntity
  8
Ebene 1
 62
   179
420
  1709851
100
AcDbMText
 10
78.93540579623837
 20
-166.1169921459708
 30
0.0
 40
3.323900430802021
 41
0.0
 71
     7
 72
     1
  1
\fArial|b0|i0|c0|p34;\W1.00063;3
 73
     1
 44
1.0
  0
MTEXT
  5
74
330
4A
100
AcDbEntity
  8
Ebene 1
 62
   179
420
  1709851
100
AcDbMText
 10
115.9564018807331
 20
-115.9114433846506
 30
0.0
 40
3.323900430802021
 41
0.0
 71
     7
 72
     1
  1
\fArial|b0|i0|c0|p34;\W1.00063;2
 73
     1
 44
1.0
  0
POLYLINE
  5
75
330
4A
100
AcDbEntity
  8
Ebene 1
 62
   179
420
  1709851
370
    18
100
AcDb2dPolyline
 66
     1
 10
0.0
 20
0.0
 30
0.0
  0
VERTEX
  5
76
330
75
100
AcDbEntity
  8
Ebene 1
 62
   179
420
  1709851
370
    18
100
AcDbVertex
100
AcDb2dVertex
 10
113.7742784003759
 20
-163.9603623722044
 30
0.0
  0
VERTEX
  5
77
330
75
100
AcDbEntity
  8
Ebene 1
 62
   179
420
  1709851
370
    18
100
AcDbVertex
100
AcDb2dVertex
 10
113.7742784003759
 20
-161.9711642390211
 30
0.0
  0
SEQEND
  5
78
330
75
100
AcDbEntity
  8
Ebene 1
370
    18
  0
POLYLINE
  5
79
330
4A
100
AcDbEntity
  8
Ebene 1
 62
   179
420
  1709851
370
    18
100
AcDb2dPolyline
 66
     1
 10
0.0
 20
0.0
 30
0.0
  0
VERTEX
  5
7A
330
79
100
AcDbEntity
  8
Ebene 1
 62
   179
420
  1709851
370
    18
100
AcDbVertex
100
AcDb2dVertex
 10
113.7742784003759
 20
-166.9665526926334
 30
0.0
  0
VERTEX
  5
7B
330
79
100
AcDbEntity
  8
Ebene 1
 62
   179
420
  1709851
370
    18
100
AcDbVertex
100
AcDb2dVertex
 10
113.7742784003759
 20
-164.9559949674416
 30
0.0
  0
SEQEND
  5
7C
330
79
100
AcDbEntity
  8
Ebene 1
370
    18
  0
POLYLINE
  5
7D
330
4A
100
AcDbEntity
  8
Ebene 1
 62
   179
420
  1709851
370
    18
100
AcDb2dPolyline
 66
     1
 10
0.0
 20
0.0
 30
0.0
  0
VERTEX
  5
7E
330
7D
100
AcDbEntity
  8
Ebene 1
 62
   179
420
  1709851
370
    18
100
AcDbVertex
100
AcDb2dVertex
 10
113.7742784003759
 20
-169.9720539939653
 30
0.0
  0
VERTEX
  5
7F
330
7D
100
AcDbEntity
  8
Ebene 1
 62
   179
420
  1709851
370
    18
100
AcDbVertex
100
AcDb2dVertex
 10
113.7742784003759
 20
-167.9608072496765
 30
0.0
  0
SEQEND
  5
80
330
7D
100
AcDbEntity
  8
Ebene 1
370
    18
  0
POLYLINE
  5
81
330
4A
100
AcDbEntity
  8
Ebene 1
 62
   179
420
  1709851
370
    18
100
AcDb2dPolyline
 66
     1
 10
0.0
 20
0.0
 30
0.0
  0
VERTEX
  5
82
330
81
100
AcDbEntity
  8
Ebene 1
 62
   179
420
  1709851
370
    18
100
AcDbVertex
100
AcDb2dVertex
 10
113.7742784003759
 20
-172.9561957032887
 30
0.0
  0
VERTEX
  5
83
330
81
100
AcDbEntity
  8
Ebene 1
 62
   179
420
  1709851
370
    18
100
AcDbVertex
100
AcDb2dVertex
 10
113.7742784003759
 20
-170.9669975701055
 30
0.0
  0
SEQEND
  5
84
330
81
100
AcDbEntity
  8
Ebene 1
370
    18
  0
POLYLINE
  5
85
330
4A
100
AcDbEntity
  8
Ebene 1
 62
   179
420
  1709851
370
    18
100
AcDb2dPolyline
 66
     1
 10
0.0
 20
0.0
 30
0.0
  0
VERTEX
  5
86
330
85
100
AcDbEntity
  8
Ebene 1
 62
   179
420
  1709851
370
    18
100
AcDbVertex
100
AcDb2dVertex
 10
113.7742784003759
 20
-175.9623860237178
 30
0.0
  0
VERTEX
  5
87
330
85
100
AcDbEntity
  8
Ebene 1
 62
   179
420
  1709851
370
    18
100
AcDbVertex
100
AcDb2dVertex
 10
113.7742784003759
 20
-173.9724988714374
 30
0.0
  0
SEQEND
  5
88
330
85
100
AcDbEntity
  8
Ebene 1
370
    18
  0
POLYLINE
  5
89
330
4A
100
AcDbEntity
  8
Ebene 1
 62
   179
420
  1709851
370
    18
100
AcDb2dPolyline
 66
     1
 10
0.0
 20
0.0
 30
0.0
  0
VERTEX
  5
8A
330
89
100
AcDbEntity
  8
Ebene 1
 62
   179
420
  1709851
370
    18
100
AcDbVertex
100
AcDb2dVertex
 10
113.7742784003759
 20
-178.9678873250497
 30
0.0
  0
VERTEX
  5
8B
330
89
100
AcDbEntity
  8
Ebene 1
 62
   179
420
  1709851
370
    18
100
AcDbVertex
100
AcDb2dVertex
 10
113.7742784003759
 20
-176.9566405807608
 30
0.0
  0
SEQEND
  5
8C
330
89
100
AcDbEntity
  8
Ebene 1
370
    18
  0
POLYLINE
  5
8D
330
4A
100
AcDbEntity
  8
Ebene 1
 62
   179
420
  1709851
370
    18
100
AcDb2dPolyline
 66
     1
 10
0.0
 20
0.0
 30
0.0
  0
VERTEX
  5
8E
330
8D
100
AcDbEntity
  8
Ebene 1
 62
   179
420
  1709851
370
    18
100
AcDbVertex
100
AcDb2dVertex
 10
113.7742784003759
 20
-181.9733886263816
 30
0.0
  0
VERTEX
  5
8F
330
8D
100
AcDbEntity
  8
Ebene 1
 62
   179
420
  1709851
370
    18
100
AcDbVertex
100
AcDb2dVertex
 10
113.7742784003759
 20
-179.9628309011898
 30
0.0
  0
SEQEND
  5
90
330
8D
100
AcDbEntity
  8
Ebene 1
370
    18
  0
POLYLINE
  5
91
330
4A
100
AcDbEntity
  8
Ebene 1
 62
   179
420
  1709851
370
    18
100
AcDb2dPolyline
 66
     1
 10
0.0
 20
0.0
 30
0.0
  0
VERTEX
  5
92
330
91
100
AcDbEntity
  8
Ebene 1
 62
   179
420
  1709851
370
    18
100
AcDbVertex
100
AcDb2dVertex
 10
113.7742784003759
 20
-184.3015841553135
 30
0.0
  0
VERTEX
  5
93
330
91
100
AcDbEntity
  8
Ebene 1
 62
   179
420
  1709851
370
    18
100
AcDbVertex
100
AcDb2dVertex
 10
113.7742784003759
 20
-184.3015841553135
 30
0.0
  0
VERTEX
  5
94
330
91
100
AcDbEntity
  8
Ebene 1
 62
   179
420
  1709851
370
    18
100
AcDbVertex
100
AcDb2dVertex
 10
113.7742784003759
 20
-182.9683322025218
 30
0.0
  0
SEQEND
  5
95
330
91
100
AcDbEntity
  8
Ebene 1
370
    18
  0
POLYLINE
  5
96
330
4A
100
AcDbEntity
  8
Ebene 1
 62
   179
420
  1709851
370
    18
100
AcDb2dPolyline
 66
     1
 10
0.0
 20
0.0
 30
0.0
  0
VERTEX
  5
97
330
96
100
AcDbEntity
  8
Ebene 1
 62
   179
420
  1709851
370
    18
100
AcDbVertex
100
AcDb2dVertex
 10
106.8317219785004
 20
-160.9548610708724
 30
0.0
  0
VERTEX
  5
98
330
96
100
AcDbEntity
  8
Ebene 1
 62
   179
420
  1709851
370
    18
100
AcDbVertex
100
AcDb2dVertex
 10
106.8317219785004
 20
-160.4890841612666
 30
0.0
  0
SEQEND
  5
99
330
96
100
AcDbEntity
  8
Ebene 1
370
    18
  0
POLYLINE
  5
9A
330
4A
100
AcDbEntity
  8
Ebene 1
 62
   179
420
  1709851
370
    18
100
AcDb2dPolyline
 66
     1
 10
0.0
 20
0.0
 30
0.0
  0
VERTEX
  5
9B
330
9A
100
AcDbEntity
  8
Ebene 1
 62
   179
420
  1709851
370
    18
100
AcDbVertex
100
AcDb2dVertex
 10
106.8317219785004
 20
-163.9603623722044
 30
0.0
  0
VERTEX
  5
9C
330
9A
100
AcDbEntity
  8
Ebene 1
 62
   179
420
  1709851
370
    18
100
AcDbVertex
100
AcDb2dVertex
 10
106.8317219785004
 20
-161.9711642390211
 30
0.0
  0
SEQEND
  5
9D
330
9A
100
AcDbEntity
  8
Ebene 1
370
    18
  0
POLYLINE
  5
9E
330
4A
100
AcDbEntity
  8
Ebene 1
 62
   179
420
  1709851
370
    18
100
AcDb2dPolyline
 66
     1
 10
0.0
 20
0.0
 30
0.0
  0
VERTEX
  5
9F
330
9E
100
AcDbEntity
  8
Ebene 1
 62
   179
420
  1709851
370
    18
100
AcDbVertex
100
AcDb2dVertex
 10
106.8317219785004
 20
-166.9665526926334
 30
0.0
  0
VERTEX
  5
A0
330
9E
100
AcDbEntity
  8
Ebene 1
 62
   179
420
  1709851
370
    18
100
AcDbVertex
100
AcDb2dVertex
 10
106.8317219785004
 20
-164.9559949674416
 30
0.0
  0
SEQEND
  5
A1
330
9E
100
AcDbEntity
  8
Ebene 1
370
    18
  0
POLYLINE
  5
A2
330
4A
100
AcDbEntity
  8
Ebene 1
 62
   179
420
  1709851
370
    18
100
AcDb2dPolyline
 66
     1
 10
0.0
 20
0.0
 30
0.0
  0
VERTEX
  5
A3
330
A2
100
AcDbEntity
  8
Ebene 1
 62
   179
420
  1709851
370
    18
100
AcDbVertex
100
AcDb2dVertex
 10
106.8317219785004
 20
-169.9720539939653
 30
0.0
  0
VERTEX
  5
A4
330
A2
100
AcDbEntity
  8
Ebene 1
 62
   179
420
  1709851
370
    18
100
AcDbVertex
100
AcDb2dVertex
 10
106.8317219785004
 20
-167.9608072496765
 30
0.0
  0
SEQEND
  5
A5
330
A2
100
AcDbEntity
  8
Ebene 1
370
    18
  0
POLYLINE
  5
A6
330
4A
100
AcDbEntity
  8
Ebene 1
 62
   179
420
  1709851
370
    18
100
AcDb2dPolyline
 66
     1
 10
0.0
 20
0.0
 30
0.0
  0
VERTEX
  5
A7
330
A6
100
AcDbEntity
  8
Ebene 1
 62
   179
420
  1709851
370
    18
100
AcDbVertex
100
AcDb2dVertex
 10
106.8317219785004
 20
-172.9561957032887
 30
0.0
  0
VERTEX
  5
A8
330
A6
100
AcDbEntity
  8
Ebene 1
 62
   179
420
  1709851
370
    18
100
AcDbVertex
100
AcDb2dVertex
 10
106.8317219785004
 20
-170.9669975701055
 30
0.0
  0
SEQEND
  5
A9
330
A6
100
AcDbEntity
  8
Ebene 1
370
    18
  0
POLYLINE
  5
AA
330
4A
100
AcDbEntity
  8
Ebene 1
 62
   179
420
  1709851
370
    18
100
AcDb2dPolyline
 66
     1
 10
0.0
 20
0.0
 30
0.0
  0
VERTEX
  5
AB
330
AA
100
AcDbEntity
  8
Ebene 1
 62
   179
420
  1709851
370
    18
100
AcDbVertex
100
AcDb2dVertex
 10
106.8317219785004
 20
-175.9623860237178
 30
0.0
  0
VERTEX
  5
AC
330
AA
100
AcDbEntity
  8
Ebene 1
 62
   179
420
  1709851
370
    18
100
AcDbVertex
100
AcDb2dVertex
 10
106.8317219785004
 20
-173.9724988714374
 30
0.0
  0
SEQEND
  5
AD
330
AA
100
AcDbEntity
  8
Ebene 1
370
    18
  0
POLYLINE
  5
AE
330
4A
100
AcDbEntity
  8
Ebene 1
 62
   179
420
  1709851
370
    18
100
AcDb2dPolyline
 66
     1
 10
0.0
 20
0.0
 30
0.0
  0
VERTEX
  5
AF
330
AE
100
AcDbEntity
  8
Ebene 1
 62
   179
420
  1709851
370
    18
100
AcDbVertex
100
AcDb2dVertex
 10
106.8317219785004
 20
-178.9678873250497
 30
0.0
  0
VERTEX
  5
B0
330
AE
100
AcDbEntity
  8
Ebene 1
 62
   179
420
  1709851
370
    18
100
AcDbVertex
100
AcDb2dVertex
 10
106.8317219785004
 20
-176.9566405807608
 30
0.0
  0
SEQEND
  5
B1
330
AE
100
AcDbEntity
  8
Ebene 1
370
    18
  0
POLYLINE
  5
B2
330
4A
100
AcDbEntity
  8
Ebene 1
 62
   179
420
  1709851
370
    18
100
AcDb2dPolyline
 66
     1
 10
0.0
 20
0.0
 30
0.0
  0
VERTEX
  5
B3
330
B2
100
AcDbEntity
  8
Ebene 1
 62
   179
420
  1709851
370
    18
100
AcDbVertex
100
AcDb2dVertex
 10
106.8317219785004
 20
-181.9733886263816
 30
0.0
  0
VERTEX
  5
B4
330
B2
100
AcDbEntity
  8
Ebene 1
 62
   179
420
  1709851
370
    18
100
AcDbVertex
100
AcDb2dVertex
 10
106.8317219785004
 20
-179.9628309011898
 30
0.0
  0
SEQEND
  5
B5
330
B2
100
AcDbEntity
  8
Ebene 1
370
    18
  0
POLYLINE
  5
B6
330
4A
100
AcDbEntity
  8
Ebene 1
 62
   179
420
  1709851
370
    18
100
AcDb2dPolyline
 66
     1
 10
0.0
 20
0.0
 30
0.0
  0
VERTEX
  5
B7
330
B6
100
AcDbEntity
  8
Ebene 1
 62
   179
420
  1709851
370
    18
100
AcDbVertex
100
AcDb2dVertex
 10
106.8317219785004
 20
-184.9582193548021
 30
0.0
  0
VERTEX
  5
B8
330
B6
100
AcDbEntity
  8
Ebene 1
 62
   179
420
  1709851
370
    18
100
AcDbVertex
100
AcDb2dVertex
 10
106.8317219785004
 20
-182.9683322025218
 30
0.0
  0
SEQEND
  5
B9
330
B6
100
AcDbEntity
  8
Ebene 1
370
    18
  0
POLYLINE
  5
BA
330
4A
100
AcDbEntity
  8
Ebene 1
 62
   179
420
  1709851
370
    18
100
AcDb2dPolyline
 66
     1
 10
0.0
 20
0.0
 30
0.0
  0
VERTEX
  5
BB
330
BA
100
AcDbEntity
  8
Ebene 1
 62
   179
420
  1709851
370
    18
100
AcDbVertex
100
AcDb2dVertex
 10
106.8317219785004
 20
-187.9637206561341
 30
0.0
  0
VERTEX
  5
BC
330
BA
100
AcDbEntity
  8
Ebene 1
 62
   179
420
  1709851
370
    18
100
AcDbVertex
100
AcDb2dVertex
 10
106.8317219785004
 20
-185.9524739118452
 30
0.0
  0
SEQEND
  5
BD
330
BA
100
AcDbEntity
  8
Ebene 1
370
    18
  0
POLYLINE
  5
BE
330
4A
100
AcDbEntity
  8
Ebene 1
 62
   179
420
  1709851
370
    18
100
AcDb2dPolyline
 66
     1
 10
0.0
 20
0.0
 30
0.0
  0
VERTEX
  5
BF
330
BE
100
AcDbEntity
  8
Ebene 1
 62
   179
420
  1709851
370
    18
100
AcDbVertex
100
AcDb2dVertex
 10
106.8317219785004
 20
-190.969221957466
 30
0.0
  0
VERTEX
  5
C0
330
BE
100
AcDbEntity
  8
Ebene 1
 62
   179
420
  1709851
370
    18
100
AcDbVertex
100
AcDb2dVertex
 10
106.8317219785004
 20
-188.9586642322742
 30
0.0
  0
SEQEND
  5
C1
330
BE
100
AcDbEntity
  8
Ebene 1
370
    18
  0
POLYLINE
  5
C2
330
4A
100
AcDbEntity
  8
Ebene 1
 62
   179
420
  1709851
370
    18
100
AcDb2dPolyline
 66
     1
 10
0.0
 20
0.0
 30
0.0
  0
VERTEX
  5
C3
330
C2
100
AcDbEntity
  8
Ebene 1
 62
   179
420
  1709851
370
    18
100
AcDbVertex
100
AcDb2dVertex
 10
106.8317219785004
 20
-193.9540526858865
 30
0.0
  0
VERTEX
  5
C4
330
C2
100
AcDbEntity
  8
Ebene 1
 62
   179
420
  1709851
370
    18
100
AcDbVertex
100
AcDb2dVertex
 10
106.8317219785004
 20
-191.9641655336062
 30
0.0
  0
SEQEND
  5
C5
330
C2
100
AcDbEntity
  8
Ebene 1
370
    18
  0
POLYLINE
  5
C6
330
4A
100
AcDbEntity
  8
Ebene 1
 62
   179
420
  1709851
370
    18
100
AcDb2dPolyline
 66
     1
 10
0.0
 20
0.0
 30
0.0
  0
VERTEX
  5
C7
330
C6
100
AcDbEntity
  8
Ebene 1
 62
   179
420
  1709851
370
    18
100
AcDbVertex
100
AcDb2dVertex
 10
106.8317219785004
 20
-196.9595539872184
 30
0.0
  0
VERTEX
  5
C8
330
C6
100
AcDbEntity
  8
Ebene 1
 62
   179
420
  1709851
370
    18
100
AcDbVertex
100
AcDb2dVertex
 10
106.8317219785004
 20
-194.9703558540352
 30
0.0
  0
SEQEND
  5
C9
330
C6
100
AcDbEntity
  8
Ebene 1
370
    18
  0
POLYLINE
  5
CA
330
4A
100
AcDbEntity
  8
Ebene 1
 62
   179
420
  1709851
370
    18
100
AcDb2dPolyline
 66
     1
 10
0.0
 20
0.0
 30
0.0
  0
VERTEX
  5
CB
330
CA
100
AcDbEntity
  8
Ebene 1
 62
   179
420
  1709851
370
    18
100
AcDbVertex
100
AcDb2dVertex
 10
106.8317219785004
 20
-199.9650552885504
 30
0.0
  0
VERTEX
  5
CC
330
CA
100
AcDbEntity
  8
Ebene 1
 62
   179
420
  1709851
370
    18
100
AcDbVertex
100
AcDb2dVertex
 10
106.8317219785004
 20
-197.9544975633586
 30
0.0
  0
SEQEND
  5
CD
330
CA
100
AcDbEntity
  8
Ebene 1
370
    18
  0
POLYLINE
  5
CE
330
4A
100
AcDbEntity
  8
Ebene 1
 62
   179
420
  1709851
370
    18
100
AcDb2dPolyline
 66
     1
 10
0.0
 20
0.0
 30
0.0
  0
VERTEX
  5
CF
330
CE
100
AcDbEntity
  8
Ebene 1
 62
   179
420
  1709851
370
    18
100
AcDbVertex
100
AcDb2dVertex
 10
117.1394476703679
 20
-180.7882757794557
 30
0.0
  0
VERTEX
  5
D0
330
CE
100
AcDbEntity
  8
Ebene 1
 62
   179
420
  1709851
370
    18
100
AcDbVertex
100
AcDb2dVertex
 10
117.1187770974564
 20
-180.8089463523672
 30
0.0
  0
SEQEND
  5
D1
330
CE
100
AcDbEntity
  8
Ebene 1
370
    18
  0
POLYLINE
  5
D2
330
4A
100
AcDbEntity
  8
Ebene 1
 62
   179
420
  1709851
370
    18
100
AcDb2dPolyline
 66
     1
 10
0.0
 20
0.0
 30
0.0
  0
VERTEX
  5
D3
330
D2
100
AcDbEntity
  8
Ebene 1
 62
   179
420
  1709851
370
    18
100
AcDbVertex
100
AcDb2dVertex
 10
120.0185139673912
 20
-180.8089463523672
 30
0.0
  0
VERTEX
  5
D4
330
D2
100
AcDbEntity
  8
Ebene 1
 62
   179
420
  1709851
370
    18
100
AcDbVertex
100
AcDb2dVertex
 10
119.5523925482369
 20
-180.5974174895729
 30
0.0
  0
VERTEX
  5
D5
330
D2
100
AcDbEntity
  8
Ebene 1
 62
   179
420
  1709851
370
    18
100
AcDbVertex
100
AcDb2dVertex
 10
119.0873046577282
 20
-180.4706379757157
 30
0.0
  0
VERTEX
  5
D6
330
D2
100
AcDbEntity
  8
Ebene 1
 62
   179
420
  1709851
370
    18
100
AcDbVertex
100
AcDb2dVertex
 10
118.6005126656624
 20
-180.4072482187871
 30
0.0
  0
VERTEX
  5
D7
330
D2
100
AcDbEntity
  8
Ebene 1
 62
   179
420
  1709851
370
    18
100
AcDbVertex
100
AcDb2dVertex
 10
118.092361081588
 20
-180.4492783837071
 30
0.0
  0
VERTEX
  5
D8
330
D2
100
AcDbEntity
  8
Ebene 1
 62
   179
420
  1709851
370
    18
100
AcDbVertex
100
AcDb2dVertex
 10
118.071345999128
 20
-180.4706379757157
 30
0.0
  0
SEQEND
  5
D9
330
D2
100
AcDbEntity
  8
Ebene 1
370
    18
  0
POLYLINE
  5
DA
330
4A
100
AcDbEntity
  8
Ebene 1
 62
   179
420
  1709851
370
    18
100
AcDb2dPolyline
 66
     1
 10
0.0
 20
0.0
 30
0.0
  0
VERTEX
  5
DB
330
DA
100
AcDbEntity
  8
Ebene 1
 62
   179
420
  1709851
370
    18
100
AcDbVertex
100
AcDb2dVertex
 10
112.8006944162443
 20
-188.238639275857
 30
0.0
  0
VERTEX
  5
DC
330
DA
100
AcDbEntity
  8
Ebene 1
 62
   179
420
  1709851
370
    18
100
AcDbVertex
100
AcDb2dVertex
 10
112.8006944162443
 20
-188.3020290327856
 30
0.0
  0
SEQEND
  5
DD
330
DA
100
AcDbEntity
  8
Ebene 1
370
    18
  0
POLYLINE
  5
DE
330
4A
100
AcDbEntity
  8
Ebene 1
 62
   179
420
  1709851
370
    18
100
AcDb2dPolyline
 66
     1
 10
0.0
 20
0.0
 30
0.0
  0
VERTEX
  5
DF
330
DE
100
AcDbEntity
  8
Ebene 1
 62
   179
420
  1709851
370
    18
100
AcDbVertex
100
AcDb2dVertex
 10
113.3298610827786
 20
-185.2965277314537
 30
0.0
  0
VERTEX
  5
E0
330
DE
100
AcDbEntity
  8
Ebene 1
 62
   179
420
  1709851
370
    18
100
AcDbVertex
100
AcDb2dVertex
 10
113.0759575455157
 20
-186.100613017711
 30
0.0
  0
VERTEX
  5
E1
330
DE
100
AcDbEntity
  8
Ebene 1
 62
   179
420
  1709851
370
    18
100
AcDbVertex
100
AcDb2dVertex
 10
112.9061143380929
 20
-186.9474174879854
 30
0.0
  0
VERTEX
  5
E2
330
DE
100
AcDbEntity
  8
Ebene 1
 62
   179
420
  1709851
370
    18
100
AcDbVertex
100
AcDb2dVertex
 10
112.8640841731729
 20
-187.2436956997169
 30
0.0
  0
SEQEND
  5
E3
330
DE
100
AcDbEntity
  8
Ebene 1
370
    18
  0
POLYLINE
  5
E4
330
4A
100
AcDbEntity
  8
Ebene 1
 62
   179
420
  1709851
370
    18
100
AcDb2dPolyline
 66
     1
 10
0.0
 20
0.0
 30
0.0
  0
VERTEX
  5
E5
330
E4
100
AcDbEntity
  8
Ebene 1
 62
   179
420
  1709851
370
    18
100
AcDbVertex
100
AcDb2dVertex
 10
114.8326117334446
 20
-182.7354437477189
 30
0.0
  0
VERTEX
  5
E6
330
E4
100
AcDbEntity
  8
Ebene 1
 62
   179
420
  1709851
370
    18
100
AcDbVertex
100
AcDb2dVertex
 10
114.5787081961817
 20
-183.053081551459
 30
0.0
  0
VERTEX
  5
E7
330
E4
100
AcDbEntity
  8
Ebene 1
 62
   179
420
  1709851
370
    18
100
AcDbVertex
100
AcDb2dVertex
 10
114.0919162041159
 20
-183.7517469158676
 30
0.0
  0
VERTEX
  5
E8
330
E4
100
AcDbEntity
  8
Ebene 1
 62
   179
420
  1709851
370
    18
100
AcDbVertex
100
AcDb2dVertex
 10
113.7315592163588
 20
-184.3863335042506
 30
0.0
  0
SEQEND
  5
E9
330
E4
100
AcDbEntity
  8
Ebene 1
370
    18
  0
POLYLINE
  5
EA
330
4A
100
AcDbEntity
  8
Ebene 1
 62
   179
420
  1709851
370
    18
100
AcDb2dPolyline
 66
     1
 10
0.0
 20
0.0
 30
0.0
  0
VERTEX
  5
EB
330
EA
100
AcDbEntity
  8
Ebene 1
 62
   179
420
  1709851
370
    18
100
AcDbVertex
100
AcDb2dVertex
 10
117.1187770974564
 20
-180.8089463523672
 30
0.0
  0
VERTEX
  5
EC
330
EA
100
AcDbEntity
  8
Ebene 1
 62
   179
420
  1709851
370
    18
100
AcDbVertex
100
AcDb2dVertex
 10
116.3990966505877
 20
-181.274723261973
 30
0.0
  0
VERTEX
  5
ED
330
EA
100
AcDbEntity
  8
Ebene 1
 62
   179
420
  1709851
370
    18
100
AcDbVertex
100
AcDb2dVertex
 10
115.7428059606476
 20
-181.8038899285074
 30
0.0
  0
VERTEX
  5
EE
330
EA
100
AcDbEntity
  8
Ebene 1
 62
   179
420
  1709851
370
    18
100
AcDbVertex
100
AcDb2dVertex
 10
115.5312770978533
 20
-181.9947482183902
 30
0.0
  0
SEQEND
  5
EF
330
EA
100
AcDbEntity
  8
Ebene 1
370
    18
  0
POLYLINE
  5
F0
330
4A
100
AcDbEntity
  8
Ebene 1
 62
   179
420
  1709851
370
    18
100
AcDb2dPolyline
 66
     1
 10
0.0
 20
0.0
 30
0.0
  0
VERTEX
  5
F1
330
F0
100
AcDbEntity
  8
Ebene 1
 62
   179
420
  1709851
370
    18
100
AcDbVertex
100
AcDb2dVertex
 10
114.2186957179731
 20
-190.7997232595918
 30
0.0
  0
VERTEX
  5
F2
330
F0
100
AcDbEntity
  8
Ebene 1
 62
   179
420
  1709851
370
    18
100
AcDbVertex
100
AcDb2dVertex
 10
114.2400553099817
 20
-190.7997232595918
 30
0.0
  0
SEQEND
  5
F3
330
F0
100
AcDbEntity
  8
Ebene 1
370
    18
  0
POLYLINE
  5
F4
330
4A
100
AcDbEntity
  8
Ebene 1
 62
   179
420
  1709851
370
    18
100
AcDb2dPolyline
 66
     1
 10
0.0
 20
0.0
 30
0.0
  0
VERTEX
  5
F5
330
F4
100
AcDbEntity
  8
Ebene 1
 62
   179
420
  1709851
370
    18
100
AcDbVertex
100
AcDb2dVertex
 10
112.8006944162443
 20
-188.3020290327856
 30
0.0
  0
VERTEX
  5
F6
330
F4
100
AcDbEntity
  8
Ebene 1
 62
   179
420
  1709851
370
    18
100
AcDbVertex
100
AcDb2dVertex
 10
112.8430690907128
 20
-188.7891655343999
 30
0.0
  0
VERTEX
  5
F7
330
F4
100
AcDbEntity
  8
Ebene 1
 62
   179
420
  1709851
370
    18
100
AcDbVertex
100
AcDb2dVertex
 10
112.9701931141186
 20
-189.2763020360143
 30
0.0
  0
VERTEX
  5
F8
330
F4
100
AcDbEntity
  8
Ebene 1
 62
   179
420
  1709851
370
    18
100
AcDbVertex
100
AcDb2dVertex
 10
113.1603623849044
 20
-189.7207193536115
 30
0.0
  0
VERTEX
  5
F9
330
F4
100
AcDbEntity
  8
Ebene 1
 62
   179
420
  1709851
370
    18
100
AcDbVertex
100
AcDb2dVertex
 10
113.4352810046273
 20
-190.1224174871916
 30
0.0
  0
VERTEX
  5
FA
330
F4
100
AcDbEntity
  8
Ebene 1
 62
   179
420
  1709851
370
    18
100
AcDbVertex
100
AcDb2dVertex
 10
113.4569851061844
 20
-190.1437770792002
 30
0.0
  0
SEQEND
  5
FB
330
F4
100
AcDbEntity
  8
Ebene 1
370
    18
  0
POLYLINE
  5
FC
330
4A
100
AcDbEntity
  8
Ebene 1
 62
   179
420
  1709851
370
    18
100
AcDb2dPolyline
 66
     1
 10
0.0
 20
0.0
 30
0.0
  0
VERTEX
  5
FD
330
FC
100
AcDbEntity
  8
Ebene 1
 62
   179
420
  1709851
370
    18
100
AcDbVertex
100
AcDb2dVertex
 10
115.5736517723219
 20
-191.561778380929
 30
0.0
  0
VERTEX
  5
FE
330
FC
100
AcDbEntity
  8
Ebene 1
 62
   179
420
  1709851
370
    18
100
AcDbVertex
100
AcDb2dVertex
 10
116.843513968185
 20
-192.3024739102577
 30
0.0
  0
SEQEND
  5
FF
330
FC
100
AcDbEntity
  8
Ebene 1
370
    18
  0
POLYLINE
  5
100
330
4A
100
AcDbEntity
  8
Ebene 1
 62
   179
420
  1709851
370
    18
100
AcDb2dPolyline
 66
     1
 10
0.0
 20
0.0
 30
0.0
  0
VERTEX
  5
101
330
100
100
AcDbEntity
  8
Ebene 1
 62
   179
420
  1709851
370
    18
100
AcDbVertex
100
AcDb2dVertex
 10
114.2400553099817
 20
-190.7997232595918
 30
0.0
  0
VERTEX
  5
102
330
100
100
AcDbEntity
  8
Ebene 1
 62
   179
420
  1709851
370
    18
100
AcDbVertex
100
AcDb2dVertex
 10
114.7058322195874
 20
-191.0753308984117
 30
0.0
  0
SEQEND
  5
103
330
100
100
AcDbEntity
  8
Ebene 1
370
    18
  0
POLYLINE
  5
104
330
4A
100
AcDbEntity
  8
Ebene 1
 62
   179
420
  1709851
370
    18
100
AcDb2dPolyline
 66
     1
 10
0.0
 20
0.0
 30
0.0
  0
VERTEX
  5
105
330
104
100
AcDbEntity
  8
Ebene 1
 62
   179
420
  1709851
370
    18
100
AcDbVertex
100
AcDb2dVertex
 10
119.6798610811911
 20
-192.3245225213633
 30
0.0
  0
VERTEX
  5
106
330
104
100
AcDbEntity
  8
Ebene 1
 62
   179
420
  1709851
370
    18
100
AcDbVertex
100
AcDb2dVertex
 10
119.7222357556597
 20
-192.3024739102577
 30
0.0
  0
SEQEND
  5
107
330
104
100
AcDbEntity
  8
Ebene 1
370
    18
  0
POLYLINE
  5
108
330
4A
100
AcDbEntity
  8
Ebene 1
 62
   179
420
  1709851
370
    18
100
AcDb2dPolyline
 66
     1
 10
0.0
 20
0.0
 30
0.0
  0
VERTEX
  5
109
330
108
100
AcDbEntity
  8
Ebene 1
 62
   179
420
  1709851
370
    18
100
AcDbVertex
100
AcDb2dVertex
 10
116.8224988857249
 20
-192.2818033373462
 30
0.0
  0
VERTEX
  5
10A
330
108
100
AcDbEntity
  8
Ebene 1
 62
   179
420
  1709851
370
    18
100
AcDbVertex
100
AcDb2dVertex
 10
117.2245415288536
 20
-192.4933322001406
 30
0.0
  0
VERTEX
  5
10B
330
108
100
AcDbEntity
  8
Ebene 1
 62
   179
420
  1709851
370
    18
100
AcDbVertex
100
AcDb2dVertex
 10
117.7113335209194
 20
-192.6414713060063
 30
0.0
  0
VERTEX
  5
10C
330
108
100
AcDbEntity
  8
Ebene 1
 62
   179
420
  1709851
370
    18
100
AcDbVertex
100
AcDb2dVertex
 10
118.1977810034367
 20
-192.6835014709264
 30
0.0
  0
VERTEX
  5
10D
330
108
100
AcDbEntity
  8
Ebene 1
 62
   179
420
  1709851
370
    18
100
AcDbVertex
100
AcDb2dVertex
 10
118.684917505051
 20
-192.6628308980148
 30
0.0
  0
VERTEX
  5
10E
330
108
100
AcDbEntity
  8
Ebene 1
 62
   179
420
  1709851
370
    18
100
AcDbVertex
100
AcDb2dVertex
 10
118.7486517715281
 20
-192.6414713060063
 30
0.0
  0
SEQEND
  5
10F
330
108
100
AcDbEntity
  8
Ebene 1
370
    18
  0
POLYLINE
  5
110
330
4A
100
AcDbEntity
  8
Ebene 1
 62
   179
420
  1709851
370
    18
100
AcDb2dPolyline
 66
     1
 10
0.0
 20
0.0
 30
0.0
  0
VERTEX
  5
111
330
110
100
AcDbEntity
  8
Ebene 1
 62
   179
420
  1709851
370
    18
100
AcDbVertex
100
AcDb2dVertex
 10
115.3831379919876
 20
-189.8054687025486
 30
0.0
  0
VERTEX
  5
112
330
110
100
AcDbEntity
  8
Ebene 1
 62
   179
420
  1709851
370
    18
100
AcDbVertex
100
AcDb2dVertex
 10
115.4255126664561
 20
-190.2919161850659
 30
0.0
  0
VERTEX
  5
113
330
110
100
AcDbEntity
  8
Ebene 1
 62
   179
420
  1709851
370
    18
100
AcDbVertex
100
AcDb2dVertex
 10
115.5519476707648
 20
-190.7790526866802
 30
0.0
  0
VERTEX
  5
114
330
110
100
AcDbEntity
  8
Ebene 1
 62
   179
420
  1709851
370
    18
100
AcDbVertex
100
AcDb2dVertex
 10
115.7641655526562
 20
-191.2234700042775
 30
0.0
  0
VERTEX
  5
115
330
110
100
AcDbEntity
  8
Ebene 1
 62
   179
420
  1709851
370
    18
100
AcDbVertex
100
AcDb2dVertex
 10
116.0390841723791
 20
-191.6251681378576
 30
0.0
  0
VERTEX
  5
116
330
110
100
AcDbEntity
  8
Ebene 1
 62
   179
420
  1709851
370
    18
100
AcDbVertex
100
AcDb2dVertex
 10
116.0604437643877
 20
-191.6472167489632
 30
0.0
  0
SEQEND
  5
117
330
110
100
AcDbEntity
  8
Ebene 1
370
    18
  0
POLYLINE
  5
118
330
4A
100
AcDbEntity
  8
Ebene 1
 62
   179
420
  1709851
370
    18
100
AcDb2dPolyline
 66
     1
 10
0.0
 20
0.0
 30
0.0
  0
VERTEX
  5
119
330
118
100
AcDbEntity
  8
Ebene 1
 62
   179
420
  1709851
370
    18
100
AcDbVertex
100
AcDb2dVertex
 10
124.0403184368719
 20
-184.873470005865
 30
0.0
  0
VERTEX
  5
11A
330
118
100
AcDbEntity
  8
Ebene 1
 62
   179
420
  1709851
370
    18
100
AcDbVertex
100
AcDb2dVertex
 10
124.0613335193319
 20
-184.8100802489364
 30
0.0
  0
SEQEND
  5
11B
330
118
100
AcDbEntity
  8
Ebene 1
370
    18
  0
POLYLINE
  5
11C
330
4A
100
AcDbEntity
  8
Ebene 1
 62
   179
420
  1709851
370
    18
100
AcDb2dPolyline
 66
     1
 10
0.0
 20
0.0
 30
0.0
  0
VERTEX
  5
11D
330
11C
100
AcDbEntity
  8
Ebene 1
 62
   179
420
  1709851
370
    18
100
AcDbVertex
100
AcDb2dVertex
 10
123.5111517703375
 20
-187.8155815502683
 30
0.0
  0
VERTEX
  5
11E
330
11C
100
AcDbEntity
  8
Ebene 1
 62
   179
420
  1709851
370
    18
100
AcDbVertex
100
AcDb2dVertex
 10
123.7650553076004
 20
-186.9901366720025
 30
0.0
  0
VERTEX
  5
11F
330
11C
100
AcDbEntity
  8
Ebene 1
 62
   179
420
  1709851
370
    18
100
AcDbVertex
100
AcDb2dVertex
 10
123.9555690879347
 20
-186.1646917937366
 30
0.0
  0
VERTEX
  5
120
330
11C
100
AcDbEntity
  8
Ebene 1
 62
   179
420
  1709851
370
    18
100
AcDbVertex
100
AcDb2dVertex
 10
123.9765841703947
 20
-185.8684135820051
 30
0.0
  0
SEQEND
  5
121
330
11C
100
AcDbEntity
  8
Ebene 1
370
    18
  0
POLYLINE
  5
122
330
4A
100
AcDbEntity
  8
Ebene 1
 62
   179
420
  1709851
370
    18
100
AcDb2dPolyline
 66
     1
 10
0.0
 20
0.0
 30
0.0
  0
VERTEX
  5
123
330
122
100
AcDbEntity
  8
Ebene 1
 62
   179
420
  1709851
370
    18
100
AcDbVertex
100
AcDb2dVertex
 10
122.008056610123
 20
-190.3766655340031
 30
0.0
  0
VERTEX
  5
124
330
122
100
AcDbEntity
  8
Ebene 1
 62
   179
420
  1709851
370
    18
100
AcDbVertex
100
AcDb2dVertex
 10
122.283664248943
 20
-190.059027730263
 30
0.0
  0
VERTEX
  5
125
330
122
100
AcDbEntity
  8
Ebene 1
 62
   179
420
  1709851
370
    18
100
AcDbVertex
100
AcDb2dVertex
 10
122.7701117314603
 20
-189.3396917929429
 30
0.0
  0
VERTEX
  5
126
330
122
100
AcDbEntity
  8
Ebene 1
 62
   179
420
  1709851
370
    18
100
AcDbVertex
100
AcDb2dVertex
 10
123.1084201081118
 20
-188.7257757774713
 30
0.0
  0
SEQEND
  5
127
330
122
100
AcDbEntity
  8
Ebene 1
370
    18
  0
POLYLINE
  5
128
330
4A
100
AcDbEntity
  8
Ebene 1
 62
   179
420
  1709851
370
    18
100
AcDb2dPolyline
 66
     1
 10
0.0
 20
0.0
 30
0.0
  0
VERTEX
  5
129
330
128
100
AcDbEntity
  8
Ebene 1
 62
   179
420
  1709851
370
    18
100
AcDbVertex
100
AcDb2dVertex
 10
119.7222357556597
 20
-192.3024739102577
 30
0.0
  0
VERTEX
  5
12A
330
128
100
AcDbEntity
  8
Ebene 1
 62
   179
420
  1709851
370
    18
100
AcDbVertex
100
AcDb2dVertex
 10
120.4419162025284
 20
-191.837386019749
 30
0.0
  0
VERTEX
  5
12B
330
128
100
AcDbEntity
  8
Ebene 1
 62
   179
420
  1709851
370
    18
100
AcDbVertex
100
AcDb2dVertex
 10
121.1192219749285
 20
-191.3082193532146
 30
0.0
  0
VERTEX
  5
12C
330
128
100
AcDbEntity
  8
Ebene 1
 62
   179
420
  1709851
370
    18
100
AcDbVertex
100
AcDb2dVertex
 10
121.3097357552628
 20
-191.0960014713232
 30
0.0
  0
SEQEND
  5
12D
330
128
100
AcDbEntity
  8
Ebene 1
370
    18
  0
POLYLINE
  5
12E
330
4A
100
AcDbEntity
  8
Ebene 1
 62
   179
420
  1709851
370
    18
100
AcDb2dPolyline
 66
     1
 10
0.0
 20
0.0
 30
0.0
  0
VERTEX
  5
12F
330
12E
100
AcDbEntity
  8
Ebene 1
 62
   179
420
  1709851
370
    18
100
AcDbVertex
100
AcDb2dVertex
 10
119.7646104301283
 20
-182.2910264301217
 30
0.0
  0
VERTEX
  5
130
330
12E
100
AcDbEntity
  8
Ebene 1
 62
   179
420
  1709851
370
    18
100
AcDbVertex
100
AcDb2dVertex
 10
119.7222357556597
 20
-182.3123860221303
 30
0.0
  0
SEQEND
  5
131
330
12E
100
AcDbEntity
  8
Ebene 1
370
    18
  0
POLYLINE
  5
132
330
4A
100
AcDbEntity
  8
Ebene 1
 62
   179
420
  1709851
370
    18
100
AcDb2dPolyline
 66
     1
 10
0.0
 20
0.0
 30
0.0
  0
VERTEX
  5
133
330
132
100
AcDbEntity
  8
Ebene 1
 62
   179
420
  1709851
370
    18
100
AcDbVertex
100
AcDb2dVertex
 10
122.6219726255945
 20
-182.3123860221303
 30
0.0
  0
VERTEX
  5
134
330
132
100
AcDbEntity
  8
Ebene 1
 62
   179
420
  1709851
370
    18
100
AcDbVertex
100
AcDb2dVertex
 10
122.2199299824659
 20
-182.1215277322474
 30
0.0
  0
VERTEX
  5
135
330
132
100
AcDbEntity
  8
Ebene 1
 62
   179
420
  1709851
370
    18
100
AcDbVertex
100
AcDb2dVertex
 10
121.7331379904001
 20
-181.9733886263816
 30
0.0
  0
VERTEX
  5
136
330
132
100
AcDbEntity
  8
Ebene 1
 62
   179
420
  1709851
370
    18
100
AcDbVertex
100
AcDb2dVertex
 10
121.2463459983342
 20
-181.9099988694531
 30
0.0
  0
VERTEX
  5
137
330
132
100
AcDbEntity
  8
Ebene 1
 62
   179
420
  1709851
370
    18
100
AcDbVertex
100
AcDb2dVertex
 10
120.7588649871714
 20
-181.9520290343731
 30
0.0
  0
VERTEX
  5
138
330
132
100
AcDbEntity
  8
Ebene 1
 62
   179
420
  1709851
370
    18
100
AcDbVertex
100
AcDb2dVertex
 10
120.6961642493399
 20
-181.9520290343731
 30
0.0
  0
SEQEND
  5
139
330
132
100
AcDbEntity
  8
Ebene 1
370
    18
  0
POLYLINE
  5
13A
330
4A
100
AcDbEntity
  8
Ebene 1
 62
   179
420
  1709851
370
    18
100
AcDb2dPolyline
 66
     1
 10
0.0
 20
0.0
 30
0.0
  0
VERTEX
  5
13B
330
13A
100
AcDbEntity
  8
Ebene 1
 62
   179
420
  1709851
370
    18
100
AcDbVertex
100
AcDb2dVertex
 10
124.0613335193319
 20
-184.8100802489364
 30
0.0
  0
VERTEX
  5
13C
330
13A
100
AcDbEntity
  8
Ebene 1
 62
   179
420
  1709851
370
    18
100
AcDbVertex
100
AcDb2dVertex
 10
124.0186143353148
 20
-184.3015841553135
 30
0.0
  0
VERTEX
  5
13D
330
13A
100
AcDbEntity
  8
Ebene 1
 62
   179
420
  1709851
370
    18
100
AcDbVertex
100
AcDb2dVertex
 10
123.8921793310061
 20
-183.8364962648048
 30
0.0
  0
VERTEX
  5
13E
330
13A
100
AcDbEntity
  8
Ebene 1
 62
   179
420
  1709851
370
    18
100
AcDbVertex
100
AcDb2dVertex
 10
123.6803059586633
 20
-183.3913899281105
 30
0.0
  0
VERTEX
  5
13F
330
13A
100
AcDbEntity
  8
Ebene 1
 62
   179
420
  1709851
370
    18
100
AcDbVertex
100
AcDb2dVertex
 10
123.4046983198433
 20
-182.9683322025218
 30
0.0
  0
VERTEX
  5
140
330
13A
100
AcDbEntity
  8
Ebene 1
 62
   179
420
  1709851
370
    18
100
AcDbVertex
100
AcDb2dVertex
 10
123.3840277469318
 20
-182.9683322025218
 30
0.0
  0
SEQEND
  5
141
330
13A
100
AcDbEntity
  8
Ebene 1
370
    18
  0
POLYLINE
  5
142
330
4A
100
AcDbEntity
  8
Ebene 1
 62
   179
420
  1709851
370
    18
100
AcDb2dPolyline
 66
     1
 10
0.0
 20
0.0
 30
0.0
  0
VERTEX
  5
143
330
142
100
AcDbEntity
  8
Ebene 1
 62
   179
420
  1709851
370
    18
100
AcDbVertex
100
AcDb2dVertex
 10
115.4044975839961
 20
-189.741389926523
 30
0.0
  0
VERTEX
  5
144
330
142
100
AcDbEntity
  8
Ebene 1
 62
   179
420
  1709851
370
    18
100
AcDbVertex
100
AcDb2dVertex
 10
115.3831379919876
 20
-189.8054687025486
 30
0.0
  0
SEQEND
  5
145
330
142
100
AcDbEntity
  8
Ebene 1
370
    18
  0
POLYLINE
  5
146
330
4A
100
AcDbEntity
  8
Ebene 1
 62
   179
420
  1709851
370
    18
100
AcDb2dPolyline
 66
     1
 10
0.0
 20
0.0
 30
0.0
  0
VERTEX
  5
147
330
146
100
AcDbEntity
  8
Ebene 1
 62
   179
420
  1709851
370
    18
100
AcDbVertex
100
AcDb2dVertex
 10
115.9336642505305
 20
-186.7992783821196
 30
0.0
  0
VERTEX
  5
148
330
146
100
AcDbEntity
  8
Ebene 1
 62
   179
420
  1709851
370
    18
100
AcDbVertex
100
AcDb2dVertex
 10
115.679416203719
 20
-187.604052687474
 30
0.0
  0
VERTEX
  5
149
330
146
100
AcDbEntity
  8
Ebene 1
 62
   179
420
  1709851
370
    18
100
AcDbVertex
100
AcDb2dVertex
 10
115.4889024233847
 20
-188.4501681386513
 30
0.0
  0
VERTEX
  5
14A
330
146
100
AcDbEntity
  8
Ebene 1
 62
   179
420
  1709851
370
    18
100
AcDbVertex
100
AcDb2dVertex
 10
115.4671983218277
 20
-188.7471353694799
 30
0.0
  0
SEQEND
  5
14B
330
146
100
AcDbEntity
  8
Ebene 1
370
    18
  0
POLYLINE
  5
14C
330
4A
100
AcDbEntity
  8
Ebene 1
 62
   179
420
  1709851
370
    18
100
AcDb2dPolyline
 66
     1
 10
0.0
 20
0.0
 30
0.0
  0
VERTEX
  5
14D
330
14C
100
AcDbEntity
  8
Ebene 1
 62
   179
420
  1709851
370
    18
100
AcDbVertex
100
AcDb2dVertex
 10
117.4357258820994
 20
-184.2168348063764
 30
0.0
  0
VERTEX
  5
14E
330
14C
100
AcDbEntity
  8
Ebene 1
 62
   179
420
  1709851
370
    18
100
AcDbVertex
100
AcDb2dVertex
 10
117.161151771925
 20
-184.5558322021249
 30
0.0
  0
VERTEX
  5
14F
330
14C
100
AcDbEntity
  8
Ebene 1
 62
   179
420
  1709851
370
    18
100
AcDbVertex
100
AcDb2dVertex
 10
116.6743597798592
 20
-185.2544975665336
 30
0.0
  0
VERTEX
  5
150
330
14C
100
AcDbEntity
  8
Ebene 1
 62
   179
420
  1709851
370
    18
100
AcDbVertex
100
AcDb2dVertex
 10
116.3353623841106
 20
-185.8890841549166
 30
0.0
  0
SEQEND
  5
151
330
14C
100
AcDbEntity
  8
Ebene 1
370
    18
  0
POLYLINE
  5
152
330
4A
100
AcDbEntity
  8
Ebene 1
 62
   179
420
  1709851
370
    18
100
AcDb2dPolyline
 66
     1
 10
0.0
 20
0.0
 30
0.0
  0
VERTEX
  5
153
330
152
100
AcDbEntity
  8
Ebene 1
 62
   179
420
  1709851
370
    18
100
AcDbVertex
100
AcDb2dVertex
 10
119.7222357556597
 20
-182.3123860221303
 30
0.0
  0
VERTEX
  5
154
330
152
100
AcDbEntity
  8
Ebene 1
 62
   179
420
  1709851
370
    18
100
AcDbVertex
100
AcDb2dVertex
 10
119.002555308791
 20
-182.778162931736
 30
0.0
  0
VERTEX
  5
155
330
152
100
AcDbEntity
  8
Ebene 1
 62
   179
420
  1709851
370
    18
100
AcDbVertex
100
AcDb2dVertex
 10
118.3252495363909
 20
-183.3073295982704
 30
0.0
  0
VERTEX
  5
156
330
152
100
AcDbEntity
  8
Ebene 1
 62
   179
420
  1709851
370
    18
100
AcDbVertex
100
AcDb2dVertex
 10
118.1347357560566
 20
-183.4974988690562
 30
0.0
  0
SEQEND
  5
157
330
152
100
AcDbEntity
  8
Ebene 1
370
    18
  0
POLYLINE
  5
158
330
4A
100
AcDbEntity
  8
Ebene 1
 62
   179
420
  1709851
370
    18
100
AcDb2dPolyline
 66
     1
 10
0.0
 20
0.0
 30
0.0
  0
VERTEX
  5
159
330
158
100
AcDbEntity
  8
Ebene 1
 62
   179
420
  1709851
370
    18
100
AcDbVertex
100
AcDb2dVertex
 10
120.484290876997
 20
-154.96452904112
 30
0.0
  0
VERTEX
  5
15A
330
158
100
AcDbEntity
  8
Ebene 1
 62
   179
420
  1709851
370
    18
100
AcDbVertex
100
AcDb2dVertex
 10
120.484290876997
 20
-153.8641655431312
 30
0.0
  0
SEQEND
  5
15B
330
158
100
AcDbEntity
  8
Ebene 1
370
    18
  0
POLYLINE
  5
15C
330
4A
100
AcDbEntity
  8
Ebene 1
 62
   179
420
  1709851
370
    18
100
AcDb2dPolyline
 66
     1
 10
0.0
 20
0.0
 30
0.0
  0
VERTEX
  5
15D
330
15C
100
AcDbEntity
  8
Ebene 1
 62
   179
420
  1709851
370
    18
100
AcDbVertex
100
AcDb2dVertex
 10
120.484290876997
 20
-157.970719361549
 30
0.0
  0
VERTEX
  5
15E
330
15C
100
AcDbEntity
  8
Ebene 1
 62
   179
420
  1709851
370
    18
100
AcDbVertex
100
AcDb2dVertex
 10
120.484290876997
 20
-155.9601616363572
 30
0.0
  0
SEQEND
  5
15F
330
15C
100
AcDbEntity
  8
Ebene 1
370
    18
  0
POLYLINE
  5
160
330
4A
100
AcDbEntity
  8
Ebene 1
 62
   179
420
  1709851
370
    18
100
AcDb2dPolyline
 66
     1
 10
0.0
 20
0.0
 30
0.0
  0
VERTEX
  5
161
330
160
100
AcDbEntity
  8
Ebene 1
 62
   179
420
  1709851
370
    18
100
AcDbVertex
100
AcDb2dVertex
 10
120.484290876997
 20
-160.9548610708724
 30
0.0
  0
VERTEX
  5
162
330
160
100
AcDbEntity
  8
Ebene 1
 62
   179
420
  1709851
370
    18
100
AcDbVertex
100
AcDb2dVertex
 10
120.484290876997
 20
-158.9656629376892
 30
0.0
  0
SEQEND
  5
163
330
160
100
AcDbEntity
  8
Ebene 1
370
    18
  0
POLYLINE
  5
164
330
4A
100
AcDbEntity
  8
Ebene 1
 62
   179
420
  1709851
370
    18
100
AcDb2dPolyline
 66
     1
 10
0.0
 20
0.0
 30
0.0
  0
VERTEX
  5
165
330
164
100
AcDbEntity
  8
Ebene 1
 62
   179
420
  1709851
370
    18
100
AcDbVertex
100
AcDb2dVertex
 10
120.484290876997
 20
-163.9603623722044
 30
0.0
  0
VERTEX
  5
166
330
164
100
AcDbEntity
  8
Ebene 1
 62
   179
420
  1709851
370
    18
100
AcDbVertex
100
AcDb2dVertex
 10
120.484290876997
 20
-161.9711642390211
 30
0.0
  0
SEQEND
  5
167
330
164
100
AcDbEntity
  8
Ebene 1
370
    18
  0
POLYLINE
  5
168
330
4A
100
AcDbEntity
  8
Ebene 1
 62
   179
420
  1709851
370
    18
100
AcDb2dPolyline
 66
     1
 10
0.0
 20
0.0
 30
0.0
  0
VERTEX
  5
169
330
168
100
AcDbEntity
  8
Ebene 1
 62
   179
420
  1709851
370
    18
100
AcDbVertex
100
AcDb2dVertex
 10
120.484290876997
 20
-166.9665526926334
 30
0.0
  0
VERTEX
  5
16A
330
168
100
AcDbEntity
  8
Ebene 1
 62
   179
420
  1709851
370
    18
100
AcDbVertex
100
AcDb2dVertex
 10
120.484290876997
 20
-164.9559949674416
 30
0.0
  0
SEQEND
  5
16B
330
168
100
AcDbEntity
  8
Ebene 1
370
    18
  0
POLYLINE
  5
16C
330
4A
100
AcDbEntity
  8
Ebene 1
 62
   179
420
  1709851
370
    18
100
AcDb2dPolyline
 66
     1
 10
0.0
 20
0.0
 30
0.0
  0
VERTEX
  5
16D
330
16C
100
AcDbEntity
  8
Ebene 1
 62
   179
420
  1709851
370
    18
100
AcDbVertex
100
AcDb2dVertex
 10
120.484290876997
 20
-169.9720539939653
 30
0.0
  0
VERTEX
  5
16E
330
16C
100
AcDbEntity
  8
Ebene 1
 62
   179
420
  1709851
370
    18
100
AcDbVertex
100
AcDb2dVertex
 10
120.484290876997
 20
-167.9614962687735
 30
0.0
  0
SEQEND
  5
16F
330
16C
100
AcDbEntity
  8
Ebene 1
370
    18
  0
POLYLINE
  5
170
330
4A
100
AcDbEntity
  8
Ebene 1
 62
   179
420
  1709851
370
    18
100
AcDb2dPolyline
 66
     1
 10
0.0
 20
0.0
 30
0.0
  0
VERTEX
  5
171
330
170
100
AcDbEntity
  8
Ebene 1
 62
   179
420
  1709851
370
    18
100
AcDbVertex
100
AcDb2dVertex
 10
120.484290876997
 20
-172.9561957032887
 30
0.0
  0
VERTEX
  5
172
330
170
100
AcDbEntity
  8
Ebene 1
 62
   179
420
  1709851
370
    18
100
AcDbVertex
100
AcDb2dVertex
 10
120.484290876997
 20
-170.9669975701055
 30
0.0
  0
SEQEND
  5
173
330
170
100
AcDbEntity
  8
Ebene 1
370
    18
  0
POLYLINE
  5
174
330
4A
100
AcDbEntity
  8
Ebene 1
 62
   179
420
  1709851
370
    18
100
AcDb2dPolyline
 66
     1
 10
0.0
 20
0.0
 30
0.0
  0
VERTEX
  5
175
330
174
100
AcDbEntity
  8
Ebene 1
 62
   179
420
  1709851
370
    18
100
AcDbVertex
100
AcDb2dVertex
 10
120.484290876997
 20
-175.9623860237178
 30
0.0
  0
VERTEX
  5
176
330
174
100
AcDbEntity
  8
Ebene 1
 62
   179
420
  1709851
370
    18
100
AcDbVertex
100
AcDb2dVertex
 10
120.484290876997
 20
-173.9724988714374
 30
0.0
  0
SEQEND
  5
177
330
174
100
AcDbEntity
  8
Ebene 1
370
    18
  0
POLYLINE
  5
178
330
4A
100
AcDbEntity
  8
Ebene 1
 62
   179
420
  1709851
370
    18
100
AcDb2dPolyline
 66
     1
 10
0.0
 20
0.0
 30
0.0
  0
VERTEX
  5
179
330
178
100
AcDbEntity
  8
Ebene 1
 62
   179
420
  1709851
370
    18
100
AcDbVertex
100
AcDb2dVertex
 10
120.484290876997
 20
-178.9678873250497
 30
0.0
  0
VERTEX
  5
17A
330
178
100
AcDbEntity
  8
Ebene 1
 62
   179
420
  1709851
370
    18
100
AcDbVertex
100
AcDb2dVertex
 10
120.484290876997
 20
-176.9566405807608
 30
0.0
  0
SEQEND
  5
17B
330
178
100
AcDbEntity
  8
Ebene 1
370
    18
  0
POLYLINE
  5
17C
330
4A
100
AcDbEntity
  8
Ebene 1
 62
   179
420
  1709851
370
    18
100
AcDb2dPolyline
 66
     1
 10
0.0
 20
0.0
 30
0.0
  0
VERTEX
  5
17D
330
17C
100
AcDbEntity
  8
Ebene 1
 62
   179
420
  1709851
370
    18
100
AcDbVertex
100
AcDb2dVertex
 10
120.484290876997
 20
-181.0845539911872
 30
0.0
  0
VERTEX
  5
17E
330
17C
100
AcDbEntity
  8
Ebene 1
 62
   179
420
  1709851
370
    18
100
AcDbVertex
100
AcDb2dVertex
 10
120.484290876997
 20
-181.0845539911872
 30
0.0
  0
VERTEX
  5
17F
330
17C
100
AcDbEntity
  8
Ebene 1
 62
   179
420
  1709851
370
    18
100
AcDbVertex
100
AcDb2dVertex
 10
120.484290876997
 20
-179.9628309011898
 30
0.0
  0
SEQEND
  5
180
330
17C
100
AcDbEntity
  8
Ebene 1
370
    18
  0
POLYLINE
  5
181
330
4A
100
AcDbEntity
  8
Ebene 1
 62
   179
420
  1709851
370
    18
100
AcDb2dPolyline
 66
     1
 10
0.0
 20
0.0
 30
0.0
  0
VERTEX
  5
182
330
181
100
AcDbEntity
  8
Ebene 1
 62
   179
420
  1709851
370
    18
100
AcDbVertex
100
AcDb2dVertex
 10
112.4410264475842
 20
-154.9858886331285
 30
0.0
  0
VERTEX
  5
183
330
181
100
AcDbEntity
  8
Ebene 1
 62
   179
420
  1709851
370
    18
100
AcDbVertex
100
AcDb2dVertex
 10
113.1183322199843
 20
-155.3669161937972
 30
0.0
  0
SEQEND
  5
184
330
181
100
AcDbEntity
  8
Ebene 1
370
    18
  0
POLYLINE
  5
185
330
4A
100
AcDbEntity
  8
Ebene 1
 62
   179
420
  1709851
370
    18
100
AcDb2dPolyline
 66
     1
 10
0.0
 20
0.0
 30
0.0
  0
VERTEX
  5
186
330
185
100
AcDbEntity
  8
Ebene 1
 62
   179
420
  1709851
370
    18
100
AcDbVertex
100
AcDb2dVertex
 10
112.038639294907
 20
-156.0021918012772
 30
0.0
  0
VERTEX
  5
187
330
185
100
AcDbEntity
  8
Ebene 1
 62
   179
420
  1709851
370
    18
100
AcDbVertex
100
AcDb2dVertex
 10
112.8006944162443
 20
-155.55777448368
 30
0.0
  0
SEQEND
  5
188
330
185
100
AcDbEntity
  8
Ebene 1
370
    18
  0
POLYLINE
  5
189
330
4A
100
AcDbEntity
  8
Ebene 1
 62
   179
420
  1709851
370
    18
100
AcDb2dPolyline
 66
     1
 10
0.0
 20
0.0
 30
0.0
  0
VERTEX
  5
18A
330
189
100
AcDbEntity
  8
Ebene 1
 62
   179
420
  1709851
370
    18
100
AcDbVertex
100
AcDb2dVertex
 10
119.1713649875683
 20
-153.461778390454
 30
0.0
  0
VERTEX
  5
18B
330
189
100
AcDbEntity
  8
Ebene 1
 62
   179
420
  1709851
370
    18
100
AcDbVertex
100
AcDb2dVertex
 10
119.1713649875683
 20
-153.3770290415169
 30
0.0
  0
SEQEND
  5
18C
330
189
100
AcDbEntity
  8
Ebene 1
370
    18
  0
POLYLINE
  5
18D
330
4A
100
AcDbEntity
  8
Ebene 1
 62
   179
420
  1709851
370
    18
100
AcDb2dPolyline
 66
     1
 10
0.0
 20
0.0
 30
0.0
  0
VERTEX
  5
18E
330
18D
100
AcDbEntity
  8
Ebene 1
 62
   179
420
  1709851
370
    18
100
AcDbVertex
100
AcDb2dVertex
 10
119.7005316541026
 20
-153.419748225534
 30
0.0
  0
VERTEX
  5
18F
330
18D
100
AcDbEntity
  8
Ebene 1
 62
   179
420
  1709851
370
    18
100
AcDbVertex
100
AcDb2dVertex
 10
120.484290876997
 20
-153.8641655431312
 30
0.0
  0
SEQEND
  5
190
330
18D
100
AcDbEntity
  8
Ebene 1
370
    18
  0
POLYLINE
  5
191
330
4A
100
AcDbEntity
  8
Ebene 1
 62
   179
420
  1709851
370
    18
100
AcDb2dPolyline
 66
     1
 10
0.0
 20
0.0
 30
0.0
  0
VERTEX
  5
192
330
191
100
AcDbEntity
  8
Ebene 1
 62
   179
420
  1709851
370
    18
100
AcDbVertex
100
AcDb2dVertex
 10
112.6949299848471
 20
-157.1239148912746
 30
0.0
  0
VERTEX
  5
193
330
191
100
AcDbEntity
  8
Ebene 1
 62
   179
420
  1709851
370
    18
100
AcDbVertex
100
AcDb2dVertex
 10
113.7742784003759
 20
-157.7378309067461
 30
0.0
  0
SEQEND
  5
194
330
191
100
AcDbEntity
  8
Ebene 1
370
    18
  0
POLYLINE
  5
195
330
4A
100
AcDbEntity
  8
Ebene 1
 62
   179
420
  1709851
370
    18
100
AcDb2dPolyline
 66
     1
 10
0.0
 20
0.0
 30
0.0
  0
VERTEX
  5
196
330
195
100
AcDbEntity
  8
Ebene 1
 62
   179
420
  1709851
370
    18
100
AcDbVertex
100
AcDb2dVertex
 10
120.0395290498512
 20
-154.1184135899426
 30
0.0
  0
VERTEX
  5
197
330
195
100
AcDbEntity
  8
Ebene 1
 62
   179
420
  1709851
370
    18
100
AcDbVertex
100
AcDb2dVertex
 10
120.484290876997
 20
-153.8641655431312
 30
0.0
  0
SEQEND
  5
198
330
195
100
AcDbEntity
  8
Ebene 1
370
    18
  0
POLYLINE
  5
199
330
4A
100
AcDbEntity
  8
Ebene 1
 62
   179
420
  1709851
370
    18
100
AcDb2dPolyline
 66
     1
 10
0.0
 20
0.0
 30
0.0
  0
VERTEX
  5
19A
330
199
100
AcDbEntity
  8
Ebene 1
 62
   179
420
  1709851
370
    18
100
AcDbVertex
100
AcDb2dVertex
 10
115.2770290510419
 20
-156.8696668444632
 30
0.0
  0
VERTEX
  5
19B
330
199
100
AcDbEntity
  8
Ebene 1
 62
   179
420
  1709851
370
    18
100
AcDbVertex
100
AcDb2dVertex
 10
118.7486517715281
 20
-154.8591091192714
 30
0.0
  0
SEQEND
  5
19C
330
199
100
AcDbEntity
  8
Ebene 1
370
    18
  0
POLYLINE
  5
19D
330
4A
100
AcDbEntity
  8
Ebene 1
 62
   179
420
  1709851
370
    18
100
AcDb2dPolyline
 66
     1
 10
0.0
 20
0.0
 30
0.0
  0
VERTEX
  5
19E
330
19D
100
AcDbEntity
  8
Ebene 1
 62
   179
420
  1709851
370
    18
100
AcDbVertex
100
AcDb2dVertex
 10
113.7742784003759
 20
-157.7378309067461
 30
0.0
  0
VERTEX
  5
19F
330
19D
100
AcDbEntity
  8
Ebene 1
 62
   179
420
  1709851
370
    18
100
AcDbVertex
100
AcDb2dVertex
 10
113.9861517727187
 20
-157.6103623737919
 30
0.0
  0
SEQEND
  5
1A0
330
19D
100
AcDbEntity
  8
Ebene 1
370
    18
  0
POLYLINE
  5
1A1
330
4A
100
AcDbEntity
  8
Ebene 1
 62
   179
420
  1709851
370
    18
100
AcDb2dPolyline
 66
     1
 10
0.0
 20
0.0
 30
0.0
  0
VERTEX
  5
1A2
330
1A1
100
AcDbEntity
  8
Ebene 1
 62
   179
420
  1709851
370
    18
100
AcDbVertex
100
AcDb2dVertex
 10
114.9597357568503
 20
-156.2984700130087
 30
0.0
  0
VERTEX
  5
1A3
330
1A1
100
AcDbEntity
  8
Ebene 1
 62
   179
420
  1709851
370
    18
100
AcDbVertex
100
AcDb2dVertex
 10
118.4310139677881
 20
-154.3085828607284
 30
0.0
  0
SEQEND
  5
1A4
330
1A1
100
AcDbEntity
  8
Ebene 1
370
    18
  0
POLYLINE
  5
1A5
330
4A
100
AcDbEntity
  8
Ebene 1
 62
   179
420
  1709851
370
    18
100
AcDb2dPolyline
 66
     1
 10
0.0
 20
0.0
 30
0.0
  0
VERTEX
  5
1A6
330
1A5
100
AcDbEntity
  8
Ebene 1
 62
   179
420
  1709851
370
    18
100
AcDbVertex
100
AcDb2dVertex
 10
120.484290876997
 20
-191.9641655336062
 30
0.0
  0
VERTEX
  5
1A7
330
1A5
100
AcDbEntity
  8
Ebene 1
 62
   179
420
  1709851
370
    18
100
AcDbVertex
100
AcDb2dVertex
 10
120.484290876997
 20
-191.8160264277404
 30
0.0
  0
SEQEND
  5
1A8
330
1A5
100
AcDbEntity
  8
Ebene 1
370
    18
  0
POLYLINE
  5
1A9
330
4A
100
AcDbEntity
  8
Ebene 1
 62
   179
420
  1709851
370
    18
100
AcDb2dPolyline
 66
     1
 10
0.0
 20
0.0
 30
0.0
  0
VERTEX
  5
1AA
330
1A9
100
AcDbEntity
  8
Ebene 1
 62
   179
420
  1709851
370
    18
100
AcDbVertex
100
AcDb2dVertex
 10
120.484290876997
 20
-197.4680500808413
 30
0.0
  0
VERTEX
  5
1AB
330
1A9
100
AcDbEntity
  8
Ebene 1
 62
   179
420
  1709851
370
    18
100
AcDbVertex
100
AcDb2dVertex
 10
120.484290876997
 20
-193.4669161842722
 30
0.0
  0
SEQEND
  5
1AC
330
1A9
100
AcDbEntity
  8
Ebene 1
370
    18
  0
POLYLINE
  5
1AD
330
4A
100
AcDbEntity
  8
Ebene 1
 62
   179
420
  1709851
370
    18
100
AcDb2dPolyline
 66
     1
 10
0.0
 20
0.0
 30
0.0
  0
VERTEX
  5
1AE
330
1AD
100
AcDbEntity
  8
Ebene 1
 62
   179
420
  1709851
370
    18
100
AcDbVertex
100
AcDb2dVertex
 10
120.484290876997
 20
-200.8752495157534
 30
0.0
  0
VERTEX
  5
1AF
330
1AD
100
AcDbEntity
  8
Ebene 1
 62
   179
420
  1709851
370
    18
100
AcDbVertex
100
AcDb2dVertex
 10
120.484290876997
 20
-200.8752495157534
 30
0.0
  0
VERTEX
  5
1B0
330
1AD
100
AcDbEntity
  8
Ebene 1
 62
   179
420
  1709851
370
    18
100
AcDbVertex
100
AcDb2dVertex
 10
120.484290876997
 20
-198.9701117124103
 30
0.0
  0
SEQEND
  5
1B1
330
1AD
100
AcDbEntity
  8
Ebene 1
370
    18
  0
POLYLINE
  5
1B2
330
4A
100
AcDbEntity
  8
Ebene 1
 62
   179
420
  1709851
370
    18
100
AcDb2dPolyline
 66
     1
 10
0.0
 20
0.0
 30
0.0
  0
VERTEX
  5
1B3
330
1B2
100
AcDbEntity
  8
Ebene 1
 62
   179
420
  1709851
370
    18
100
AcDbVertex
100
AcDb2dVertex
 10
113.7742784003759
 20
-191.9641655336062
 30
0.0
  0
VERTEX
  5
1B4
330
1B2
100
AcDbEntity
  8
Ebene 1
 62
   179
420
  1709851
370
    18
100
AcDbVertex
100
AcDb2dVertex
 10
113.7742784003759
 20
-190.4614148829402
 30
0.0
  0
SEQEND
  5
1B5
330
1B2
100
AcDbEntity
  8
Ebene 1
370
    18
  0
POLYLINE
  5
1B6
330
4A
100
AcDbEntity
  8
Ebene 1
 62
   179
420
  1709851
370
    18
100
AcDb2dPolyline
 66
     1
 10
0.0
 20
0.0
 30
0.0
  0
VERTEX
  5
1B7
330
1B6
100
AcDbEntity
  8
Ebene 1
 62
   179
420
  1709851
370
    18
100
AcDbVertex
100
AcDb2dVertex
 10
113.7742784003759
 20
-197.4680500808413
 30
0.0
  0
VERTEX
  5
1B8
330
1B6
100
AcDbEntity
  8
Ebene 1
 62
   179
420
  1709851
370
    18
100
AcDbVertex
100
AcDb2dVertex
 10
113.7742784003759
 20
-193.4669161842722
 30
0.0
  0
SEQEND
  5
1B9
330
1B6
100
AcDbEntity
  8
Ebene 1
370
    18
  0
POLYLINE
  5
1BA
330
4A
100
AcDbEntity
  8
Ebene 1
 62
   179
420
  1709851
370
    18
100
AcDb2dPolyline
 66
     1
 10
0.0
 20
0.0
 30
0.0
  0
VERTEX
  5
1BB
330
1BA
100
AcDbEntity
  8
Ebene 1
 62
   179
420
  1709851
370
    18
100
AcDbVertex
100
AcDb2dVertex
 10
113.7742784003759
 20
-200.8752495157534
 30
0.0
  0
VERTEX
  5
1BC
330
1BA
100
AcDbEntity
  8
Ebene 1
 62
   179
420
  1709851
370
    18
100
AcDbVertex
100
AcDb2dVertex
 10
113.7742784003759
 20
-200.8752495157534
 30
0.0
  0
VERTEX
  5
1BD
330
1BA
100
AcDbEntity
  8
Ebene 1
 62
   179
420
  1709851
370
    18
100
AcDbVertex
100
AcDb2dVertex
 10
113.7742784003759
 20
-198.9701117124103
 30
0.0
  0
SEQEND
  5
1BE
330
1BA
100
AcDbEntity
  8
Ebene 1
370
    18
  0
POLYLINE
  5
1BF
330
4A
100
AcDbEntity
  8
Ebene 1
 62
   179
420
  1709851
370
    18
100
AcDb2dPolyline
 66
     1
 10
0.0
 20
0.0
 30
0.0
  0
VERTEX
  5
1C0
330
1BF
100
AcDbEntity
  8
Ebene 1
 62
   179
420
  1709851
370
    18
100
AcDbVertex
100
AcDb2dVertex
 10
122.1982258809088
 20
-182.0794975673274
 30
0.0
  0
VERTEX
  5
1C1
330
1BF
100
AcDbEntity
  8
Ebene 1
 62
   179
420
  1709851
370
    18
100
AcDbVertex
100
AcDb2dVertex
 10
122.6009575431345
 20
-182.3123860221303
 30
0.0
  0
SEQEND
  5
1C2
330
1BF
100
AcDbEntity
  8
Ebene 1
370
    18
  0
POLYLINE
  5
1C3
330
4A
100
AcDbEntity
  8
Ebene 1
 62
   179
420
  1709851
370
    18
100
AcDb2dPolyline
 66
     1
 10
0.0
 20
0.0
 30
0.0
  0
VERTEX
  5
1C4
330
1C3
100
AcDbEntity
  8
Ebene 1
 62
   179
420
  1709851
370
    18
100
AcDbVertex
100
AcDb2dVertex
 10
120.0185139673912
 20
-180.8089463523672
 30
0.0
  0
VERTEX
  5
1C5
330
1C3
100
AcDbEntity
  8
Ebene 1
 62
   179
420
  1709851
370
    18
100
AcDbVertex
100
AcDb2dVertex
 10
120.9076931121342
 20
-181.3174424459901
 30
0.0
  0
SEQEND
  5
1C6
330
1C3
100
AcDbEntity
  8
Ebene 1
370
    18
  0
POLYLINE
  5
1C7
330
4A
100
AcDbEntity
  8
Ebene 1
 62
   179
420
  1709851
370
    18
100
AcDb2dPolyline
 66
     1
 10
0.0
 20
0.0
 30
0.0
  0
VERTEX
  5
1C8
330
1C7
100
AcDbEntity
  8
Ebene 1
 62
   179
420
  1709851
370
    18
100
AcDbVertex
100
AcDb2dVertex
 10
117.9865966501909
 20
-148.5513115405531
 30
0.0
  0
VERTEX
  5
1C9
330
1C7
100
AcDbEntity
  8
Ebene 1
 62
   179
420
  1709851
370
    18
100
AcDbVertex
100
AcDb2dVertex
 10
117.6055690895222
 20
-148.3397826777588
 30
0.0
  0
SEQEND
  5
1CA
330
1C7
100
AcDbEntity
  8
Ebene 1
370
    18
  0
POLYLINE
  5
1CB
330
4A
100
AcDbEntity
  8
Ebene 1
 62
   179
420
  1709851
370
    18
100
AcDb2dPolyline
 66
     1
 10
0.0
 20
0.0
 30
0.0
  0
VERTEX
  5
1CC
330
1CB
100
AcDbEntity
  8
Ebene 1
 62
   179
420
  1709851
370
    18
100
AcDbVertex
100
AcDb2dVertex
 10
117.774723277848
 20
-149.1016655443218
 30
0.0
  0
VERTEX
  5
1CD
330
1CB
100
AcDbEntity
  8
Ebene 1
 62
   179
420
  1709851
370
    18
100
AcDbVertex
100
AcDb2dVertex
 10
117.2245415288536
 20
-148.8052150778161
 30
0.0
  0
SEQEND
  5
1CE
330
1CB
100
AcDbEntity
  8
Ebene 1
370
    18
  0
POLYLINE
  5
1CF
330
4A
100
AcDbEntity
  8
Ebene 1
 62
   179
420
  1709851
370
    18
100
AcDb2dPolyline
 66
     1
 10
0.0
 20
0.0
 30
0.0
  0
VERTEX
  5
1D0
330
1CF
100
AcDbEntity
  8
Ebene 1
 62
   179
420
  1709851
370
    18
100
AcDbVertex
100
AcDb2dVertex
 10
118.2618597794623
 20
-148.127909305416
 30
0.0
  0
VERTEX
  5
1D1
330
1CF
100
AcDbEntity
  8
Ebene 1
 62
   179
420
  1709851
370
    18
100
AcDbVertex
100
AcDb2dVertex
 10
118.1347357560566
 20
-147.9163804426216
 30
0.0
  0
SEQEND
  5
1D2
330
1CF
100
AcDbEntity
  8
Ebene 1
370
    18
  0
POLYLINE
  5
1D3
330
4A
100
AcDbEntity
  8
Ebene 1
 62
   179
420
  1709851
370
    18
100
AcDb2dPolyline
 66
     1
 10
0.0
 20
0.0
 30
0.0
  0
VERTEX
  5
1D4
330
1D3
100
AcDbEntity
  8
Ebene 1
 62
   179
420
  1709851
370
    18
100
AcDbVertex
100
AcDb2dVertex
 10
117.0764024229879
 20
-149.7576117247134
 30
0.0
  0
VERTEX
  5
1D5
330
1D3
100
AcDbEntity
  8
Ebene 1
 62
   179
420
  1709851
370
    18
100
AcDbVertex
100
AcDb2dVertex
 10
117.3303059602508
 20
-149.7576117247134
 30
0.0
  0
SEQEND
  5
1D6
330
1D3
100
AcDbEntity
  8
Ebene 1
370
    18
  0
POLYLINE
  5
1D7
330
4A
100
AcDbEntity
  8
Ebene 1
 62
   179
420
  1709851
370
    18
100
AcDb2dPolyline
 66
     1
 10
0.0
 20
0.0
 30
0.0
  0
VERTEX
  5
1D8
330
1D7
100
AcDbEntity
  8
Ebene 1
 62
   179
420
  1709851
370
    18
100
AcDbVertex
100
AcDb2dVertex
 10
117.0553873405278
 20
-147.1753404037444
 30
0.0
  0
VERTEX
  5
1D9
330
1D7
100
AcDbEntity
  8
Ebene 1
 62
   179
420
  1709851
370
    18
100
AcDbVertex
100
AcDb2dVertex
 10
117.9228623837137
 20
-147.6834919878187
 30
0.0
  0
SEQEND
  5
1DA
330
1D7
100
AcDbEntity
  8
Ebene 1
370
    18
  0
POLYLINE
  5
1DB
330
4A
100
AcDbEntity
  8
Ebene 1
 62
   179
420
  1709851
370
    18
100
AcDb2dPolyline
 66
     1
 10
0.0
 20
0.0
 30
0.0
  0
VERTEX
  5
1DC
330
1DB
100
AcDbEntity
  8
Ebene 1
 62
   179
420
  1709851
370
    18
100
AcDbVertex
100
AcDb2dVertex
 10
115.8909450665134
 20
-149.186414893259
 30
0.0
  0
VERTEX
  5
1DD
330
1DB
100
AcDbEntity
  8
Ebene 1
 62
   179
420
  1709851
370
    18
100
AcDbVertex
100
AcDb2dVertex
 10
116.7584201096993
 20
-149.6728623757762
 30
0.0
  0
SEQEND
  5
1DE
330
1DB
100
AcDbEntity
  8
Ebene 1
370
    18
  0
POLYLINE
  5
1DF
330
4A
100
AcDbEntity
  8
Ebene 1
 62
   179
420
  1709851
370
    18
100
AcDb2dPolyline
 66
     1
 10
0.0
 20
0.0
 30
0.0
  0
VERTEX
  5
1E0
330
1DF
100
AcDbEntity
  8
Ebene 1
 62
   179
420
  1709851
370
    18
100
AcDbVertex
100
AcDb2dVertex
 10
118.1977810034367
 20
-128.4429782122469
 30
0.0
  0
VERTEX
  5
1E1
330
1DF
100
AcDbEntity
  8
Ebene 1
 62
   179
420
  1709851
370
    18
100
AcDbVertex
100
AcDb2dVertex
 10
118.1557508385166
 20
-128.189074674984
 30
0.0
  0
VERTEX
  5
1E2
330
1DF
100
AcDbEntity
  8
Ebene 1
 62
   179
420
  1709851
370
    18
100
AcDbVertex
100
AcDb2dVertex
 10
118.050330916668
 20
-127.9772013026411
 30
0.0
  0
VERTEX
  5
1E3
330
1DF
100
AcDbEntity
  8
Ebene 1
 62
   179
420
  1709851
370
    18
100
AcDbVertex
100
AcDb2dVertex
 10
117.8594726267851
 20
-127.8080471143154
 30
0.0
  0
VERTEX
  5
1E4
330
1DF
100
AcDbEntity
  8
Ebene 1
 62
   179
420
  1709851
370
    18
100
AcDbVertex
100
AcDb2dVertex
 10
117.6265841719822
 20
-127.7236422749267
 30
0.0
  0
VERTEX
  5
1E5
330
1DF
100
AcDbEntity
  8
Ebene 1
 62
   179
420
  1709851
370
    18
100
AcDbVertex
100
AcDb2dVertex
 10
117.3726806347193
 20
-127.7236422749267
 30
0.0
  0
VERTEX
  5
1E6
330
1DF
100
AcDbEntity
  8
Ebene 1
 62
   179
420
  1709851
370
    18
100
AcDbVertex
100
AcDb2dVertex
 10
117.1394476703679
 20
-127.7866875223068
 30
0.0
  0
VERTEX
  5
1E7
330
1DF
100
AcDbEntity
  8
Ebene 1
 62
   179
420
  1709851
370
    18
100
AcDbVertex
100
AcDb2dVertex
 10
117.1187770974564
 20
-127.8080471143154
 30
0.0
  0
SEQEND
  5
1E8
330
1DF
100
AcDbEntity
  8
Ebene 1
370
    18
  0
POLYLINE
  5
1E9
330
4A
100
AcDbEntity
  8
Ebene 1
 62
   179
420
  1709851
370
    18
100
AcDb2dPolyline
 66
     1
 10
0.0
 20
0.0
 30
0.0
  0
VERTEX
  5
1EA
330
1E9
100
AcDbEntity
  8
Ebene 1
 62
   179
420
  1709851
370
    18
100
AcDbVertex
100
AcDb2dVertex
 10
117.1187770974564
 20
-127.8080471143154
 30
0.0
  0
VERTEX
  5
1EB
330
1E9
100
AcDbEntity
  8
Ebene 1
 62
   179
420
  1709851
370
    18
100
AcDbVertex
100
AcDb2dVertex
 10
116.7801242112564
 20
-128.0619506515783
 30
0.0
  0
VERTEX
  5
1EC
330
1E9
100
AcDbEntity
  8
Ebene 1
 62
   179
420
  1709851
370
    18
100
AcDbVertex
100
AcDb2dVertex
 10
116.4838459995249
 20
-128.3795884553183
 30
0.0
  0
VERTEX
  5
1ED
330
1E9
100
AcDbEntity
  8
Ebene 1
 62
   179
420
  1709851
370
    18
100
AcDbVertex
100
AcDb2dVertex
 10
116.250957544722
 20
-128.7392564239784
 30
0.0
  0
VERTEX
  5
1EE
330
1E9
100
AcDbEntity
  8
Ebene 1
 62
   179
420
  1709851
370
    18
100
AcDbVertex
100
AcDb2dVertex
 10
116.1028184388562
 20
-129.141299067107
 30
0.0
  0
VERTEX
  5
1EF
330
1E9
100
AcDbEntity
  8
Ebene 1
 62
   179
420
  1709851
370
    18
100
AcDbVertex
100
AcDb2dVertex
 10
116.0390841723791
 20
-129.5647013022443
 30
0.0
  0
VERTEX
  5
1F0
330
1E9
100
AcDbEntity
  8
Ebene 1
 62
   179
420
  1709851
370
    18
100
AcDbVertex
100
AcDb2dVertex
 10
116.0390841723791
 20
-129.69182532565
 30
0.0
  0
VERTEX
  5
1F1
330
1E9
100
AcDbEntity
  8
Ebene 1
 62
   179
420
  1709851
370
    18
100
AcDbVertex
100
AcDb2dVertex
 10
116.0811143372992
 20
-129.9247137804529
 30
0.0
  0
VERTEX
  5
1F2
330
1E9
100
AcDbEntity
  8
Ebene 1
 62
   179
420
  1709851
370
    18
100
AcDbVertex
100
AcDb2dVertex
 10
116.2085828702534
 20
-130.1362426432472
 30
0.0
  0
VERTEX
  5
1F3
330
1E9
100
AcDbEntity
  8
Ebene 1
 62
   179
420
  1709851
370
    18
100
AcDbVertex
100
AcDb2dVertex
 10
116.3990966505877
 20
-130.3057413411215
 30
0.0
  0
VERTEX
  5
1F4
330
1E9
100
AcDbEntity
  8
Ebene 1
 62
   179
420
  1709851
370
    18
100
AcDbVertex
100
AcDb2dVertex
 10
116.6102810038335
 20
-130.3901461805101
 30
0.0
  0
VERTEX
  5
1F5
330
1E9
100
AcDbEntity
  8
Ebene 1
 62
   179
420
  1709851
370
    18
100
AcDbVertex
100
AcDb2dVertex
 10
116.864529050645
 20
-130.3901461805101
 30
0.0
  0
VERTEX
  5
1F6
330
1E9
100
AcDbEntity
  8
Ebene 1
 62
   179
420
  1709851
370
    18
100
AcDbVertex
100
AcDb2dVertex
 10
117.0974175054479
 20
-130.3267564235815
 30
0.0
  0
VERTEX
  5
1F7
330
1E9
100
AcDbEntity
  8
Ebene 1
 62
   179
420
  1709851
370
    18
100
AcDbVertex
100
AcDb2dVertex
 10
117.1187770974564
 20
-130.3057413411215
 30
0.0
  0
SEQEND
  5
1F8
330
1E9
100
AcDbEntity
  8
Ebene 1
370
    18
  0
POLYLINE
  5
1F9
330
4A
100
AcDbEntity
  8
Ebene 1
 62
   179
420
  1709851
370
    18
100
AcDb2dPolyline
 66
     1
 10
0.0
 20
0.0
 30
0.0
  0
VERTEX
  5
1FA
330
1F9
100
AcDbEntity
  8
Ebene 1
 62
   179
420
  1709851
370
    18
100
AcDbVertex
100
AcDb2dVertex
 10
117.1187770974564
 20
-130.3057413411215
 30
0.0
  0
VERTEX
  5
1FB
330
1F9
100
AcDbEntity
  8
Ebene 1
 62
   179
420
  1709851
370
    18
100
AcDbVertex
100
AcDb2dVertex
 10
117.4784450661165
 20
-130.0514932943101
 30
0.0
  0
VERTEX
  5
1FC
330
1F9
100
AcDbEntity
  8
Ebene 1
 62
   179
420
  1709851
370
    18
100
AcDbVertex
100
AcDb2dVertex
 10
117.753708195388
 20
-129.7552150825786
 30
0.0
  0
VERTEX
  5
1FD
330
1F9
100
AcDbEntity
  8
Ebene 1
 62
   179
420
  1709851
370
    18
100
AcDbVertex
100
AcDb2dVertex
 10
117.9865966501909
 20
-129.3741875219099
 30
0.0
  0
VERTEX
  5
1FE
330
1F9
100
AcDbEntity
  8
Ebene 1
 62
   179
420
  1709851
370
    18
100
AcDbVertex
100
AcDb2dVertex
 10
118.1347357560566
 20
-128.9724893883298
 30
0.0
  0
VERTEX
  5
1FF
330
1F9
100
AcDbEntity
  8
Ebene 1
 62
   179
420
  1709851
370
    18
100
AcDbVertex
100
AcDb2dVertex
 10
118.1977810034367
 20
-128.5487426436441
 30
0.0
  0
VERTEX
  5
200
330
1F9
100
AcDbEntity
  8
Ebene 1
 62
   179
420
  1709851
370
    18
100
AcDbVertex
100
AcDb2dVertex
 10
118.1977810034367
 20
-128.4433227217954
 30
0.0
  0
SEQEND
  5
201
330
1F9
100
AcDbEntity
  8
Ebene 1
370
    18
  0
POLYLINE
  5
202
330
4A
100
AcDbEntity
  8
Ebene 1
 62
   179
420
  1709851
370
    18
100
AcDb2dPolyline
 66
     1
 10
0.0
 20
0.0
 30
0.0
  0
VERTEX
  5
203
330
202
100
AcDbEntity
  8
Ebene 1
 62
   179
420
  1709851
370
    18
100
AcDbVertex
100
AcDb2dVertex
 10
117.4574299836565
 20
-128.8663804473841
 30
0.0
  0
VERTEX
  5
204
330
202
100
AcDbEntity
  8
Ebene 1
 62
   179
420
  1709851
370
    18
100
AcDbVertex
100
AcDb2dVertex
 10
117.4150553091879
 20
-128.7392564239784
 30
0.0
  0
VERTEX
  5
205
330
202
100
AcDbEntity
  8
Ebene 1
 62
   179
420
  1709851
370
    18
100
AcDbVertex
100
AcDb2dVertex
 10
117.3092908777907
 20
-128.6545070750412
 30
0.0
  0
VERTEX
  5
206
330
202
100
AcDbEntity
  8
Ebene 1
 62
   179
420
  1709851
370
    18
100
AcDbVertex
100
AcDb2dVertex
 10
117.161151771925
 20
-128.6545070750412
 30
0.0
  0
VERTEX
  5
207
330
202
100
AcDbEntity
  8
Ebene 1
 62
   179
420
  1709851
370
    18
100
AcDbVertex
100
AcDb2dVertex
 10
117.1187770974564
 20
-128.6758666670498
 30
0.0
  0
SEQEND
  5
208
330
202
100
AcDbEntity
  8
Ebene 1
370
    18
  0
POLYLINE
  5
209
330
4A
100
AcDbEntity
  8
Ebene 1
 62
   179
420
  1709851
370
    18
100
AcDb2dPolyline
 66
     1
 10
0.0
 20
0.0
 30
0.0
  0
VERTEX
  5
20A
330
209
100
AcDbEntity
  8
Ebene 1
 62
   179
420
  1709851
370
    18
100
AcDbVertex
100
AcDb2dVertex
 10
117.1187770974564
 20
-128.6758666670498
 30
0.0
  0
VERTEX
  5
20B
330
209
100
AcDbEntity
  8
Ebene 1
 62
   179
420
  1709851
370
    18
100
AcDbVertex
100
AcDb2dVertex
 10
116.9492783995821
 20
-128.8240057729155
 30
0.0
  0
VERTEX
  5
20C
330
209
100
AcDbEntity
  8
Ebene 1
 62
   179
420
  1709851
370
    18
100
AcDbVertex
100
AcDb2dVertex
 10
116.843513968185
 20
-129.0355346357099
 30
0.0
  0
VERTEX
  5
20D
330
209
100
AcDbEntity
  8
Ebene 1
 62
   179
420
  1709851
370
    18
100
AcDbVertex
100
AcDb2dVertex
 10
116.8011392937164
 20
-129.2474080080527
 30
0.0
  0
VERTEX
  5
20E
330
209
100
AcDbEntity
  8
Ebene 1
 62
   179
420
  1709851
370
    18
100
AcDbVertex
100
AcDb2dVertex
 10
116.843513968185
 20
-129.3741875219099
 30
0.0
  0
VERTEX
  5
20F
330
209
100
AcDbEntity
  8
Ebene 1
 62
   179
420
  1709851
370
    18
100
AcDbVertex
100
AcDb2dVertex
 10
116.9492783995821
 20
-129.4589368708471
 30
0.0
  0
VERTEX
  5
210
330
209
100
AcDbEntity
  8
Ebene 1
 62
   179
420
  1709851
370
    18
100
AcDbVertex
100
AcDb2dVertex
 10
117.0764024229879
 20
-129.4589368708471
 30
0.0
  0
VERTEX
  5
211
330
209
100
AcDbEntity
  8
Ebene 1
 62
   179
420
  1709851
370
    18
100
AcDbVertex
100
AcDb2dVertex
 10
117.1187770974564
 20
-129.4379217883871
 30
0.0
  0
SEQEND
  5
212
330
209
100
AcDbEntity
  8
Ebene 1
370
    18
  0
POLYLINE
  5
213
330
4A
100
AcDbEntity
  8
Ebene 1
 62
   179
420
  1709851
370
    18
100
AcDb2dPolyline
 66
     1
 10
0.0
 20
0.0
 30
0.0
  0
VERTEX
  5
214
330
213
100
AcDbEntity
  8
Ebene 1
 62
   179
420
  1709851
370
    18
100
AcDbVertex
100
AcDb2dVertex
 10
117.1187770974564
 20
-129.4379217883871
 30
0.0
  0
VERTEX
  5
215
330
213
100
AcDbEntity
  8
Ebene 1
 62
   179
420
  1709851
370
    18
100
AcDbVertex
100
AcDb2dVertex
 10
117.3092908777907
 20
-129.2897826825213
 30
0.0
  0
VERTEX
  5
216
330
213
100
AcDbEntity
  8
Ebene 1
 62
   179
420
  1709851
370
    18
100
AcDbVertex
100
AcDb2dVertex
 10
117.4150553091879
 20
-129.0779093101785
 30
0.0
  0
VERTEX
  5
217
330
213
100
AcDbEntity
  8
Ebene 1
 62
   179
420
  1709851
370
    18
100
AcDbVertex
100
AcDb2dVertex
 10
117.4574299836565
 20
-128.8663804473841
 30
0.0
  0
SEQEND
  5
218
330
213
100
AcDbEntity
  8
Ebene 1
370
    18
  0
POLYLINE
  5
219
330
4A
100
AcDbEntity
  8
Ebene 1
 62
   179
420
  1709851
370
    18
100
AcDb2dPolyline
 66
     1
 10
0.0
 20
0.0
 30
0.0
  0
VERTEX
  5
21A
330
219
100
AcDbEntity
  8
Ebene 1
 62
   179
420
  1709851
370
    18
100
AcDbVertex
100
AcDb2dVertex
 10
117.3516655522593
 20
-148.5089368660846
 30
0.0
  0
VERTEX
  5
21B
330
219
100
AcDbEntity
  8
Ebene 1
 62
   179
420
  1709851
370
    18
100
AcDbVertex
100
AcDb2dVertex
 10
117.1394476703679
 20
-149.0589463603047
 30
0.0
  0
SEQEND
  5
21C
330
219
100
AcDbEntity
  8
Ebene 1
370
    18
  0
POLYLINE
  5
21D
330
4A
100
AcDbEntity
  8
Ebene 1
 62
   179
420
  1709851
370
    18
100
AcDb2dPolyline
 66
     1
 10
0.0
 20
0.0
 30
0.0
  0
VERTEX
  5
21E
330
21D
100
AcDbEntity
  8
Ebene 1
 62
   179
420
  1709851
370
    18
100
AcDbVertex
100
AcDb2dVertex
 10
117.774723277848
 20
-149.1016655443218
 30
0.0
  0
VERTEX
  5
21F
330
21D
100
AcDbEntity
  8
Ebene 1
 62
   179
420
  1709851
370
    18
100
AcDbVertex
100
AcDb2dVertex
 10
117.9865966501909
 20
-148.5513115405531
 30
0.0
  0
VERTEX
  5
220
330
21D
100
AcDbEntity
  8
Ebene 1
 62
   179
420
  1709851
370
    18
100
AcDbVertex
100
AcDb2dVertex
 10
117.774723277848
 20
-148.2550333288217
 30
0.0
  0
SEQEND
  5
221
330
21D
100
AcDbEntity
  8
Ebene 1
370
    18
  0
POLYLINE
  5
222
330
4A
100
AcDbEntity
  8
Ebene 1
 62
   179
420
  1709851
370
    18
100
AcDb2dPolyline
 66
     1
 10
0.0
 20
0.0
 30
0.0
  0
VERTEX
  5
223
330
222
100
AcDbEntity
  8
Ebene 1
 62
   179
420
  1709851
370
    18
100
AcDbVertex
100
AcDb2dVertex
 10
117.1394476703679
 20
-149.0589463603047
 30
0.0
  0
VERTEX
  5
224
330
222
100
AcDbEntity
  8
Ebene 1
 62
   179
420
  1709851
370
    18
100
AcDbVertex
100
AcDb2dVertex
 10
117.3516655522593
 20
-149.3559135911333
 30
0.0
  0
SEQEND
  5
225
330
222
100
AcDbEntity
  8
Ebene 1
370
    18
  0
POLYLINE
  5
226
330
4A
100
AcDbEntity
  8
Ebene 1
 62
   179
420
  1709851
370
    18
100
AcDb2dPolyline
 66
     1
 10
0.0
 20
0.0
 30
0.0
  0
VERTEX
  5
227
330
226
100
AcDbEntity
  8
Ebene 1
 62
   179
420
  1709851
370
    18
100
AcDbVertex
100
AcDb2dVertex
 10
117.774723277848
 20
-148.2550333288217
 30
0.0
  0
VERTEX
  5
228
330
226
100
AcDbEntity
  8
Ebene 1
 62
   179
420
  1709851
370
    18
100
AcDbVertex
100
AcDb2dVertex
 10
117.3516655522593
 20
-148.5089368660846
 30
0.0
  0
SEQEND
  5
229
330
226
100
AcDbEntity
  8
Ebene 1
370
    18
  0
POLYLINE
  5
22A
330
4A
100
AcDbEntity
  8
Ebene 1
 62
   179
420
  1709851
370
    18
100
AcDb2dPolyline
 66
     1
 10
0.0
 20
0.0
 30
0.0
  0
VERTEX
  5
22B
330
22A
100
AcDbEntity
  8
Ebene 1
 62
   179
420
  1709851
370
    18
100
AcDbVertex
100
AcDb2dVertex
 10
117.3516655522593
 20
-149.3559135911333
 30
0.0
  0
VERTEX
  5
22C
330
22A
100
AcDbEntity
  8
Ebene 1
 62
   179
420
  1709851
370
    18
100
AcDbVertex
100
AcDb2dVertex
 10
117.774723277848
 20
-149.1016655443218
 30
0.0
  0
SEQEND
  5
22D
330
22A
100
AcDbEntity
  8
Ebene 1
370
    18
  0
POLYLINE
  5
22E
330
4A
100
AcDbEntity
  8
Ebene 1
 62
   179
420
  1709851
370
    18
100
AcDb2dPolyline
 66
     1
 10
0.0
 20
0.0
 30
0.0
  0
VERTEX
  5
22F
330
22E
100
AcDbEntity
  8
Ebene 1
 62
   179
420
  1709851
370
    18
100
AcDbVertex
100
AcDb2dVertex
 10
118.1347357560566
 20
-147.9163804426216
 30
0.0
  0
VERTEX
  5
230
330
22E
100
AcDbEntity
  8
Ebene 1
 62
   179
420
  1709851
370
    18
100
AcDbVertex
100
AcDb2dVertex
 10
118.0076117326509
 20
-147.7468817447473
 30
0.0
  0
VERTEX
  5
231
330
22E
100
AcDbEntity
  8
Ebene 1
 62
   179
420
  1709851
370
    18
100
AcDbVertex
100
AcDb2dVertex
 10
117.9228623837137
 20
-147.6834919878187
 30
0.0
  0
SEQEND
  5
232
330
22E
100
AcDbEntity
  8
Ebene 1
370
    18
  0
POLYLINE
  5
233
330
4A
100
AcDbEntity
  8
Ebene 1
 62
   179
420
  1709851
370
    18
100
AcDb2dPolyline
 66
     1
 10
0.0
 20
0.0
 30
0.0
  0
VERTEX
  5
234
330
233
100
AcDbEntity
  8
Ebene 1
 62
   179
420
  1709851
370
    18
100
AcDbVertex
100
AcDb2dVertex
 10
116.7584201096993
 20
-149.6728623757762
 30
0.0
  0
VERTEX
  5
235
330
233
100
AcDbEntity
  8
Ebene 1
 62
   179
420
  1709851
370
    18
100
AcDbVertex
100
AcDb2dVertex
 10
116.9706379915907
 20
-149.7576117247134
 30
0.0
  0
VERTEX
  5
236
330
233
100
AcDbEntity
  8
Ebene 1
 62
   179
420
  1709851
370
    18
100
AcDbVertex
100
AcDb2dVertex
 10
117.0764024229879
 20
-149.7576117247134
 30
0.0
  0
SEQEND
  5
237
330
233
100
AcDbEntity
  8
Ebene 1
370
    18
  0
POLYLINE
  5
238
330
4A
100
AcDbEntity
  8
Ebene 1
 62
   179
420
  1709851
370
    18
100
AcDb2dPolyline
 66
     1
 10
0.0
 20
0.0
 30
0.0
  0
VERTEX
  5
239
330
238
100
AcDbEntity
  8
Ebene 1
 62
   179
420
  1709851
370
    18
100
AcDbVertex
100
AcDb2dVertex
 10
118.3252495363909
 20
-148.3607977602188
 30
0.0
  0
VERTEX
  5
23A
330
238
100
AcDbEntity
  8
Ebene 1
 62
   179
420
  1709851
370
    18
100
AcDbVertex
100
AcDb2dVertex
 10
118.2828748619223
 20
-148.1702839798845
 30
0.0
  0
VERTEX
  5
23B
330
238
100
AcDbEntity
  8
Ebene 1
 62
   179
420
  1709851
370
    18
100
AcDbVertex
100
AcDb2dVertex
 10
118.1557508385166
 20
-148.0007852820102
 30
0.0
  0
VERTEX
  5
23C
330
238
100
AcDbEntity
  8
Ebene 1
 62
   179
420
  1709851
370
    18
100
AcDbVertex
100
AcDb2dVertex
 10
117.9865966501909
 20
-147.8950208506131
 30
0.0
  0
VERTEX
  5
23D
330
238
100
AcDbEntity
  8
Ebene 1
 62
   179
420
  1709851
370
    18
100
AcDbVertex
100
AcDb2dVertex
 10
117.774723277848
 20
-147.874005768153
 30
0.0
  0
VERTEX
  5
23E
330
238
100
AcDbEntity
  8
Ebene 1
 62
   179
420
  1709851
370
    18
100
AcDbVertex
100
AcDb2dVertex
 10
117.5845540070622
 20
-147.9163804426216
 30
0.0
  0
VERTEX
  5
23F
330
238
100
AcDbEntity
  8
Ebene 1
 62
   179
420
  1709851
370
    18
100
AcDbVertex
100
AcDb2dVertex
 10
117.5631944150537
 20
-147.9373955250816
 30
0.0
  0
SEQEND
  5
240
330
238
100
AcDbEntity
  8
Ebene 1
370
    18
  0
POLYLINE
  5
241
330
4A
100
AcDbEntity
  8
Ebene 1
 62
   179
420
  1709851
370
    18
100
AcDb2dPolyline
 66
     1
 10
0.0
 20
0.0
 30
0.0
  0
VERTEX
  5
242
330
241
100
AcDbEntity
  8
Ebene 1
 62
   179
420
  1709851
370
    18
100
AcDbVertex
100
AcDb2dVertex
 10
117.5631944150537
 20
-147.9373955250816
 30
0.0
  0
VERTEX
  5
243
330
241
100
AcDbEntity
  8
Ebene 1
 62
   179
420
  1709851
370
    18
100
AcDbVertex
100
AcDb2dVertex
 10
117.2669162033222
 20
-148.1492688974245
 30
0.0
  0
VERTEX
  5
244
330
241
100
AcDbEntity
  8
Ebene 1
 62
   179
420
  1709851
370
    18
100
AcDbVertex
100
AcDb2dVertex
 10
117.0340277485193
 20
-148.4241875171474
 30
0.0
  0
VERTEX
  5
245
330
241
100
AcDbEntity
  8
Ebene 1
 62
   179
420
  1709851
370
    18
100
AcDbVertex
100
AcDb2dVertex
 10
116.8858886426535
 20
-148.7418253208875
 30
0.0
  0
VERTEX
  5
246
330
241
100
AcDbEntity
  8
Ebene 1
 62
   179
420
  1709851
370
    18
100
AcDbVertex
100
AcDb2dVertex
 10
116.8011392937164
 20
-149.0803059523133
 30
0.0
  0
VERTEX
  5
247
330
241
100
AcDbEntity
  8
Ebene 1
 62
   179
420
  1709851
370
    18
100
AcDbVertex
100
AcDb2dVertex
 10
116.8011392937164
 20
-149.2498046501875
 30
0.0
  0
VERTEX
  5
248
330
241
100
AcDbEntity
  8
Ebene 1
 62
   179
420
  1709851
370
    18
100
AcDbVertex
100
AcDb2dVertex
 10
116.843513968185
 20
-149.4399739209734
 30
0.0
  0
VERTEX
  5
249
330
241
100
AcDbEntity
  8
Ebene 1
 62
   179
420
  1709851
370
    18
100
AcDbVertex
100
AcDb2dVertex
 10
116.9706379915907
 20
-149.6094726188476
 30
0.0
  0
VERTEX
  5
24A
330
241
100
AcDbEntity
  8
Ebene 1
 62
   179
420
  1709851
370
    18
100
AcDbVertex
100
AcDb2dVertex
 10
117.1394476703679
 20
-149.7155815597933
 30
0.0
  0
VERTEX
  5
24B
330
241
100
AcDbEntity
  8
Ebene 1
 62
   179
420
  1709851
370
    18
100
AcDbVertex
100
AcDb2dVertex
 10
117.3303059602508
 20
-149.7576117247134
 30
0.0
  0
VERTEX
  5
24C
330
241
100
AcDbEntity
  8
Ebene 1
 62
   179
420
  1709851
370
    18
100
AcDbVertex
100
AcDb2dVertex
 10
117.5421793325936
 20
-149.6942219677848
 30
0.0
  0
VERTEX
  5
24D
330
241
100
AcDbEntity
  8
Ebene 1
 62
   179
420
  1709851
370
    18
100
AcDbVertex
100
AcDb2dVertex
 10
117.5631944150537
 20
-149.6728623757762
 30
0.0
  0
SEQEND
  5
24E
330
241
100
AcDbEntity
  8
Ebene 1
370
    18
  0
POLYLINE
  5
24F
330
4A
100
AcDbEntity
  8
Ebene 1
 62
   179
420
  1709851
370
    18
100
AcDb2dPolyline
 66
     1
 10
0.0
 20
0.0
 30
0.0
  0
VERTEX
  5
250
330
24F
100
AcDbEntity
  8
Ebene 1
 62
   179
420
  1709851
370
    18
100
AcDbVertex
100
AcDb2dVertex
 10
117.5631944150537
 20
-149.6728623757762
 30
0.0
  0
VERTEX
  5
251
330
24F
100
AcDbEntity
  8
Ebene 1
 62
   179
420
  1709851
370
    18
100
AcDbVertex
100
AcDb2dVertex
 10
117.8384575443251
 20
-149.4613335129819
 30
0.0
  0
VERTEX
  5
252
330
24F
100
AcDbEntity
  8
Ebene 1
 62
   179
420
  1709851
370
    18
100
AcDbVertex
100
AcDb2dVertex
 10
118.071345999128
 20
-149.186414893259
 30
0.0
  0
VERTEX
  5
253
330
24F
100
AcDbEntity
  8
Ebene 1
 62
   179
420
  1709851
370
    18
100
AcDbVertex
100
AcDb2dVertex
 10
118.2194851049938
 20
-148.8689493442932
 30
0.0
  0
VERTEX
  5
254
330
24F
100
AcDbEntity
  8
Ebene 1
 62
   179
420
  1709851
370
    18
100
AcDbVertex
100
AcDb2dVertex
 10
118.3038899443824
 20
-148.5299519485446
 30
0.0
  0
VERTEX
  5
255
330
24F
100
AcDbEntity
  8
Ebene 1
 62
   179
420
  1709851
370
    18
100
AcDbVertex
100
AcDb2dVertex
 10
118.3252495363909
 20
-148.3607977602188
 30
0.0
  0
SEQEND
  5
256
330
24F
100
AcDbEntity
  8
Ebene 1
370
    18
  0
POLYLINE
  5
257
330
4A
100
AcDbEntity
  8
Ebene 1
 62
   179
420
  1709851
370
    18
100
AcDb2dPolyline
 66
     1
 10
0.0
 20
0.0
 30
0.0
  0
VERTEX
  5
258
330
257
100
AcDbEntity
  8
Ebene 1
 62
   179
420
  1709851
370
    18
100
AcDbVertex
100
AcDb2dVertex
 10
117.0553873405278
 20
-147.1753404037444
 30
0.0
  0
VERTEX
  5
259
330
257
100
AcDbEntity
  8
Ebene 1
 62
   179
420
  1709851
370
    18
100
AcDbVertex
100
AcDb2dVertex
 10
116.843513968185
 20
-147.1119506468158
 30
0.0
  0
VERTEX
  5
25A
330
257
100
AcDbEntity
  8
Ebene 1
 62
   179
420
  1709851
370
    18
100
AcDbVertex
100
AcDb2dVertex
 10
116.6319851053906
 20
-147.1119506468158
 30
0.0
  0
VERTEX
  5
25B
330
257
100
AcDbEntity
  8
Ebene 1
 62
   179
420
  1709851
370
    18
100
AcDbVertex
100
AcDb2dVertex
 10
116.4838459995249
 20
-147.1753404037444
 30
0.0
  0
SEQEND
  5
25C
330
257
100
AcDbEntity
  8
Ebene 1
370
    18
  0
POLYLINE
  5
25D
330
4A
100
AcDbEntity
  8
Ebene 1
 62
   179
420
  1709851
370
    18
100
AcDb2dPolyline
 66
     1
 10
0.0
 20
0.0
 30
0.0
  0
VERTEX
  5
25E
330
25D
100
AcDbEntity
  8
Ebene 1
 62
   179
420
  1709851
370
    18
100
AcDbVertex
100
AcDb2dVertex
 10
116.4838459995249
 20
-147.1753404037444
 30
0.0
  0
VERTEX
  5
25F
330
25D
100
AcDbEntity
  8
Ebene 1
 62
   179
420
  1709851
370
    18
100
AcDbVertex
100
AcDb2dVertex
 10
116.1662081957848
 20
-147.4082288585473
 30
0.0
  0
VERTEX
  5
260
330
25D
100
AcDbEntity
  8
Ebene 1
 62
   179
420
  1709851
370
    18
100
AcDbVertex
100
AcDb2dVertex
 10
115.9123046585219
 20
-147.7045070702787
 30
0.0
  0
VERTEX
  5
261
330
25D
100
AcDbEntity
  8
Ebene 1
 62
   179
420
  1709851
370
    18
100
AcDbVertex
100
AcDb2dVertex
 10
115.7428059606476
 20
-148.0431599564788
 30
0.0
  0
VERTEX
  5
262
330
25D
100
AcDbEntity
  8
Ebene 1
 62
   179
420
  1709851
370
    18
100
AcDbVertex
100
AcDb2dVertex
 10
115.6370415292505
 20
-148.4031724346874
 30
0.0
  0
VERTEX
  5
263
330
25D
100
AcDbEntity
  8
Ebene 1
 62
   179
420
  1709851
370
    18
100
AcDbVertex
100
AcDb2dVertex
 10
115.6160264467904
 20
-148.6784355639589
 30
0.0
  0
VERTEX
  5
264
330
25D
100
AcDbEntity
  8
Ebene 1
 62
   179
420
  1709851
370
    18
100
AcDbVertex
100
AcDb2dVertex
 10
115.6580566117105
 20
-148.8901366815275
 30
0.0
  0
VERTEX
  5
265
330
25D
100
AcDbEntity
  8
Ebene 1
 62
   179
420
  1709851
370
    18
100
AcDbVertex
100
AcDb2dVertex
 10
115.7641655526562
 20
-149.0803059523133
 30
0.0
  0
VERTEX
  5
266
330
25D
100
AcDbEntity
  8
Ebene 1
 62
   179
420
  1709851
370
    18
100
AcDbVertex
100
AcDb2dVertex
 10
115.8909450665134
 20
-149.186414893259
 30
0.0
  0
SEQEND
  5
267
330
25D
100
AcDbEntity
  8
Ebene 1
370
    18
  0
POLYLINE
  5
268
330
4A
100
AcDbEntity
  8
Ebene 1
 62
   179
420
  1709851
370
    18
100
AcDb2dPolyline
 66
     1
 10
0.0
 20
0.0
 30
0.0
  0
VERTEX
  5
269
330
268
100
AcDbEntity
  8
Ebene 1
 62
   179
420
  1709851
370
    18
100
AcDbVertex
100
AcDb2dVertex
 10
113.7742784003759
 20
-101.4978528934624
 30
0.0
  0
VERTEX
  5
26A
330
268
100
AcDbEntity
  8
Ebene 1
 62
   179
420
  1709851
370
    18
100
AcDbVertex
100
AcDb2dVertex
 10
113.7742784003759
 20
-135.2373955282566
 30
0.0
  0
SEQEND
  5
26B
330
268
100
AcDbEntity
  8
Ebene 1
370
    18
  0
POLYLINE
  5
26C
330
4A
100
AcDbEntity
  8
Ebene 1
 62
   179
420
  1709851
370
    18
100
AcDb2dPolyline
 66
     1
 10
0.0
 20
0.0
 30
0.0
  0
VERTEX
  5
26D
330
26C
100
AcDbEntity
  8
Ebene 1
 62
   179
420
  1709851
370
    18
100
AcDbVertex
100
AcDb2dVertex
 10
120.484290876997
 20
-123.1299519548946
 30
0.0
  0
VERTEX
  5
26E
330
26C
100
AcDbEntity
  8
Ebene 1
 62
   179
420
  1709851
370
    18
100
AcDbVertex
100
AcDb2dVertex
 10
154.4143472921256
 20
-103.5297702106627
 30
0.0
  0
SEQEND
  5
26F
330
26C
100
AcDbEntity
  8
Ebene 1
370
    18
  0
POLYLINE
  5
270
330
4A
100
AcDbEntity
  8
Ebene 1
 62
   179
420
  1709851
370
    18
100
AcDb2dPolyline
 66
     1
 10
0.0
 20
0.0
 30
0.0
  0
VERTEX
  5
271
330
270
100
AcDbEntity
  8
Ebene 1
 62
   179
420
  1709851
370
    18
100
AcDbVertex
100
AcDb2dVertex
 10
120.484290876997
 20
-123.6170884565089
 30
0.0
  0
VERTEX
  5
272
330
270
100
AcDbEntity
  8
Ebene 1
 62
   179
420
  1709851
370
    18
100
AcDbVertex
100
AcDb2dVertex
 10
154.4143472921256
 20
-104.0379217947371
 30
0.0
  0
SEQEND
  5
273
330
270
100
AcDbEntity
  8
Ebene 1
370
    18
  0
POLYLINE
  5
274
330
4A
100
AcDbEntity
  8
Ebene 1
 62
   179
420
  1709851
370
    18
100
AcDb2dPolyline
 66
     1
 10
0.0
 20
0.0
 30
0.0
  0
VERTEX
  5
275
330
274
100
AcDbEntity
  8
Ebene 1
 62
   179
420
  1709851
370
    18
100
AcDbVertex
100
AcDb2dVertex
 10
120.484290876997
 20
-129.6284355687214
 30
0.0
  0
VERTEX
  5
276
330
274
100
AcDbEntity
  8
Ebene 1
 62
   179
420
  1709851
370
    18
100
AcDbVertex
100
AcDb2dVertex
 10
154.4143472921256
 20
-110.0279093149409
 30
0.0
  0
SEQEND
  5
277
330
274
100
AcDbEntity
  8
Ebene 1
370
    18
  0
POLYLINE
  5
278
330
4A
100
AcDbEntity
  8
Ebene 1
 62
   179
420
  1709851
370
    18
100
AcDb2dPolyline
 66
     1
 10
0.0
 20
0.0
 30
0.0
  0
VERTEX
  5
279
330
278
100
AcDbEntity
  8
Ebene 1
 62
   179
420
  1709851
370
    18
100
AcDbVertex
100
AcDb2dVertex
 10
116.5896104309221
 20
-133.8617689009964
 30
0.0
  0
VERTEX
  5
27A
330
278
100
AcDbEntity
  8
Ebene 1
 62
   179
420
  1709851
370
    18
100
AcDbVertex
100
AcDb2dVertex
 10
154.4143472921256
 20
-112.0388115496813
 30
0.0
  0
SEQEND
  5
27B
330
278
100
AcDbEntity
  8
Ebene 1
370
    18
  0
POLYLINE
  5
27C
330
4A
100
AcDbEntity
  8
Ebene 1
 62
   179
420
  1709851
370
    18
100
AcDb2dPolyline
 66
     1
 10
0.0
 20
0.0
 30
0.0
  0
VERTEX
  5
27D
330
27C
100
AcDbEntity
  8
Ebene 1
 62
   179
420
  1709851
370
    18
100
AcDbVertex
100
AcDb2dVertex
 10
116.5896104309221
 20
-136.1265746729996
 30
0.0
  0
VERTEX
  5
27E
330
27C
100
AcDbEntity
  8
Ebene 1
 62
   179
420
  1709851
370
    18
100
AcDbVertex
100
AcDb2dVertex
 10
154.4143472921256
 20
-114.2826022392245
 30
0.0
  0
SEQEND
  5
27F
330
27C
100
AcDbEntity
  8
Ebene 1
370
    18
  0
POLYLINE
  5
280
330
4A
100
AcDbEntity
  8
Ebene 1
 62
   179
420
  1709851
370
    18
100
AcDb2dPolyline
 66
     1
 10
0.0
 20
0.0
 30
0.0
  0
VERTEX
  5
281
330
280
100
AcDbEntity
  8
Ebene 1
 62
   179
420
  1709851
370
    18
100
AcDbVertex
100
AcDb2dVertex
 10
68.73172198802541
 20
-165.251584160076
 30
0.0
  0
VERTEX
  5
282
330
280
100
AcDbEntity
  8
Ebene 1
 62
   179
420
  1709851
370
    18
100
AcDbVertex
100
AcDb2dVertex
 10
154.4143472921256
 20
-115.7853528898905
 30
0.0
  0
SEQEND
  5
283
330
280
100
AcDbEntity
  8
Ebene 1
370
    18
  0
POLYLINE
  5
284
330
4A
100
AcDbEntity
  8
Ebene 1
 62
   179
420
  1709851
370
    18
100
AcDb2dPolyline
 66
     1
 10
0.0
 20
0.0
 30
0.0
  0
VERTEX
  5
285
330
284
100
AcDbEntity
  8
Ebene 1
 62
   179
420
  1709851
370
    18
100
AcDbVertex
100
AcDb2dVertex
 10
119.1720540066653
 20
-147.3658541840787
 30
0.0
  0
VERTEX
  5
286
330
284
100
AcDbEntity
  8
Ebene 1
 62
   179
420
  1709851
370
    18
100
AcDbVertex
100
AcDb2dVertex
 10
154.4143472921256
 20
-127.0246324009695
 30
0.0
  0
SEQEND
  5
287
330
284
100
AcDbEntity
  8
Ebene 1
370
    18
  0
POLYLINE
  5
288
330
4A
100
AcDbEntity
  8
Ebene 1
 62
   179
420
  1709851
370
    18
100
AcDb2dPolyline
 66
     1
 10
0.0
 20
0.0
 30
0.0
  0
VERTEX
  5
289
330
288
100
AcDbEntity
  8
Ebene 1
 62
   179
420
  1709851
370
    18
100
AcDbVertex
100
AcDb2dVertex
 10
119.1720540066653
 20
-147.874005768153
 30
0.0
  0
VERTEX
  5
28A
330
288
100
AcDbEntity
  8
Ebene 1
 62
   179
420
  1709851
370
    18
100
AcDbVertex
100
AcDb2dVertex
 10
154.4143472921256
 20
-127.5327839850439
 30
0.0
  0
SEQEND
  5
28B
330
288
100
AcDbEntity
  8
Ebene 1
370
    18
  0
POLYLINE
  5
28C
330
4A
100
AcDbEntity
  8
Ebene 1
 62
   179
420
  1709851
370
    18
100
AcDb2dPolyline
 66
     1
 10
0.0
 20
0.0
 30
0.0
  0
VERTEX
  5
28D
330
28C
100
AcDbEntity
  8
Ebene 1
 62
   179
420
  1709851
370
    18
100
AcDbVertex
100
AcDb2dVertex
 10
113.3298610827786
 20
-156.742887330606
 30
0.0
  0
VERTEX
  5
28E
330
28C
100
AcDbEntity
  8
Ebene 1
 62
   179
420
  1709851
370
    18
100
AcDbVertex
100
AcDb2dVertex
 10
112.038639294907
 20
-156.0021918012772
 30
0.0
  0
SEQEND
  5
28F
330
28C
100
AcDbEntity
  8
Ebene 1
370
    18
  0
POLYLINE
  5
290
330
4A
100
AcDbEntity
  8
Ebene 1
 62
   179
420
  1709851
370
    18
100
AcDb2dPolyline
 66
     1
 10
0.0
 20
0.0
 30
0.0
  0
VERTEX
  5
291
330
290
100
AcDbEntity
  8
Ebene 1
 62
   179
420
  1709851
370
    18
100
AcDbVertex
100
AcDb2dVertex
 10
108.7788899467636
 20
-154.1184135899426
 30
0.0
  0
VERTEX
  5
292
330
290
100
AcDbEntity
  8
Ebene 1
 62
   179
420
  1709851
370
    18
100
AcDbVertex
100
AcDb2dVertex
 10
108.1436143392835
 20
-153.737386029274
 30
0.0
  0
SEQEND
  5
293
330
290
100
AcDbEntity
  8
Ebene 1
370
    18
  0
POLYLINE
  5
294
330
4A
100
AcDbEntity
  8
Ebene 1
 62
   179
420
  1709851
370
    18
100
AcDb2dPolyline
 66
     1
 10
0.0
 20
0.0
 30
0.0
  0
VERTEX
  5
295
330
294
100
AcDbEntity
  8
Ebene 1
 62
   179
420
  1709851
370
    18
100
AcDbVertex
100
AcDb2dVertex
 10
110.5145290522325
 20
-153.8641655431312
 30
0.0
  0
VERTEX
  5
296
330
294
100
AcDbEntity
  8
Ebene 1
 62
   179
420
  1709851
370
    18
100
AcDbVertex
100
AcDb2dVertex
 10
109.8792534447524
 20
-153.4831379824626
 30
0.0
  0
SEQEND
  5
297
330
294
100
AcDbEntity
  8
Ebene 1
370
    18
  0
POLYLINE
  5
298
330
4A
100
AcDbEntity
  8
Ebene 1
 62
   179
420
  1709851
370
    18
100
AcDb2dPolyline
 66
     1
 10
0.0
 20
0.0
 30
0.0
  0
VERTEX
  5
299
330
298
100
AcDbEntity
  8
Ebene 1
 62
   179
420
  1709851
370
    18
100
AcDbVertex
100
AcDb2dVertex
 10
112.2505126672499
 20
-154.8591091192714
 30
0.0
  0
VERTEX
  5
29A
330
298
100
AcDbEntity
  8
Ebene 1
 62
   179
420
  1709851
370
    18
100
AcDbVertex
100
AcDb2dVertex
 10
111.1711642517211
 20
-155.4936957076544
 30
0.0
  0
SEQEND
  5
29B
330
298
100
AcDbEntity
  8
Ebene 1
370
    18
  0
POLYLINE
  5
29C
330
4A
100
AcDbEntity
  8
Ebene 1
 62
   179
420
  1709851
370
    18
100
AcDb2dPolyline
 66
     1
 10
0.0
 20
0.0
 30
0.0
  0
VERTEX
  5
29D
330
29C
100
AcDbEntity
  8
Ebene 1
 62
   179
420
  1709851
370
    18
100
AcDbVertex
100
AcDb2dVertex
 10
119.1720540066653
 20
-143.8735608906809
 30
0.0
  0
VERTEX
  5
29E
330
29C
100
AcDbEntity
  8
Ebene 1
 62
   179
420
  1709851
370
    18
100
AcDbVertex
100
AcDb2dVertex
 10
119.1720540066653
 20
-153.3770290415169
 30
0.0
  0
SEQEND
  5
29F
330
29C
100
AcDbEntity
  8
Ebene 1
370
    18
  0
POLYLINE
  5
2A0
330
4A
100
AcDbEntity
  8
Ebene 1
 62
   179
420
  1709851
370
    18
100
AcDb2dPolyline
 66
     1
 10
0.0
 20
0.0
 30
0.0
  0
VERTEX
  5
2A1
330
2A0
100
AcDbEntity
  8
Ebene 1
 62
   179
420
  1709851
370
    18
100
AcDbVertex
100
AcDb2dVertex
 10
113.7742784003759
 20
-146.98482662341
 30
0.0
  0
VERTEX
  5
2A2
330
2A0
100
AcDbEntity
  8
Ebene 1
 62
   179
420
  1709851
370
    18
100
AcDbVertex
100
AcDb2dVertex
 10
113.7742784003759
 20
-156.4886392837945
 30
0.0
  0
SEQEND
  5
2A3
330
2A0
100
AcDbEntity
  8
Ebene 1
370
    18
  0
POLYLINE
  5
2A4
330
4A
100
AcDbEntity
  8
Ebene 1
 62
   179
420
  1709851
370
    18
100
AcDb2dPolyline
 66
     1
 10
0.0
 20
0.0
 30
0.0
  0
VERTEX
  5
2A5
330
2A4
100
AcDbEntity
  8
Ebene 1
 62
   179
420
  1709851
370
    18
100
AcDbVertex
100
AcDb2dVertex
 10
106.8317219785004
 20
-154.4994411506113
 30
0.0
  0
VERTEX
  5
2A6
330
2A4
100
AcDbEntity
  8
Ebene 1
 62
   179
420
  1709851
370
    18
100
AcDbVertex
100
AcDb2dVertex
 10
106.8317219785004
 20
-160.4890841612666
 30
0.0
  0
SEQEND
  5
2A7
330
2A4
100
AcDbEntity
  8
Ebene 1
370
    18
  0
POLYLINE
  5
2A8
330
4A
100
AcDbEntity
  8
Ebene 1
 62
   179
420
  1709851
370
    18
100
AcDb2dPolyline
 66
     1
 10
0.0
 20
0.0
 30
0.0
  0
VERTEX
  5
2A9
330
2A8
100
AcDbEntity
  8
Ebene 1
 62
   179
420
  1709851
370
    18
100
AcDbVertex
100
AcDb2dVertex
 10
108.5673610839693
 20
-153.9909450569884
 30
0.0
  0
VERTEX
  5
2AA
330
2A8
100
AcDbEntity
  8
Ebene 1
 62
   179
420
  1709851
370
    18
100
AcDbVertex
100
AcDb2dVertex
 10
112.038639294907
 20
-152.0017469238051
 30
0.0
  0
SEQEND
  5
2AB
330
2A8
100
AcDbEntity
  8
Ebene 1
370
    18
  0
POLYLINE
  5
2AC
330
4A
100
AcDbEntity
  8
Ebene 1
 62
   179
420
  1709851
370
    18
100
AcDb2dPolyline
 66
     1
 10
0.0
 20
0.0
 30
0.0
  0
VERTEX
  5
2AD
330
2AC
100
AcDbEntity
  8
Ebene 1
 62
   179
420
  1709851
370
    18
100
AcDbVertex
100
AcDb2dVertex
 10
110.5145290522325
 20
-153.8641655431312
 30
0.0
  0
VERTEX
  5
2AE
330
2AC
100
AcDbEntity
  8
Ebene 1
 62
   179
420
  1709851
370
    18
100
AcDbVertex
100
AcDb2dVertex
 10
110.5145290522325
 20
-155.1126681469857
 30
0.0
  0
SEQEND
  5
2AF
330
2AC
100
AcDbEntity
  8
Ebene 1
370
    18
  0
POLYLINE
  5
2B0
330
4A
100
AcDbEntity
  8
Ebene 1
 62
   179
420
  1709851
370
    18
100
AcDb2dPolyline
 66
     1
 10
0.0
 20
0.0
 30
0.0
  0
VERTEX
  5
2B1
330
2B0
100
AcDbEntity
  8
Ebene 1
 62
   179
420
  1709851
370
    18
100
AcDbVertex
100
AcDb2dVertex
 10
112.038639294907
 20
-145.9902275568184
 30
0.0
  0
VERTEX
  5
2B2
330
2B0
100
AcDbEntity
  8
Ebene 1
 62
   179
420
  1709851
370
    18
100
AcDbVertex
100
AcDb2dVertex
 10
112.038639294907
 20
-156.0021918012772
 30
0.0
  0
SEQEND
  5
2B3
330
2B0
100
AcDbEntity
  8
Ebene 1
370
    18
  0
POLYLINE
  5
2B4
330
4A
100
AcDbEntity
  8
Ebene 1
 62
   179
420
  1709851
370
    18
100
AcDb2dPolyline
 66
     1
 10
0.0
 20
0.0
 30
0.0
  0
VERTEX
  5
2B5
330
2B4
100
AcDbEntity
  8
Ebene 1
 62
   179
420
  1709851
370
    18
100
AcDbVertex
100
AcDb2dVertex
 10
112.6949299848471
 20
-157.1239148912746
 30
0.0
  0
VERTEX
  5
2B6
330
2B4
100
AcDbEntity
  8
Ebene 1
 62
   179
420
  1709851
370
    18
100
AcDbVertex
100
AcDb2dVertex
 10
107.4880126684405
 20
-154.1184135899426
 30
0.0
  0
SEQEND
  5
2B7
330
2B4
100
AcDbEntity
  8
Ebene 1
370
    18
  0
POLYLINE
  5
2B8
330
4A
100
AcDbEntity
  8
Ebene 1
 62
   179
420
  1709851
370
    18
100
AcDb2dPolyline
 66
     1
 10
0.0
 20
0.0
 30
0.0
  0
VERTEX
  5
2B9
330
2B8
100
AcDbEntity
  8
Ebene 1
 62
   179
420
  1709851
370
    18
100
AcDbVertex
100
AcDb2dVertex
 10
109.8792534447524
 20
-153.4831379824626
 30
0.0
  0
VERTEX
  5
2BA
330
2B8
100
AcDbEntity
  8
Ebene 1
 62
   179
420
  1709851
370
    18
100
AcDbVertex
100
AcDb2dVertex
 10
108.7788899467636
 20
-154.1184135899426
 30
0.0
  0
SEQEND
  5
2BB
330
2B8
100
AcDbEntity
  8
Ebene 1
370
    18
  0
POLYLINE
  5
2BC
330
4A
100
AcDbEntity
  8
Ebene 1
 62
   179
420
  1709851
370
    18
100
AcDb2dPolyline
 66
     1
 10
0.0
 20
0.0
 30
0.0
  0
VERTEX
  5
2BD
330
2BC
100
AcDbEntity
  8
Ebene 1
 62
   179
420
  1709851
370
    18
100
AcDbVertex
100
AcDb2dVertex
 10
111.1711642517211
 20
-155.4936957076544
 30
0.0
  0
VERTEX
  5
2BE
330
2BC
100
AcDbEntity
  8
Ebene 1
 62
   179
420
  1709851
370
    18
100
AcDbVertex
100
AcDb2dVertex
 10
109.4351806367037
 20
-154.4994411506113
 30
0.0
  0
VERTEX
  5
2BF
330
2BC
100
AcDbEntity
  8
Ebene 1
 62
   179
420
  1709851
370
    18
100
AcDbVertex
100
AcDb2dVertex
 10
110.5145290522325
 20
-153.8641655431312
 30
0.0
  0
SEQEND
  5
2C0
330
2BC
100
AcDbEntity
  8
Ebene 1
370
    18
  0
POLYLINE
  5
2C1
330
4A
100
AcDbEntity
  8
Ebene 1
 62
   179
420
  1709851
370
    18
100
AcDb2dPolyline
 66
     1
 10
0.0
 20
0.0
 30
0.0
  0
VERTEX
  5
2C2
330
2C1
100
AcDbEntity
  8
Ebene 1
 62
   179
420
  1709851
370
    18
100
AcDbVertex
100
AcDb2dVertex
 10
113.7742784003759
 20
-146.98482662341
 30
0.0
  0
VERTEX
  5
2C3
330
2C1
100
AcDbEntity
  8
Ebene 1
 62
   179
420
  1709851
370
    18
100
AcDbVertex
100
AcDb2dVertex
 10
119.1720540066653
 20
-143.8735608906809
 30
0.0
  0
VERTEX
  5
2C4
330
2C1
100
AcDbEntity
  8
Ebene 1
 62
   179
420
  1709851
370
    18
100
AcDbVertex
100
AcDb2dVertex
 10
117.4574299836565
 20
-142.8786173145408
 30
0.0
  0
SEQEND
  5
2C5
330
2C1
100
AcDbEntity
  8
Ebene 1
370
    18
  0
POLYLINE
  5
2C6
330
4A
100
AcDbEntity
  8
Ebene 1
 62
   179
420
  1709851
370
    18
100
AcDb2dPolyline
 66
     1
 10
0.0
 20
0.0
 30
0.0
  0
VERTEX
  5
2C7
330
2C6
100
AcDbEntity
  8
Ebene 1
 62
   179
420
  1709851
370
    18
100
AcDbVertex
100
AcDb2dVertex
 10
112.038639294907
 20
-145.9902275568184
 30
0.0
  0
VERTEX
  5
2C8
330
2C6
100
AcDbEntity
  8
Ebene 1
 62
   179
420
  1709851
370
    18
100
AcDbVertex
100
AcDb2dVertex
 10
117.4574299836565
 20
-142.8786173145408
 30
0.0
  0
SEQEND
  5
2C9
330
2C6
100
AcDbEntity
  8
Ebene 1
370
    18
  0
POLYLINE
  5
2CA
330
4A
100
AcDbEntity
  8
Ebene 1
 62
   179
420
  1709851
370
    18
100
AcDb2dPolyline
 66
     1
 10
0.0
 20
0.0
 30
0.0
  0
VERTEX
  5
2CB
330
2CA
100
AcDbEntity
  8
Ebene 1
 62
   179
420
  1709851
370
    18
100
AcDbVertex
100
AcDb2dVertex
 10
112.038639294907
 20
-145.9902275568184
 30
0.0
  0
VERTEX
  5
2CC
330
2CA
100
AcDbEntity
  8
Ebene 1
 62
   179
420
  1709851
370
    18
100
AcDbVertex
100
AcDb2dVertex
 10
113.7742784003759
 20
-146.98482662341
 30
0.0
  0
SEQEND
  5
2CD
330
2CA
100
AcDbEntity
  8
Ebene 1
370
    18
  0
POLYLINE
  5
2CE
330
4A
100
AcDbEntity
  8
Ebene 1
 62
   179
420
  1709851
370
    18
100
AcDb2dPolyline
 66
     1
 10
0.0
 20
0.0
 30
0.0
  0
VERTEX
  5
2CF
330
2CE
100
AcDbEntity
  8
Ebene 1
 62
   179
420
  1709851
370
    18
100
AcDbVertex
100
AcDb2dVertex
 10
111.1711642517211
 20
-140.4866875191318
 30
0.0
  0
VERTEX
  5
2D0
330
2CE
100
AcDbEntity
  8
Ebene 1
 62
   179
420
  1709851
370
    18
100
AcDbVertex
100
AcDb2dVertex
 10
111.1711642517211
 20
-133.7349893871392
 30
0.0
  0
SEQEND
  5
2D1
330
2CE
100
AcDbEntity
  8
Ebene 1
370
    18
  0
POLYLINE
  5
2D2
330
4A
100
AcDbEntity
  8
Ebene 1
 62
   179
420
  1709851
370
    18
100
AcDb2dPolyline
 66
     1
 10
0.0
 20
0.0
 30
0.0
  0
VERTEX
  5
2D3
330
2D2
100
AcDbEntity
  8
Ebene 1
 62
   179
420
  1709851
370
    18
100
AcDbVertex
100
AcDb2dVertex
 10
109.4351806367037
 20
-132.7397013014505
 30
0.0
  0
VERTEX
  5
2D4
330
2D2
100
AcDbEntity
  8
Ebene 1
 62
   179
420
  1709851
370
    18
100
AcDbVertex
100
AcDb2dVertex
 10
109.4351806367037
 20
-141.502646177732
 30
0.0
  0
SEQEND
  5
2D5
330
2D2
100
AcDbEntity
  8
Ebene 1
370
    18
  0
POLYLINE
  5
2D6
330
4A
100
AcDbEntity
  8
Ebene 1
 62
   179
420
  1709851
370
    18
100
AcDb2dPolyline
 66
     1
 10
0.0
 20
0.0
 30
0.0
  0
VERTEX
  5
2D7
330
2D6
100
AcDbEntity
  8
Ebene 1
 62
   179
420
  1709851
370
    18
100
AcDbVertex
100
AcDb2dVertex
 10
113.7742784003759
 20
-135.2373955282566
 30
0.0
  0
VERTEX
  5
2D8
330
2D6
100
AcDbEntity
  8
Ebene 1
 62
   179
420
  1709851
370
    18
100
AcDbVertex
100
AcDb2dVertex
 10
106.8317219785004
 20
-131.2369506507845
 30
0.0
  0
SEQEND
  5
2D9
330
2D6
100
AcDbEntity
  8
Ebene 1
370
    18
  0
POLYLINE
  5
2DA
330
4A
100
AcDbEntity
  8
Ebene 1
 62
   179
420
  1709851
370
    18
100
AcDb2dPolyline
 66
     1
 10
0.0
 20
0.0
 30
0.0
  0
VERTEX
  5
2DB
330
2DA
100
AcDbEntity
  8
Ebene 1
 62
   179
420
  1709851
370
    18
100
AcDbVertex
100
AcDb2dVertex
 10
113.7742784003759
 20
-135.2373955282566
 30
0.0
  0
VERTEX
  5
2DC
330
2DA
100
AcDbEntity
  8
Ebene 1
 62
   179
420
  1709851
370
    18
100
AcDbVertex
100
AcDb2dVertex
 10
120.484290876997
 20
-131.3640746741902
 30
0.0
  0
SEQEND
  5
2DD
330
2DA
100
AcDbEntity
  8
Ebene 1
370
    18
  0
POLYLINE
  5
2DE
330
4A
100
AcDbEntity
  8
Ebene 1
 62
   179
420
  1709851
370
    18
100
AcDb2dPolyline
 66
     1
 10
0.0
 20
0.0
 30
0.0
  0
VERTEX
  5
2DF
330
2DE
100
AcDbEntity
  8
Ebene 1
 62
   179
420
  1709851
370
    18
100
AcDbVertex
100
AcDb2dVertex
 10
116.5896104309221
 20
-137.3754217864027
 30
0.0
  0
VERTEX
  5
2E0
330
2DE
100
AcDbEntity
  8
Ebene 1
 62
   179
420
  1709851
370
    18
100
AcDbVertex
100
AcDb2dVertex
 10
116.5896104309221
 20
-133.6288804461935
 30
0.0
  0
SEQEND
  5
2E1
330
2DE
100
AcDbEntity
  8
Ebene 1
370
    18
  0
POLYLINE
  5
2E2
330
4A
100
AcDbEntity
  8
Ebene 1
 62
   179
420
  1709851
370
    18
100
AcDb2dPolyline
 66
     1
 10
0.0
 20
0.0
 30
0.0
  0
VERTEX
  5
2E3
330
2E2
100
AcDbEntity
  8
Ebene 1
 62
   179
420
  1709851
370
    18
100
AcDbVertex
100
AcDb2dVertex
 10
106.8317219785004
 20
-97.49740801599023
 30
0.0
  0
VERTEX
  5
2E4
330
2E2
100
AcDbEntity
  8
Ebene 1
 62
   179
420
  1709851
370
    18
100
AcDbVertex
100
AcDb2dVertex
 10
106.8317219785004
 20
-131.2369506507845
 30
0.0
  0
SEQEND
  5
2E5
330
2E2
100
AcDbEntity
  8
Ebene 1
370
    18
  0
POLYLINE
  5
2E6
330
4A
100
AcDbEntity
  8
Ebene 1
 62
   179
420
  1709851
370
    18
100
AcDb2dPolyline
 66
     1
 10
0.0
 20
0.0
 30
0.0
  0
VERTEX
  5
2E7
330
2E6
100
AcDbEntity
  8
Ebene 1
 62
   179
420
  1709851
370
    18
100
AcDbVertex
100
AcDb2dVertex
 10
120.484290876997
 20
-97.62418752984743
 30
0.0
  0
VERTEX
  5
2E8
330
2E6
100
AcDbEntity
  8
Ebene 1
 62
   179
420
  1709851
370
    18
100
AcDbVertex
100
AcDb2dVertex
 10
120.484290876997
 20
-131.3640746741902
 30
0.0
  0
SEQEND
  5
2E9
330
2E6
100
AcDbEntity
  8
Ebene 1
370
    18
  0
POLYLINE
  5
2EA
330
4A
100
AcDbEntity
  8
Ebene 1
 62
   179
420
  1709851
370
    18
100
AcDb2dPolyline
 66
     1
 10
0.0
 20
0.0
 30
0.0
  0
VERTEX
  5
2EB
330
2EA
100
AcDbEntity
  8
Ebene 1
 62
   179
420
  1709851
370
    18
100
AcDbVertex
100
AcDb2dVertex
 10
112.9061143380929
 20
-94.00477021304395
 30
0.0
  0
VERTEX
  5
2EC
330
2EA
100
AcDbEntity
  8
Ebene 1
 62
   179
420
  1709851
370
    18
100
AcDbVertex
100
AcDb2dVertex
 10
112.9061143380929
 20
-99.00015866665622
 30
0.0
  0
SEQEND
  5
2ED
330
2EA
100
AcDbEntity
  8
Ebene 1
370
    18
  0
POLYLINE
  5
2EE
330
4A
100
AcDbEntity
  8
Ebene 1
 62
   179
420
  1709851
370
    18
100
AcDb2dPolyline
 66
     1
 10
0.0
 20
0.0
 30
0.0
  0
VERTEX
  5
2EF
330
2EE
100
AcDbEntity
  8
Ebene 1
 62
   179
420
  1709851
370
    18
100
AcDbVertex
100
AcDb2dVertex
 10
117.4574299836565
 20
-96.6295884632558
 30
0.0
  0
VERTEX
  5
2F0
330
2EE
100
AcDbEntity
  8
Ebene 1
 62
   179
420
  1709851
370
    18
100
AcDbVertex
100
AcDb2dVertex
 10
117.4574299836565
 20
-98.6194756155361
 30
0.0
  0
SEQEND
  5
2F1
330
2EE
100
AcDbEntity
  8
Ebene 1
370
    18
  0
POLYLINE
  5
2F2
330
4A
100
AcDbEntity
  8
Ebene 1
 62
   179
420
  1709851
370
    18
100
AcDb2dPolyline
 66
     1
 10
0.0
 20
0.0
 30
0.0
  0
VERTEX
  5
2F3
330
2F2
100
AcDbEntity
  8
Ebene 1
 62
   179
420
  1709851
370
    18
100
AcDbVertex
100
AcDb2dVertex
 10
116.3567219761192
 20
-97.24315996917879
 30
0.0
  0
VERTEX
  5
2F4
330
2F2
100
AcDbEntity
  8
Ebene 1
 62
   179
420
  1709851
370
    18
100
AcDbVertex
100
AcDb2dVertex
 10
116.3567219761192
 20
-99.25406220391913
 30
0.0
  0
SEQEND
  5
2F5
330
2F2
100
AcDbEntity
  8
Ebene 1
370
    18
  0
POLYLINE
  5
2F6
330
4A
100
AcDbEntity
  8
Ebene 1
 62
   179
420
  1709851
370
    18
100
AcDb2dPolyline
 66
     1
 10
0.0
 20
0.0
 30
0.0
  0
VERTEX
  5
2F7
330
2F6
100
AcDbEntity
  8
Ebene 1
 62
   179
420
  1709851
370
    18
100
AcDbVertex
100
AcDb2dVertex
 10
115.5099175058448
 20
-96.756367977113
 30
0.0
  0
VERTEX
  5
2F8
330
2F6
100
AcDbEntity
  8
Ebene 1
 62
   179
420
  1709851
370
    18
100
AcDbVertex
100
AcDb2dVertex
 10
115.5099175058448
 20
-99.74085419598492
 30
0.0
  0
SEQEND
  5
2F9
330
2F6
100
AcDbEntity
  8
Ebene 1
370
    18
  0
POLYLINE
  5
2FA
330
4A
100
AcDbEntity
  8
Ebene 1
 62
   179
420
  1709851
370
    18
100
AcDb2dPolyline
 66
     1
 10
0.0
 20
0.0
 30
0.0
  0
VERTEX
  5
2FB
330
2FA
100
AcDbEntity
  8
Ebene 1
 62
   179
420
  1709851
370
    18
100
AcDbVertex
100
AcDb2dVertex
 10
114.8539713254532
 20
-95.1264933030413
 30
0.0
  0
VERTEX
  5
2FC
330
2FA
100
AcDbEntity
  8
Ebene 1
 62
   179
420
  1709851
370
    18
100
AcDbVertex
100
AcDb2dVertex
 10
114.8539713254532
 20
-100.1218817566536
 30
0.0
  0
SEQEND
  5
2FD
330
2FA
100
AcDbEntity
  8
Ebene 1
370
    18
  0
POLYLINE
  5
2FE
330
4A
100
AcDbEntity
  8
Ebene 1
 62
   179
420
  1709851
370
    18
100
AcDb2dPolyline
 66
     1
 10
0.0
 20
0.0
 30
0.0
  0
VERTEX
  5
2FF
330
2FE
100
AcDbEntity
  8
Ebene 1
 62
   179
420
  1709851
370
    18
100
AcDbVertex
100
AcDb2dVertex
 10
113.7742784003759
 20
-95.74040931851282
 30
0.0
  0
VERTEX
  5
300
330
2FE
100
AcDbEntity
  8
Ebene 1
 62
   179
420
  1709851
370
    18
100
AcDbVertex
100
AcDb2dVertex
 10
113.7742784003759
 20
-100.7568128545851
 30
0.0
  0
SEQEND
  5
301
330
2FE
100
AcDbEntity
  8
Ebene 1
370
    18
  0
POLYLINE
  5
302
330
4A
100
AcDbEntity
  8
Ebene 1
 62
   179
420
  1709851
370
    18
100
AcDb2dPolyline
 66
     1
 10
0.0
 20
0.0
 30
0.0
  0
VERTEX
  5
303
330
302
100
AcDbEntity
  8
Ebene 1
 62
   179
420
  1709851
370
    18
100
AcDbVertex
100
AcDb2dVertex
 10
113.1183322199843
 20
-95.38074134985274
 30
0.0
  0
VERTEX
  5
304
330
302
100
AcDbEntity
  8
Ebene 1
 62
   179
420
  1709851
370
    18
100
AcDbVertex
100
AcDb2dVertex
 10
113.1183322199843
 20
-99.1269381805134
 30
0.0
  0
SEQEND
  5
305
330
302
100
AcDbEntity
  8
Ebene 1
370
    18
  0
POLYLINE
  5
306
330
4A
100
AcDbEntity
  8
Ebene 1
 62
   179
420
  1709851
370
    18
100
AcDb2dPolyline
 66
     1
 10
0.0
 20
0.0
 30
0.0
  0
VERTEX
  5
307
330
306
100
AcDbEntity
  8
Ebene 1
 62
   179
420
  1709851
370
    18
100
AcDbVertex
100
AcDb2dVertex
 10
120.484290876997
 20
-97.62418752984743
 30
0.0
  0
VERTEX
  5
308
330
306
100
AcDbEntity
  8
Ebene 1
 62
   179
420
  1709851
370
    18
100
AcDbVertex
100
AcDb2dVertex
 10
113.541389945573
 20
-93.62374265237531
 30
0.0
  0
VERTEX
  5
309
330
306
100
AcDbEntity
  8
Ebene 1
 62
   179
420
  1709851
370
    18
100
AcDbVertex
100
AcDb2dVertex
 10
112.9061143380929
 20
-94.00477021304395
 30
0.0
  0
VERTEX
  5
30A
330
306
100
AcDbEntity
  8
Ebene 1
 62
   179
420
  1709851
370
    18
100
AcDbVertex
100
AcDb2dVertex
 10
114.1976806355131
 20
-94.74546574237266
 30
0.0
  0
VERTEX
  5
30B
330
306
100
AcDbEntity
  8
Ebene 1
 62
   179
420
  1709851
370
    18
100
AcDbVertex
100
AcDb2dVertex
 10
113.1183322199843
 20
-95.38074134985274
 30
0.0
  0
VERTEX
  5
30C
330
306
100
AcDbEntity
  8
Ebene 1
 62
   179
420
  1709851
370
    18
100
AcDbVertex
100
AcDb2dVertex
 10
113.7742784003759
 20
-95.74040931851282
 30
0.0
  0
VERTEX
  5
30D
330
306
100
AcDbEntity
  8
Ebene 1
 62
   179
420
  1709851
370
    18
100
AcDbVertex
100
AcDb2dVertex
 10
114.8539713254532
 20
-95.1264933030413
 30
0.0
  0
VERTEX
  5
30E
330
306
100
AcDbEntity
  8
Ebene 1
 62
   179
420
  1709851
370
    18
100
AcDbVertex
100
AcDb2dVertex
 10
116.5896104309221
 20
-96.12143687918145
 30
0.0
  0
VERTEX
  5
30F
330
306
100
AcDbEntity
  8
Ebene 1
 62
   179
420
  1709851
370
    18
100
AcDbVertex
100
AcDb2dVertex
 10
115.5099175058448
 20
-96.756367977113
 30
0.0
  0
VERTEX
  5
310
330
306
100
AcDbEntity
  8
Ebene 1
 62
   179
420
  1709851
370
    18
100
AcDbVertex
100
AcDb2dVertex
 10
116.3567219761192
 20
-97.24315996917879
 30
0.0
  0
VERTEX
  5
311
330
306
100
AcDbEntity
  8
Ebene 1
 62
   179
420
  1709851
370
    18
100
AcDbVertex
100
AcDb2dVertex
 10
117.4574299836565
 20
-96.6295884632558
 30
0.0
  0
VERTEX
  5
312
330
306
100
AcDbEntity
  8
Ebene 1
 62
   179
420
  1709851
370
    18
100
AcDbVertex
100
AcDb2dVertex
 10
119.1720540066653
 20
-97.62418752984743
 30
0.0
  0
SEQEND
  5
313
330
306
100
AcDbEntity
  8
Ebene 1
370
    18
  0
POLYLINE
  5
314
330
4A
100
AcDbEntity
  8
Ebene 1
 62
   179
420
  1709851
370
    18
100
AcDb2dPolyline
 66
     1
 10
0.0
 20
0.0
 30
0.0
  0
VERTEX
  5
315
330
314
100
AcDbEntity
  8
Ebene 1
 62
   179
420
  1709851
370
    18
100
AcDbVertex
100
AcDb2dVertex
 10
113.1183322199843
 20
-99.1269381805134
 30
0.0
  0
VERTEX
  5
316
330
314
100
AcDbEntity
  8
Ebene 1
 62
   179
420
  1709851
370
    18
100
AcDbVertex
100
AcDb2dVertex
 10
113.1183322199843
 20
-100.3757852939165
 30
0.0
  0
SEQEND
  5
317
330
314
100
AcDbEntity
  8
Ebene 1
370
    18
  0
POLYLINE
  5
318
330
4A
100
AcDbEntity
  8
Ebene 1
 62
   179
420
  1709851
370
    18
100
AcDb2dPolyline
 66
     1
 10
0.0
 20
0.0
 30
0.0
  0
VERTEX
  5
319
330
318
100
AcDbEntity
  8
Ebene 1
 62
   179
420
  1709851
370
    18
100
AcDbVertex
100
AcDb2dVertex
 10
106.8317219785004
 20
-97.49740801599023
 30
0.0
  0
VERTEX
  5
31A
330
318
100
AcDbEntity
  8
Ebene 1
 62
   179
420
  1709851
370
    18
100
AcDbVertex
100
AcDb2dVertex
 10
107.4880126684405
 20
-97.1163804553216
 30
0.0
  0
VERTEX
  5
31B
330
318
100
AcDbEntity
  8
Ebene 1
 62
   179
420
  1709851
370
    18
100
AcDbVertex
100
AcDb2dVertex
 10
108.7788899467636
 20
-97.87843557665887
 30
0.0
  0
SEQEND
  5
31C
330
318
100
AcDbEntity
  8
Ebene 1
370
    18
  0
POLYLINE
  5
31D
330
4A
100
AcDbEntity
  8
Ebene 1
 62
   179
420
  1709851
370
    18
100
AcDb2dPolyline
 66
     1
 10
0.0
 20
0.0
 30
0.0
  0
VERTEX
  5
31E
330
31D
100
AcDbEntity
  8
Ebene 1
 62
   179
420
  1709851
370
    18
100
AcDbVertex
100
AcDb2dVertex
 10
110.5145290522325
 20
-97.62418752984743
 30
0.0
  0
VERTEX
  5
31F
330
31D
100
AcDbEntity
  8
Ebene 1
 62
   179
420
  1709851
370
    18
100
AcDbVertex
100
AcDb2dVertex
 10
110.5145290522325
 20
-98.87303464325049
 30
0.0
  0
SEQEND
  5
320
330
31D
100
AcDbEntity
  8
Ebene 1
370
    18
  0
POLYLINE
  5
321
330
4A
100
AcDbEntity
  8
Ebene 1
 62
   179
420
  1709851
370
    18
100
AcDb2dPolyline
 66
     1
 10
0.0
 20
0.0
 30
0.0
  0
VERTEX
  5
322
330
321
100
AcDbEntity
  8
Ebene 1
 62
   179
420
  1709851
370
    18
100
AcDbVertex
100
AcDb2dVertex
 10
113.7742784003759
 20
-101.4978528934624
 30
0.0
  0
VERTEX
  5
323
330
321
100
AcDbEntity
  8
Ebene 1
 62
   179
420
  1709851
370
    18
100
AcDbVertex
100
AcDb2dVertex
 10
106.8317219785004
 20
-97.49740801599023
 30
0.0
  0
SEQEND
  5
324
330
321
100
AcDbEntity
  8
Ebene 1
370
    18
  0
POLYLINE
  5
325
330
4A
100
AcDbEntity
  8
Ebene 1
 62
   179
420
  1709851
370
    18
100
AcDb2dPolyline
 66
     1
 10
0.0
 20
0.0
 30
0.0
  0
VERTEX
  5
326
330
325
100
AcDbEntity
  8
Ebene 1
 62
   179
420
  1709851
370
    18
100
AcDbVertex
100
AcDb2dVertex
 10
113.7742784003759
 20
-100.7568128545851
 30
0.0
  0
VERTEX
  5
327
330
325
100
AcDbEntity
  8
Ebene 1
 62
   179
420
  1709851
370
    18
100
AcDbVertex
100
AcDb2dVertex
 10
112.038639294907
 20
-99.74085419598492
 30
0.0
  0
VERTEX
  5
328
330
325
100
AcDbEntity
  8
Ebene 1
 62
   179
420
  1709851
370
    18
100
AcDbVertex
100
AcDb2dVertex
 10
113.1183322199843
 20
-99.1269381805134
 30
0.0
  0
VERTEX
  5
329
330
325
100
AcDbEntity
  8
Ebene 1
 62
   179
420
  1709851
370
    18
100
AcDbVertex
100
AcDb2dVertex
 10
112.2505126672499
 20
-98.61913110598758
 30
0.0
  0
VERTEX
  5
32A
330
325
100
AcDbEntity
  8
Ebene 1
 62
   179
420
  1709851
370
    18
100
AcDbVertex
100
AcDb2dVertex
 10
111.1711642517211
 20
-99.25406220391913
 30
0.0
  0
VERTEX
  5
32B
330
325
100
AcDbEntity
  8
Ebene 1
 62
   179
420
  1709851
370
    18
100
AcDbVertex
100
AcDb2dVertex
 10
109.4351806367037
 20
-98.23810354531895
 30
0.0
  0
VERTEX
  5
32C
330
325
100
AcDbEntity
  8
Ebene 1
 62
   179
420
  1709851
370
    18
100
AcDbVertex
100
AcDb2dVertex
 10
110.5145290522325
 20
-97.62418752984743
 30
0.0
  0
VERTEX
  5
32D
330
325
100
AcDbEntity
  8
Ebene 1
 62
   179
420
  1709851
370
    18
100
AcDbVertex
100
AcDb2dVertex
 10
109.8792534447524
 20
-97.24315996917879
 30
0.0
  0
VERTEX
  5
32E
330
325
100
AcDbEntity
  8
Ebene 1
 62
   179
420
  1709851
370
    18
100
AcDbVertex
100
AcDb2dVertex
 10
108.7788899467636
 20
-97.87843557665887
 30
0.0
  0
SEQEND
  5
32F
330
325
100
AcDbEntity
  8
Ebene 1
370
    18
  0
POLYLINE
  5
330
330
4A
100
AcDbEntity
  8
Ebene 1
 62
   179
420
  1709851
370
    18
100
AcDb2dPolyline
 66
     1
 10
0.0
 20
0.0
 30
0.0
  0
VERTEX
  5
331
330
330
100
AcDbEntity
  8
Ebene 1
 62
   179
420
  1709851
370
    18
100
AcDbVertex
100
AcDb2dVertex
 10
113.7742784003759
 20
-101.4978528934624
 30
0.0
  0
VERTEX
  5
332
330
330
100
AcDbEntity
  8
Ebene 1
 62
   179
420
  1709851
370
    18
100
AcDbVertex
100
AcDb2dVertex
 10
120.484290876997
 20
-97.62418752984743
 30
0.0
  0
SEQEND
  5
333
330
330
100
AcDbEntity
  8
Ebene 1
370
    18
  0
POLYLINE
  5
334
330
4A
100
AcDbEntity
  8
Ebene 1
 62
   179
420
  1709851
370
    18
100
AcDb2dPolyline
 66
     1
 10
0.0
 20
0.0
 30
0.0
  0
VERTEX
  5
335
330
334
100
AcDbEntity
  8
Ebene 1
 62
   179
420
  1709851
370
    18
100
AcDbVertex
100
AcDb2dVertex
 10
113.7742784003759
 20
-100.7568128545851
 30
0.0
  0
VERTEX
  5
336
330
334
100
AcDbEntity
  8
Ebene 1
 62
   179
420
  1709851
370
    18
100
AcDbVertex
100
AcDb2dVertex
 10
119.1720540066653
 20
-97.62418752984743
 30
0.0
  0
SEQEND
  5
337
330
334
100
AcDbEntity
  8
Ebene 1
370
    18
  0
POLYLINE
  5
338
330
4A
100
AcDbEntity
  8
Ebene 1
 62
   179
420
  1709851
370
    18
100
AcDb2dPolyline
 66
     1
 10
0.0
 20
0.0
 30
0.0
  0
VERTEX
  5
339
330
338
100
AcDbEntity
  8
Ebene 1
 62
   179
420
  1709851
370
    18
100
AcDbVertex
100
AcDb2dVertex
 10
65.49333223189056
 20
-169.8659450530196
 30
0.0
  0
VERTEX
  5
33A
330
338
100
AcDbEntity
  8
Ebene 1
 62
   179
420
  1709851
370
    18
100
AcDbVertex
100
AcDb2dVertex
 10
68.30849200766247
 20
-168.2364148884965
 30
0.0
  0
SEQEND
  5
33B
330
338
100
AcDbEntity
  8
Ebene 1
370
    18
  0
POLYLINE
  5
33C
330
4A
100
AcDbEntity
  8
Ebene 1
 62
   179
420
  1709851
370
    18
100
AcDb2dPolyline
 66
     1
 10
0.0
 20
0.0
 30
0.0
  0
VERTEX
  5
33D
330
33C
100
AcDbEntity
  8
Ebene 1
 62
   179
420
  1709851
370
    18
100
AcDbVertex
100
AcDb2dVertex
 10
63.75752087164743
 20
-179.8567219602442
 30
0.0
  0
VERTEX
  5
33E
330
33C
100
AcDbEntity
  8
Ebene 1
 62
   179
420
  1709851
370
    18
100
AcDbVertex
100
AcDb2dVertex
 10
106.8317219785004
 20
-154.9858886331285
 30
0.0
  0
SEQEND
  5
33F
330
33C
100
AcDbEntity
  8
Ebene 1
370
    18
  0
POLYLINE
  5
340
330
4A
100
AcDbEntity
  8
Ebene 1
 62
   179
420
  1709851
370
    18
100
AcDb2dPolyline
 66
     1
 10
0.0
 20
0.0
 30
0.0
  0
VERTEX
  5
341
330
340
100
AcDbEntity
  8
Ebene 1
 62
   179
420
  1709851
370
    18
100
AcDbVertex
100
AcDb2dVertex
 10
63.96922198921603
 20
-164.4895290387387
 30
0.0
  0
VERTEX
  5
342
330
340
100
AcDbEntity
  8
Ebene 1
 62
   179
420
  1709851
370
    18
100
AcDbVertex
100
AcDb2dVertex
 10
65.04874265951906
 20
-163.8756130232672
 30
0.0
  0
SEQEND
  5
343
330
340
100
AcDbEntity
  8
Ebene 1
370
    18
  0
POLYLINE
  5
344
330
4A
100
AcDbEntity
  8
Ebene 1
 62
   179
420
  1709851
370
    18
100
AcDb2dPolyline
 66
     1
 10
0.0
 20
0.0
 30
0.0
  0
VERTEX
  5
345
330
344
100
AcDbEntity
  8
Ebene 1
 62
   179
420
  1709851
370
    18
100
AcDbVertex
100
AcDb2dVertex
 10
63.96922198921603
 20
-171.7497232643542
 30
0.0
  0
VERTEX
  5
346
330
344
100
AcDbEntity
  8
Ebene 1
 62
   179
420
  1709851
370
    18
100
AcDbVertex
100
AcDb2dVertex
 10
65.9165622122535
 20
-170.6066405823483
 30
0.0
  0
SEQEND
  5
347
330
344
100
AcDbEntity
  8
Ebene 1
370
    18
  0
POLYLINE
  5
348
330
4A
100
AcDbEntity
  8
Ebene 1
 62
   179
420
  1709851
370
    18
100
AcDb2dPolyline
 66
     1
 10
0.0
 20
0.0
 30
0.0
  0
VERTEX
  5
349
330
348
100
AcDbEntity
  8
Ebene 1
 62
   179
420
  1709851
370
    18
100
AcDbVertex
100
AcDb2dVertex
 10
63.33429089128449
 20
-171.3686957036856
 30
0.0
  0
VERTEX
  5
34A
330
348
100
AcDbEntity
  8
Ebene 1
 62
   179
420
  1709851
370
    18
100
AcDbVertex
100
AcDb2dVertex
 10
65.28163111432195
 20
-170.2469726136883
 30
0.0
  0
SEQEND
  5
34B
330
348
100
AcDbEntity
  8
Ebene 1
370
    18
  0
POLYLINE
  5
34C
330
4A
100
AcDbEntity
  8
Ebene 1
 62
   179
420
  1709851
370
    18
100
AcDb2dPolyline
 66
     1
 10
0.0
 20
0.0
 30
0.0
  0
VERTEX
  5
34D
330
34C
100
AcDbEntity
  8
Ebene 1
 62
   179
420
  1709851
370
    18
100
AcDbVertex
100
AcDb2dVertex
 10
68.73172198802541
 20
-176.4915526902521
 30
0.0
  0
VERTEX
  5
34E
330
34C
100
AcDbEntity
  8
Ebene 1
 62
   179
420
  1709851
370
    18
100
AcDbVertex
100
AcDb2dVertex
 10
112.038639294907
 20
-151.4932508301823
 30
0.0
  0
SEQEND
  5
34F
330
34C
100
AcDbEntity
  8
Ebene 1
370
    18
  0
POLYLINE
  5
350
330
4A
100
AcDbEntity
  8
Ebene 1
 62
   179
420
  1709851
370
    18
100
AcDb2dPolyline
 66
     1
 10
0.0
 20
0.0
 30
0.0
  0
VERTEX
  5
351
330
350
100
AcDbEntity
  8
Ebene 1
 62
   179
420
  1709851
370
    18
100
AcDbVertex
100
AcDb2dVertex
 10
65.7048610946849
 20
-165.4844726148789
 30
0.0
  0
VERTEX
  5
352
330
350
100
AcDbEntity
  8
Ebene 1
 62
   179
420
  1709851
370
    18
100
AcDbVertex
100
AcDb2dVertex
 10
109.4351806367037
 20
-140.2537990643289
 30
0.0
  0
SEQEND
  5
353
330
350
100
AcDbEntity
  8
Ebene 1
370
    18
  0
POLYLINE
  5
354
330
4A
100
AcDbEntity
  8
Ebene 1
 62
   179
420
  1709851
370
    18
100
AcDb2dPolyline
 66
     1
 10
0.0
 20
0.0
 30
0.0
  0
VERTEX
  5
355
330
354
100
AcDbEntity
  8
Ebene 1
 62
   179
420
  1709851
370
    18
100
AcDbVertex
100
AcDb2dVertex
 10
65.49333223189056
 20
-163.3678059487414
 30
0.0
  0
VERTEX
  5
356
330
354
100
AcDbEntity
  8
Ebene 1
 62
   179
420
  1709851
370
    18
100
AcDbVertex
100
AcDb2dVertex
 10
109.4351806367037
 20
-137.9889932923257
 30
0.0
  0
SEQEND
  5
357
330
354
100
AcDbEntity
  8
Ebene 1
370
    18
  0
POLYLINE
  5
358
330
4A
100
AcDbEntity
  8
Ebene 1
 62
   179
420
  1709851
370
    18
100
AcDb2dPolyline
 66
     1
 10
0.0
 20
0.0
 30
0.0
  0
VERTEX
  5
359
330
358
100
AcDbEntity
  8
Ebene 1
 62
   179
420
  1709851
370
    18
100
AcDbVertex
100
AcDb2dVertex
 10
63.75752087164743
 20
-162.3728623726012
 30
0.0
  0
VERTEX
  5
35A
330
358
100
AcDbEntity
  8
Ebene 1
 62
   179
420
  1709851
370
    18
100
AcDbVertex
100
AcDb2dVertex
 10
109.4351806367037
 20
-135.9994506495939
 30
0.0
  0
SEQEND
  5
35B
330
358
100
AcDbEntity
  8
Ebene 1
370
    18
  0
POLYLINE
  5
35C
330
4A
100
AcDbEntity
  8
Ebene 1
 62
   179
420
  1709851
370
    18
100
AcDb2dPolyline
 66
     1
 10
0.0
 20
0.0
 30
0.0
  0
VERTEX
  5
35D
330
35C
100
AcDbEntity
  8
Ebene 1
 62
   179
420
  1709851
370
    18
100
AcDbVertex
100
AcDb2dVertex
 10
63.75752087164743
 20
-156.3618597699373
 30
0.0
  0
VERTEX
  5
35E
330
35C
100
AcDbEntity
  8
Ebene 1
 62
   179
420
  1709851
370
    18
100
AcDbVertex
100
AcDb2dVertex
 10
107.0646104333033
 20
-131.3640746741902
 30
0.0
  0
SEQEND
  5
35F
330
35C
100
AcDbEntity
  8
Ebene 1
370
    18
  0
POLYLINE
  5
360
330
4A
100
AcDbEntity
  8
Ebene 1
 62
   179
420
  1709851
370
    18
100
AcDb2dPolyline
 66
     1
 10
0.0
 20
0.0
 30
0.0
  0
VERTEX
  5
361
330
360
100
AcDbEntity
  8
Ebene 1
 62
   179
420
  1709851
370
    18
100
AcDbVertex
100
AcDb2dVertex
 10
63.33429089128449
 20
-156.1076117231259
 30
0.0
  0
VERTEX
  5
362
330
360
100
AcDbEntity
  8
Ebene 1
 62
   179
420
  1709851
370
    18
100
AcDbVertex
100
AcDb2dVertex
 10
106.8317219785004
 20
-131.0040621959816
 30
0.0
  0
SEQEND
  5
363
330
360
100
AcDbEntity
  8
Ebene 1
370
    18
  0
POLYLINE
  5
364
330
4A
100
AcDbEntity
  8
Ebene 1
 62
   179
420
  1709851
370
    18
100
AcDb2dPolyline
 66
     1
 10
0.0
 20
0.0
 30
0.0
  0
VERTEX
  5
365
330
364
100
AcDbEntity
  8
Ebene 1
 62
   179
420
  1709851
370
    18
100
AcDbVertex
100
AcDb2dVertex
 10
65.49333223189056
 20
-165.3576931010217
 30
0.0
  0
VERTEX
  5
366
330
364
100
AcDbEntity
  8
Ebene 1
 62
   179
420
  1709851
370
    18
100
AcDbVertex
100
AcDb2dVertex
 10
65.7048610946849
 20
-165.4844726148789
 30
0.0
  0
VERTEX
  5
367
330
364
100
AcDbEntity
  8
Ebene 1
 62
   179
420
  1709851
370
    18
100
AcDbVertex
100
AcDb2dVertex
 10
65.49333223189056
 20
-163.3678059487414
 30
0.0
  0
SEQEND
  5
368
330
364
100
AcDbEntity
  8
Ebene 1
370
    18
  0
POLYLINE
  5
369
330
4A
100
AcDbEntity
  8
Ebene 1
 62
   179
420
  1709851
370
    18
100
AcDb2dPolyline
 66
     1
 10
0.0
 20
0.0
 30
0.0
  0
VERTEX
  5
36A
330
369
100
AcDbEntity
  8
Ebene 1
 62
   179
420
  1709851
370
    18
100
AcDbVertex
100
AcDb2dVertex
 10
68.73172198802541
 20
-165.251584160076
 30
0.0
  0
VERTEX
  5
36B
330
369
100
AcDbEntity
  8
Ebene 1
 62
   179
420
  1709851
370
    18
100
AcDbVertex
100
AcDb2dVertex
 10
68.09679089009386
 20
-166.8604437516877
 30
0.0
  0
SEQEND
  5
36C
330
369
100
AcDbEntity
  8
Ebene 1
370
    18
  0
POLYLINE
  5
36D
330
4A
100
AcDbEntity
  8
Ebene 1
 62
   179
420
  1709851
370
    18
100
AcDb2dPolyline
 66
     1
 10
0.0
 20
0.0
 30
0.0
  0
VERTEX
  5
36E
330
36D
100
AcDbEntity
  8
Ebene 1
 62
   179
420
  1709851
370
    18
100
AcDbVertex
100
AcDb2dVertex
 10
68.30849200766247
 20
-166.9872232655449
 30
0.0
  0
VERTEX
  5
36F
330
36D
100
AcDbEntity
  8
Ebene 1
 62
   179
420
  1709851
370
    18
100
AcDbVertex
100
AcDb2dVertex
 10
68.09679089009386
 20
-166.8604437516877
 30
0.0
  0
SEQEND
  5
370
330
36D
100
AcDbEntity
  8
Ebene 1
370
    18
  0
POLYLINE
  5
371
330
4A
100
AcDbEntity
  8
Ebene 1
 62
   179
420
  1709851
370
    18
100
AcDb2dPolyline
 66
     1
 10
0.0
 20
0.0
 30
0.0
  0
VERTEX
  5
372
330
371
100
AcDbEntity
  8
Ebene 1
 62
   179
420
  1709851
370
    18
100
AcDbVertex
100
AcDb2dVertex
 10
63.33429089128449
 20
-156.1076117231259
 30
0.0
  0
VERTEX
  5
373
330
371
100
AcDbEntity
  8
Ebene 1
 62
   179
420
  1709851
370
    18
100
AcDbVertex
100
AcDb2dVertex
 10
63.75752087164743
 20
-156.3618597699373
 30
0.0
  0
VERTEX
  5
374
330
371
100
AcDbEntity
  8
Ebene 1
 62
   179
420
  1709851
370
    18
100
AcDbVertex
100
AcDb2dVertex
 10
63.75752087164743
 20
-162.3728623726012
 30
0.0
  0
SEQEND
  5
375
330
371
100
AcDbEntity
  8
Ebene 1
370
    18
  0
POLYLINE
  5
376
330
4A
100
AcDbEntity
  8
Ebene 1
 62
   179
420
  1709851
370
    18
100
AcDb2dPolyline
 66
     1
 10
0.0
 20
0.0
 30
0.0
  0
VERTEX
  5
377
330
376
100
AcDbEntity
  8
Ebene 1
 62
   179
420
  1709851
370
    18
100
AcDbVertex
100
AcDb2dVertex
 10
65.49333223189056
 20
-163.3678059487414
 30
0.0
  0
VERTEX
  5
378
330
376
100
AcDbEntity
  8
Ebene 1
 62
   179
420
  1709851
370
    18
100
AcDbVertex
100
AcDb2dVertex
 10
63.75752087164743
 20
-162.3728623726012
 30
0.0
  0
SEQEND
  5
379
330
376
100
AcDbEntity
  8
Ebene 1
370
    18
  0
POLYLINE
  5
37A
330
4A
100
AcDbEntity
  8
Ebene 1
 62
   179
420
  1709851
370
    18
100
AcDb2dPolyline
 66
     1
 10
0.0
 20
0.0
 30
0.0
  0
VERTEX
  5
37B
330
37A
100
AcDbEntity
  8
Ebene 1
 62
   179
420
  1709851
370
    18
100
AcDbVertex
100
AcDb2dVertex
 10
68.30849200766247
 20
-166.9872232655449
 30
0.0
  0
VERTEX
  5
37C
330
37A
100
AcDbEntity
  8
Ebene 1
 62
   179
420
  1709851
370
    18
100
AcDbVertex
100
AcDb2dVertex
 10
68.30849200766247
 20
-171.4961642366399
 30
0.0
  0
VERTEX
  5
37D
330
37A
100
AcDbEntity
  8
Ebene 1
 62
   179
420
  1709851
370
    18
100
AcDbVertex
100
AcDb2dVertex
 10
65.49333223189056
 20
-169.8659450530196
 30
0.0
  0
VERTEX
  5
37E
330
37A
100
AcDbEntity
  8
Ebene 1
 62
   179
420
  1709851
370
    18
100
AcDbVertex
100
AcDb2dVertex
 10
65.49333223189056
 20
-165.3576931010217
 30
0.0
  0
SEQEND
  5
37F
330
37A
100
AcDbEntity
  8
Ebene 1
370
    18
  0
POLYLINE
  5
380
330
4A
100
AcDbEntity
  8
Ebene 1
 62
   179
420
  1709851
370
    18
100
AcDb2dPolyline
 66
     1
 10
0.0
 20
0.0
 30
0.0
  0
VERTEX
  5
381
330
380
100
AcDbEntity
  8
Ebene 1
 62
   179
420
  1709851
370
    18
100
AcDbVertex
100
AcDb2dVertex
 10
63.33429089128449
 20
-156.1076117231259
 30
0.0
  0
VERTEX
  5
382
330
380
100
AcDbEntity
  8
Ebene 1
 62
   179
420
  1709851
370
    18
100
AcDbVertex
100
AcDb2dVertex
 10
63.33429089128449
 20
-164.1085014780701
 30
0.0
  0
VERTEX
  5
383
330
380
100
AcDbEntity
  8
Ebene 1
 62
   179
420
  1709851
370
    18
100
AcDbVertex
100
AcDb2dVertex
 10
63.96922198921603
 20
-164.4895290387387
 30
0.0
  0
VERTEX
  5
384
330
380
100
AcDbEntity
  8
Ebene 1
 62
   179
420
  1709851
370
    18
100
AcDbVertex
100
AcDb2dVertex
 10
63.96922198921603
 20
-162.9867783880728
 30
0.0
  0
VERTEX
  5
385
330
380
100
AcDbEntity
  8
Ebene 1
 62
   179
420
  1709851
370
    18
100
AcDbVertex
100
AcDb2dVertex
 10
65.04874265951906
 20
-163.6220539955528
 30
0.0
  0
VERTEX
  5
386
330
380
100
AcDbEntity
  8
Ebene 1
 62
   179
420
  1709851
370
    18
100
AcDbVertex
100
AcDb2dVertex
 10
65.04874265951906
 20
-170.1201930998311
 30
0.0
  0
VERTEX
  5
387
330
380
100
AcDbEntity
  8
Ebene 1
 62
   179
420
  1709851
370
    18
100
AcDbVertex
100
AcDb2dVertex
 10
68.30849200766247
 20
-171.9826117191571
 30
0.0
  0
VERTEX
  5
388
330
380
100
AcDbEntity
  8
Ebene 1
 62
   179
420
  1709851
370
    18
100
AcDbVertex
100
AcDb2dVertex
 10
68.30849200766247
 20
-175.7501681418264
 30
0.0
  0
VERTEX
  5
389
330
380
100
AcDbEntity
  8
Ebene 1
 62
   179
420
  1709851
370
    18
100
AcDbVertex
100
AcDb2dVertex
 10
63.96922198921603
 20
-173.2318033421087
 30
0.0
  0
VERTEX
  5
38A
330
380
100
AcDbEntity
  8
Ebene 1
 62
   179
420
  1709851
370
    18
100
AcDbVertex
100
AcDb2dVertex
 10
63.96922198921603
 20
-171.7497232643542
 30
0.0
  0
VERTEX
  5
38B
330
380
100
AcDbEntity
  8
Ebene 1
 62
   179
420
  1709851
370
    18
100
AcDbVertex
100
AcDb2dVertex
 10
63.33429089128449
 20
-171.3686957036856
 30
0.0
  0
VERTEX
  5
38C
330
380
100
AcDbEntity
  8
Ebene 1
 62
   179
420
  1709851
370
    18
100
AcDbVertex
100
AcDb2dVertex
 10
63.33429089128449
 20
-179.6238335054413
 30
0.0
  0
VERTEX
  5
38D
330
380
100
AcDbEntity
  8
Ebene 1
 62
   179
420
  1709851
370
    18
100
AcDbVertex
100
AcDb2dVertex
 10
63.75752087164743
 20
-179.8567219602442
 30
0.0
  0
VERTEX
  5
38E
330
380
100
AcDbEntity
  8
Ebene 1
 62
   179
420
  1709851
370
    18
100
AcDbVertex
100
AcDb2dVertex
 10
63.75752087164743
 20
-173.6128309027773
 30
0.0
  0
VERTEX
  5
38F
330
380
100
AcDbEntity
  8
Ebene 1
 62
   179
420
  1709851
370
    18
100
AcDbVertex
100
AcDb2dVertex
 10
68.73172198802541
 20
-176.4915526902521
 30
0.0
  0
VERTEX
  5
390
330
380
100
AcDbEntity
  8
Ebene 1
 62
   179
420
  1709851
370
    18
100
AcDbVertex
100
AcDb2dVertex
 10
68.73172198802541
 20
-165.251584160076
 30
0.0
  0
SEQEND
  5
391
330
380
100
AcDbEntity
  8
Ebene 1
370
    18
  0
POLYLINE
  5
392
330
4A
100
AcDbEntity
  8
Ebene 1
370
     0
100
AcDb2dPolyline
 66
     1
 10
0.0
 20
0.0
 30
0.0
  0
VERTEX
  5
393
330
392
100
AcDbEntity
  8
Ebene 1
370
     0
100
AcDbVertex
100
AcDb2dVertex
 10
54.32777776419584
 20
-201.0447482136277
 30
0.0
  0
VERTEX
  5
394
330
392
100
AcDbEntity
  8
Ebene 1
370
     0
100
AcDbVertex
100
AcDb2dVertex
 10
154.5835014804514
 20
-201.0447482136277
 30
0.0
  0
VERTEX
  5
395
330
392
100
AcDbEntity
  8
Ebene 1
370
     0
100
AcDbVertex
100
AcDb2dVertex
 10
154.5835014804514
 20
-90.7980753353734
 30
0.0
  0
VERTEX
  5
396
330
392
100
AcDbEntity
  8
Ebene 1
370
     0
100
AcDbVertex
100
AcDb2dVertex
 10
54.32777776419584
 20
-90.7980753353734
 30
0.0
  0
VERTEX
  5
397
330
392
100
AcDbEntity
  8
Ebene 1
370
     0
100
AcDbVertex
100
AcDb2dVertex
 10
54.32777776419584
 20
-201.0447482136277
 30
0.0
  0
SEQEND
  5
398
330
392
100
AcDbEntity
  8
Ebene 1
370
     0
  0
ENDBLK
  5
4D
330
4A
100
AcDbEntity
  8
0
100
AcDbBlockEnd
  0
BLOCK
  5
511
330
50F
100
AcDbEntity
  8
0
100
AcDbBlockBegin
  2
block 3
 70
     0
 71
     0
 10
0.0
 20
0.0
 30
0.0
  3
block 3
  1

  0
POLYLINE
  5
513
330
50F
100
AcDbEntity
  8
Ebene 1
 62
   179
420
  1709851
370
    18
100
AcDb2dPolyline
 66
     1
 10
0.0
 20
0.0
 30
0.0
  0
VERTEX
  5
514
330
513
100
AcDbEntity
  8
Ebene 1
 62
   179
420
  1709851
370
    18
100
AcDbVertex
100
AcDb2dVertex
 10
96.56585419677867
 20
-166.9665526926334
 30
0.0
  0
VERTEX
  5
515
330
513
100
AcDbEntity
  8
Ebene 1
 62
   179
420
  1709851
370
    18
100
AcDbVertex
100
AcDb2dVertex
 10
96.56585419677867
 20
-166.4160264340904
 30
0.0
  0
SEQEND
  5
516
330
513
100
AcDbEntity
  8
Ebene 1
370
    18
  0
POLYLINE
  5
517
330
50F
100
AcDbEntity
  8
Ebene 1
 62
   179
420
  1709851
370
    18
100
AcDb2dPolyline
 66
     1
 10
0.0
 20
0.0
 30
0.0
  0
VERTEX
  5
518
330
517
100
AcDbEntity
  8
Ebene 1
 62
   179
420
  1709851
370
    18
100
AcDbVertex
100
AcDb2dVertex
 10
96.56585419677867
 20
-169.9720539939653
 30
0.0
  0
VERTEX
  5
519
330
517
100
AcDbEntity
  8
Ebene 1
 62
   179
420
  1709851
370
    18
100
AcDbVertex
100
AcDb2dVertex
 10
96.56585419677867
 20
-167.9614962687735
 30
0.0
  0
SEQEND
  5
51A
330
517
100
AcDbEntity
  8
Ebene 1
370
    18
  0
POLYLINE
  5
51B
330
50F
100
AcDbEntity
  8
Ebene 1
 62
   179
420
  1709851
370
    18
100
AcDb2dPolyline
 66
     1
 10
0.0
 20
0.0
 30
0.0
  0
VERTEX
  5
51C
330
51B
100
AcDbEntity
  8
Ebene 1
 62
   179
420
  1709851
370
    18
100
AcDbVertex
100
AcDb2dVertex
 10
96.56585419677867
 20
-172.9561957032887
 30
0.0
  0
VERTEX
  5
51D
330
51B
100
AcDbEntity
  8
Ebene 1
 62
   179
420
  1709851
370
    18
100
AcDbVertex
100
AcDb2dVertex
 10
96.56585419677867
 20
-170.9669975701055
 30
0.0
  0
SEQEND
  5
51E
330
51B
100
AcDbEntity
  8
Ebene 1
370
    18
  0
POLYLINE
  5
51F
330
50F
100
AcDbEntity
  8
Ebene 1
 62
   179
420
  1709851
370
    18
100
AcDb2dPolyline
 66
     1
 10
0.0
 20
0.0
 30
0.0
  0
VERTEX
  5
520
330
51F
100
AcDbEntity
  8
Ebene 1
 62
   179
420
  1709851
370
    18
100
AcDbVertex
100
AcDb2dVertex
 10
96.56585419677867
 20
-175.9623860237178
 30
0.0
  0
VERTEX
  5
521
330
51F
100
AcDbEntity
  8
Ebene 1
 62
   179
420
  1709851
370
    18
100
AcDbVertex
100
AcDb2dVertex
 10
96.56585419677867
 20
-173.9724988714374
 30
0.0
  0
SEQEND
  5
522
330
51F
100
AcDbEntity
  8
Ebene 1
370
    18
  0
POLYLINE
  5
523
330
50F
100
AcDbEntity
  8
Ebene 1
 62
   179
420
  1709851
370
    18
100
AcDb2dPolyline
 66
     1
 10
0.0
 20
0.0
 30
0.0
  0
VERTEX
  5
524
330
523
100
AcDbEntity
  8
Ebene 1
 62
   179
420
  1709851
370
    18
100
AcDbVertex
100
AcDb2dVertex
 10
96.56585419677867
 20
-178.9678873250497
 30
0.0
  0
VERTEX
  5
525
330
523
100
AcDbEntity
  8
Ebene 1
 62
   179
420
  1709851
370
    18
100
AcDbVertex
100
AcDb2dVertex
 10
96.56585419677867
 20
-176.9573295998579
 30
0.0
  0
SEQEND
  5
526
330
523
100
AcDbEntity
  8
Ebene 1
370
    18
  0
POLYLINE
  5
527
330
50F
100
AcDbEntity
  8
Ebene 1
 62
   179
420
  1709851
370
    18
100
AcDb2dPolyline
 66
     1
 10
0.0
 20
0.0
 30
0.0
  0
VERTEX
  5
528
330
527
100
AcDbEntity
  8
Ebene 1
 62
   179
420
  1709851
370
    18
100
AcDbVertex
100
AcDb2dVertex
 10
96.56585419677867
 20
-181.9733886263816
 30
0.0
  0
VERTEX
  5
529
330
527
100
AcDbEntity
  8
Ebene 1
 62
   179
420
  1709851
370
    18
100
AcDbVertex
100
AcDb2dVertex
 10
96.56585419677867
 20
-179.9628309011898
 30
0.0
  0
SEQEND
  5
52A
330
527
100
AcDbEntity
  8
Ebene 1
370
    18
  0
POLYLINE
  5
52B
330
50F
100
AcDbEntity
  8
Ebene 1
 62
   179
420
  1709851
370
    18
100
AcDb2dPolyline
 66
     1
 10
0.0
 20
0.0
 30
0.0
  0
VERTEX
  5
52C
330
52B
100
AcDbEntity
  8
Ebene 1
 62
   179
420
  1709851
370
    18
100
AcDbVertex
100
AcDb2dVertex
 10
96.56585419677867
 20
-184.9582193548021
 30
0.0
  0
VERTEX
  5
52D
330
52B
100
AcDbEntity
  8
Ebene 1
 62
   179
420
  1709851
370
    18
100
AcDbVertex
100
AcDb2dVertex
 10
96.56585419677867
 20
-182.9683322025218
 30
0.0
  0
SEQEND
  5
52E
330
52B
100
AcDbEntity
  8
Ebene 1
370
    18
  0
POLYLINE
  5
52F
330
50F
100
AcDbEntity
  8
Ebene 1
 62
   179
420
  1709851
370
    18
100
AcDb2dPolyline
 66
     1
 10
0.0
 20
0.0
 30
0.0
  0
VERTEX
  5
530
330
52F
100
AcDbEntity
  8
Ebene 1
 62
   179
420
  1709851
370
    18
100
AcDbVertex
100
AcDb2dVertex
 10
96.56585419677867
 20
-187.9637206561341
 30
0.0
  0
VERTEX
  5
531
330
52F
100
AcDbEntity
  8
Ebene 1
 62
   179
420
  1709851
370
    18
100
AcDbVertex
100
AcDb2dVertex
 10
96.56585419677867
 20
-185.9531629309423
 30
0.0
  0
SEQEND
  5
532
330
52F
100
AcDbEntity
  8
Ebene 1
370
    18
  0
POLYLINE
  5
533
330
50F
100
AcDbEntity
  8
Ebene 1
 62
   179
420
  1709851
370
    18
100
AcDb2dPolyline
 66
     1
 10
0.0
 20
0.0
 30
0.0
  0
VERTEX
  5
534
330
533
100
AcDbEntity
  8
Ebene 1
 62
   179
420
  1709851
370
    18
100
AcDbVertex
100
AcDb2dVertex
 10
96.56585419677867
 20
-190.969221957466
 30
0.0
  0
VERTEX
  5
535
330
533
100
AcDbEntity
  8
Ebene 1
 62
   179
420
  1709851
370
    18
100
AcDbVertex
100
AcDb2dVertex
 10
96.56585419677867
 20
-188.9586642322742
 30
0.0
  0
SEQEND
  5
536
330
533
100
AcDbEntity
  8
Ebene 1
370
    18
  0
POLYLINE
  5
537
330
50F
100
AcDbEntity
  8
Ebene 1
 62
   179
420
  1709851
370
    18
100
AcDb2dPolyline
 66
     1
 10
0.0
 20
0.0
 30
0.0
  0
VERTEX
  5
538
330
537
100
AcDbEntity
  8
Ebene 1
 62
   179
420
  1709851
370
    18
100
AcDbVertex
100
AcDb2dVertex
 10
96.56585419677867
 20
-193.9540526858865
 30
0.0
  0
VERTEX
  5
539
330
537
100
AcDbEntity
  8
Ebene 1
 62
   179
420
  1709851
370
    18
100
AcDbVertex
100
AcDb2dVertex
 10
96.56585419677867
 20
-191.9641655336062
 30
0.0
  0
SEQEND
  5
53A
330
537
100
AcDbEntity
  8
Ebene 1
370
    18
  0
POLYLINE
  5
53B
330
50F
100
AcDbEntity
  8
Ebene 1
 62
   179
420
  1709851
370
    18
100
AcDb2dPolyline
 66
     1
 10
0.0
 20
0.0
 30
0.0
  0
VERTEX
  5
53C
330
53B
100
AcDbEntity
  8
Ebene 1
 62
   179
420
  1709851
370
    18
100
AcDbVertex
100
AcDb2dVertex
 10
96.56585419677867
 20
-196.9595539872184
 30
0.0
  0
VERTEX
  5
53D
330
53B
100
AcDbEntity
  8
Ebene 1
 62
   179
420
  1709851
370
    18
100
AcDbVertex
100
AcDb2dVertex
 10
96.56585419677867
 20
-194.9696668349382
 30
0.0
  0
SEQEND
  5
53E
330
53B
100
AcDbEntity
  8
Ebene 1
370
    18
  0
POLYLINE
  5
53F
330
50F
100
AcDbEntity
  8
Ebene 1
 62
   179
420
  1709851
370
    18
100
AcDb2dPolyline
 66
     1
 10
0.0
 20
0.0
 30
0.0
  0
VERTEX
  5
540
330
53F
100
AcDbEntity
  8
Ebene 1
 62
   179
420
  1709851
370
    18
100
AcDbVertex
100
AcDb2dVertex
 10
96.56585419677867
 20
-199.9650552885504
 30
0.0
  0
VERTEX
  5
541
330
53F
100
AcDbEntity
  8
Ebene 1
 62
   179
420
  1709851
370
    18
100
AcDbVertex
100
AcDb2dVertex
 10
96.56585419677867
 20
-197.9544975633586
 30
0.0
  0
SEQEND
  5
542
330
53F
100
AcDbEntity
  8
Ebene 1
370
    18
  0
POLYLINE
  5
543
330
50F
100
AcDbEntity
  8
Ebene 1
370
     0
100
AcDb2dPolyline
 66
     1
 10
0.0
 20
0.0
 30
0.0
  0
VERTEX
  5
544
330
543
100
AcDbEntity
  8
Ebene 1
370
     0
100
AcDbVertex
100
AcDb2dVertex
 10
54.32777776419584
 20
-201.0447482136277
 30
0.0
  0
VERTEX
  5
545
330
543
100
AcDbEntity
  8
Ebene 1
370
     0
100
AcDbVertex
100
AcDb2dVertex
 10
154.5835014804514
 20
-201.0447482136277
 30
0.0
  0
VERTEX
  5
546
330
543
100
AcDbEntity
  8
Ebene 1
370
     0
100
AcDbVertex
100
AcDb2dVertex
 10
154.5835014804514
 20
-90.7980753353734
 30
0.0
  0
VERTEX
  5
547
330
543
100
AcDbEntity
  8
Ebene 1
370
     0
100
AcDbVertex
100
AcDb2dVertex
 10
54.32777776419584
 20
-90.7980753353734
 30
0.0
  0
VERTEX
  5
548
330
543
100
AcDbEntity
  8
Ebene 1
370
     0
100
AcDbVertex
100
AcDb2dVertex
 10
54.32777776419584
 20
-201.0447482136277
 30
0.0
  0
SEQEND
  5
549
330
543
100
AcDbEntity
  8
Ebene 1
370
     0
  0
ENDBLK
  5
512
330
50F
100
AcDbEntity
  8
0
100
AcDbBlockEnd
  0
BLOCK
  5
779
330
777
100
AcDbEntity
  8
0
100
AcDbBlockBegin
  2
block 4
 70
     0
 71
     0
 10
0.0
 20
0.0
 30
0.0
  3
block 4
  1

  0
MTEXT
  5
77B
330
777
100
AcDbEntity
  8
Ebene 1
 62
   179
420
  1709851
100
AcDbMText
 10
72.37232664206317
 20
-130.0725083767701
 30
0.0
 40
3.323900430802021
 41
0.0
 71
     7
 72
     1
  1
\fArial|b0|i0|c0|p34;\W1.00063;5
 73
     1
 44
1.0
  0
POLYLINE
  5
77C
330
777
100
AcDbEntity
  8
Ebene 1
370
     0
100
AcDb2dPolyline
 66
     1
 10
0.0
 20
0.0
 30
0.0
  0
VERTEX
  5
77D
330
77C
100
AcDbEntity
  8
Ebene 1
370
     0
100
AcDbVertex
100
AcDb2dVertex
 10
54.32777776419584
 20
-201.0447482136277
 30
0.0
  0
VERTEX
  5
77E
330
77C
100
AcDbEntity
  8
Ebene 1
370
     0
100
AcDbVertex
100
AcDb2dVertex
 10
154.5835014804514
 20
-201.0447482136277
 30
0.0
  0
VERTEX
  5
77F
330
77C
100
AcDbEntity
  8
Ebene 1
370
     0
100
AcDbVertex
100
AcDb2dVertex
 10
154.5835014804514
 20
-90.7980753353734
 30
0.0
  0
VERTEX
  5
780
330
77C
100
AcDbEntity
  8
Ebene 1
370
     0
100
AcDbVertex
100
AcDb2dVertex
 10
54.32777776419584
 20
-90.7980753353734
 30
0.0
  0
VERTEX
  5
781
330
77C
100
AcDbEntity
  8
Ebene 1
370
     0
100
AcDbVertex
100
AcDb2dVertex
 10
54.32777776419584
 20
-201.0447482136277
 30
0.0
  0
SEQEND
  5
782
330
77C
100
AcDbEntity
  8
Ebene 1
370
     0
  0
ENDBLK
  5
77A
330
777
100
AcDbEntity
  8
0
100
AcDbBlockEnd
  0
BLOCK
  5
78D
330
78B
100
AcDbEntity
  8
0
100
AcDbBlockBegin
  2
block 5
 70
     0
 71
     0
 10
0.0
 20
0.0
 30
0.0
  3
block 5
  1

  0
POLYLINE
  5
78F
330
78B
100
AcDbEntity
  8
Ebene 1
 62
   179
420
  1709851
370
    18
100
AcDb2dPolyline
 66
     1
 10
0.0
 20
0.0
 30
0.0
  0
VERTEX
  5
790
330
78F
100
AcDbEntity
  8
Ebene 1
 62
   179
420
  1709851
370
    18
100
AcDbVertex
100
AcDb2dVertex
 10
82.3631035492877
 20
-175.9623860237178
 30
0.0
  0
VERTEX
  5
791
330
78F
100
AcDbEntity
  8
Ebene 1
 62
   179
420
  1709851
370
    18
100
AcDbVertex
100
AcDb2dVertex
 10
82.3631035492877
 20
-174.628445051829
 30
0.0
  0
SEQEND
  5
792
330
78F
100
AcDbEntity
  8
Ebene 1
370
    18
  0
POLYLINE
  5
793
330
78B
100
AcDbEntity
  8
Ebene 1
 62
   179
420
  1709851
370
    18
100
AcDb2dPolyline
 66
     1
 10
0.0
 20
0.0
 30
0.0
  0
VERTEX
  5
794
330
793
100
AcDbEntity
  8
Ebene 1
 62
   179
420
  1709851
370
    18
100
AcDbVertex
100
AcDb2dVertex
 10
82.3631035492877
 20
-178.9678873250497
 30
0.0
  0
VERTEX
  5
795
330
793
100
AcDbEntity
  8
Ebene 1
 62
   179
420
  1709851
370
    18
100
AcDbVertex
100
AcDb2dVertex
 10
82.3631035492877
 20
-176.9573295998579
 30
0.0
  0
SEQEND
  5
796
330
793
100
AcDbEntity
  8
Ebene 1
370
    18
  0
POLYLINE
  5
797
330
78B
100
AcDbEntity
  8
Ebene 1
 62
   179
420
  1709851
370
    18
100
AcDb2dPolyline
 66
     1
 10
0.0
 20
0.0
 30
0.0
  0
VERTEX
  5
798
330
797
100
AcDbEntity
  8
Ebene 1
 62
   179
420
  1709851
370
    18
100
AcDbVertex
100
AcDb2dVertex
 10
82.3631035492877
 20
-181.9733886263816
 30
0.0
  0
VERTEX
  5
799
330
797
100
AcDbEntity
  8
Ebene 1
 62
   179
420
  1709851
370
    18
100
AcDbVertex
100
AcDb2dVertex
 10
82.3631035492877
 20
-179.9628309011898
 30
0.0
  0
SEQEND
  5
79A
330
797
100
AcDbEntity
  8
Ebene 1
370
    18
  0
POLYLINE
  5
79B
330
78B
100
AcDbEntity
  8
Ebene 1
 62
   179
420
  1709851
370
    18
100
AcDb2dPolyline
 66
     1
 10
0.0
 20
0.0
 30
0.0
  0
VERTEX
  5
79C
330
79B
100
AcDbEntity
  8
Ebene 1
 62
   179
420
  1709851
370
    18
100
AcDbVertex
100
AcDb2dVertex
 10
82.3631035492877
 20
-184.9582193548021
 30
0.0
  0
VERTEX
  5
79D
330
79B
100
AcDbEntity
  8
Ebene 1
 62
   179
420
  1709851
370
    18
100
AcDbVertex
100
AcDb2dVertex
 10
82.3631035492877
 20
-182.9683322025218
 30
0.0
  0
SEQEND
  5
79E
330
79B
100
AcDbEntity
  8
Ebene 1
370
    18
  0
POLYLINE
  5
79F
330
78B
100
AcDbEntity
  8
Ebene 1
 62
   179
420
  1709851
370
    18
100
AcDb2dPolyline
 66
     1
 10
0.0
 20
0.0
 30
0.0
  0
VERTEX
  5
7A0
330
79F
100
AcDbEntity
  8
Ebene 1
 62
   179
420
  1709851
370
    18
100
AcDbVertex
100
AcDb2dVertex
 10
82.3631035492877
 20
-187.9637206561341
 30
0.0
  0
VERTEX
  5
7A1
330
79F
100
AcDbEntity
  8
Ebene 1
 62
   179
420
  1709851
370
    18
100
AcDbVertex
100
AcDb2dVertex
 10
82.3631035492877
 20
-185.9531629309423
 30
0.0
  0
SEQEND
  5
7A2
330
79F
100
AcDbEntity
  8
Ebene 1
370
    18
  0
POLYLINE
  5
7A3
330
78B
100
AcDbEntity
  8
Ebene 1
 62
   179
420
  1709851
370
    18
100
AcDb2dPolyline
 66
     1
 10
0.0
 20
0.0
 30
0.0
  0
VERTEX
  5
7A4
330
7A3
100
AcDbEntity
  8
Ebene 1
 62
   179
420
  1709851
370
    18
100
AcDbVertex
100
AcDb2dVertex
 10
82.3631035492877
 20
-190.969221957466
 30
0.0
  0
VERTEX
  5
7A5
330
7A3
100
AcDbEntity
  8
Ebene 1
 62
   179
420
  1709851
370
    18
100
AcDbVertex
100
AcDb2dVertex
 10
82.3631035492877
 20
-188.9586642322742
 30
0.0
  0
SEQEND
  5
7A6
330
7A3
100
AcDbEntity
  8
Ebene 1
370
    18
  0
POLYLINE
  5
7A7
330
78B
100
AcDbEntity
  8
Ebene 1
 62
   179
420
  1709851
370
    18
100
AcDb2dPolyline
 66
     1
 10
0.0
 20
0.0
 30
0.0
  0
VERTEX
  5
7A8
330
7A7
100
AcDbEntity
  8
Ebene 1
 62
   179
420
  1709851
370
    18
100
AcDbVertex
100
AcDb2dVertex
 10
82.3631035492877
 20
-193.9540526858865
 30
0.0
  0
VERTEX
  5
7A9
330
7A7
100
AcDbEntity
  8
Ebene 1
 62
   179
420
  1709851
370
    18
100
AcDbVertex
100
AcDb2dVertex
 10
82.3631035492877
 20
-191.9641655336062
 30
0.0
  0
SEQEND
  5
7AA
330
7A7
100
AcDbEntity
  8
Ebene 1
370
    18
  0
POLYLINE
  5
7AB
330
78B
100
AcDbEntity
  8
Ebene 1
 62
   179
420
  1709851
370
    18
100
AcDb2dPolyline
 66
     1
 10
0.0
 20
0.0
 30
0.0
  0
VERTEX
  5
7AC
330
7AB
100
AcDbEntity
  8
Ebene 1
 62
   179
420
  1709851
370
    18
100
AcDbVertex
100
AcDb2dVertex
 10
82.3631035492877
 20
-196.9595539872184
 30
0.0
  0
VERTEX
  5
7AD
330
7AB
100
AcDbEntity
  8
Ebene 1
 62
   179
420
  1709851
370
    18
100
AcDbVertex
100
AcDb2dVertex
 10
82.3631035492877
 20
-194.9696668349382
 30
0.0
  0
SEQEND
  5
7AE
330
7AB
100
AcDbEntity
  8
Ebene 1
370
    18
  0
POLYLINE
  5
7AF
330
78B
100
AcDbEntity
  8
Ebene 1
 62
   179
420
  1709851
370
    18
100
AcDb2dPolyline
 66
     1
 10
0.0
 20
0.0
 30
0.0
  0
VERTEX
  5
7B0
330
7AF
100
AcDbEntity
  8
Ebene 1
 62
   179
420
  1709851
370
    18
100
AcDbVertex
100
AcDb2dVertex
 10
82.3631035492877
 20
-199.9650552885504
 30
0.0
  0
VERTEX
  5
7B1
330
7AF
100
AcDbEntity
  8
Ebene 1
 62
   179
420
  1709851
370
    18
100
AcDbVertex
100
AcDb2dVertex
 10
82.3631035492877
 20
-197.9544975633586
 30
0.0
  0
SEQEND
  5
7B2
330
7AF
100
AcDbEntity
  8
Ebene 1
370
    18
  0
POLYLINE
  5
7B3
330
78B
100
AcDbEntity
  8
Ebene 1
 62
   179
420
  1709851
370
    18
100
AcDb2dPolyline
 66
     1
 10
0.0
 20
0.0
 30
0.0
  0
VERTEX
  5
7B4
330
7B3
100
AcDbEntity
  8
Ebene 1
 62
   179
420
  1709851
370
    18
100
AcDbVertex
100
AcDb2dVertex
 10
82.70175643548775
 20
-175.9623860237178
 30
0.0
  0
VERTEX
  5
7B5
330
7B3
100
AcDbEntity
  8
Ebene 1
 62
   179
420
  1709851
370
    18
100
AcDbVertex
100
AcDb2dVertex
 10
82.70175643548775
 20
-174.4169161890347
 30
0.0
  0
SEQEND
  5
7B6
330
7B3
100
AcDbEntity
  8
Ebene 1
370
    18
  0
POLYLINE
  5
7B7
330
78B
100
AcDbEntity
  8
Ebene 1
 62
   179
420
  1709851
370
    18
100
AcDb2dPolyline
 66
     1
 10
0.0
 20
0.0
 30
0.0
  0
VERTEX
  5
7B8
330
7B7
100
AcDbEntity
  8
Ebene 1
 62
   179
420
  1709851
370
    18
100
AcDbVertex
100
AcDb2dVertex
 10
82.70175643548775
 20
-178.9678873250497
 30
0.0
  0
VERTEX
  5
7B9
330
7B7
100
AcDbEntity
  8
Ebene 1
 62
   179
420
  1709851
370
    18
100
AcDbVertex
100
AcDb2dVertex
 10
82.70175643548775
 20
-176.9573295998579
 30
0.0
  0
SEQEND
  5
7BA
330
7B7
100
AcDbEntity
  8
Ebene 1
370
    18
  0
POLYLINE
  5
7BB
330
78B
100
AcDbEntity
  8
Ebene 1
 62
   179
420
  1709851
370
    18
100
AcDb2dPolyline
 66
     1
 10
0.0
 20
0.0
 30
0.0
  0
VERTEX
  5
7BC
330
7BB
100
AcDbEntity
  8
Ebene 1
 62
   179
420
  1709851
370
    18
100
AcDbVertex
100
AcDb2dVertex
 10
82.70175643548775
 20
-181.9733886263816
 30
0.0
  0
VERTEX
  5
7BD
330
7BB
100
AcDbEntity
  8
Ebene 1
 62
   179
420
  1709851
370
    18
100
AcDbVertex
100
AcDb2dVertex
 10
82.70175643548775
 20
-179.9628309011898
 30
0.0
  0
SEQEND
  5
7BE
330
7BB
100
AcDbEntity
  8
Ebene 1
370
    18
  0
POLYLINE
  5
7BF
330
78B
100
AcDbEntity
  8
Ebene 1
 62
   179
420
  1709851
370
    18
100
AcDb2dPolyline
 66
     1
 10
0.0
 20
0.0
 30
0.0
  0
VERTEX
  5
7C0
330
7BF
100
AcDbEntity
  8
Ebene 1
 62
   179
420
  1709851
370
    18
100
AcDbVertex
100
AcDb2dVertex
 10
82.70175643548775
 20
-184.9582193548021
 30
0.0
  0
VERTEX
  5
7C1
330
7BF
100
AcDbEntity
  8
Ebene 1
 62
   179
420
  1709851
370
    18
100
AcDbVertex
100
AcDb2dVertex
 10
82.70175643548775
 20
-182.9683322025218
 30
0.0
  0
SEQEND
  5
7C2
330
7BF
100
AcDbEntity
  8
Ebene 1
370
    18
  0
POLYLINE
  5
7C3
330
78B
100
AcDbEntity
  8
Ebene 1
 62
   179
420
  1709851
370
    18
100
AcDb2dPolyline
 66
     1
 10
0.0
 20
0.0
 30
0.0
  0
VERTEX
  5
7C4
330
7C3
100
AcDbEntity
  8
Ebene 1
 62
   179
420
  1709851
370
    18
100
AcDbVertex
100
AcDb2dVertex
 10
82.70175643548775
 20
-187.9637206561341
 30
0.0
  0
VERTEX
  5
7C5
330
7C3
100
AcDbEntity
  8
Ebene 1
 62
   179
420
  1709851
370
    18
100
AcDbVertex
100
AcDb2dVertex
 10
82.70175643548775
 20
-185.9531629309423
 30
0.0
  0
SEQEND
  5
7C6
330
7C3
100
AcDbEntity
  8
Ebene 1
370
    18
  0
POLYLINE
  5
7C7
330
78B
100
AcDbEntity
  8
Ebene 1
 62
   179
420
  1709851
370
    18
100
AcDb2dPolyline
 66
     1
 10
0.0
 20
0.0
 30
0.0
  0
VERTEX
  5
7C8
330
7C7
100
AcDbEntity
  8
Ebene 1
 62
   179
420
  1709851
370
    18
100
AcDbVertex
100
AcDb2dVertex
 10
82.70175643548775
 20
-190.969221957466
 30
0.0
  0
VERTEX
  5
7C9
330
7C7
100
AcDbEntity
  8
Ebene 1
 62
   179
420
  1709851
370
    18
100
AcDbVertex
100
AcDb2dVertex
 10
82.70175643548775
 20
-188.9586642322742
 30
0.0
  0
SEQEND
  5
7CA
330
7C7
100
AcDbEntity
  8
Ebene 1
370
    18
  0
POLYLINE
  5
7CB
330
78B
100
AcDbEntity
  8
Ebene 1
 62
   179
420
  1709851
370
    18
100
AcDb2dPolyline
 66
     1
 10
0.0
 20
0.0
 30
0.0
  0
VERTEX
  5
7CC
330
7CB
100
AcDbEntity
  8
Ebene 1
 62
   179
420
  1709851
370
    18
100
AcDbVertex
100
AcDb2dVertex
 10
82.70175643548775
 20
-193.9533636667894
 30
0.0
  0
VERTEX
  5
7CD
330
7CB
100
AcDbEntity
  8
Ebene 1
 62
   179
420
  1709851
370
    18
100
AcDbVertex
100
AcDb2dVertex
 10
82.70175643548775
 20
-191.9641655336062
 30
0.0
  0
SEQEND
  5
7CE
330
7CB
100
AcDbEntity
  8
Ebene 1
370
    18
  0
POLYLINE
  5
7CF
330
78B
100
AcDbEntity
  8
Ebene 1
 62
   179
420
  1709851
370
    18
100
AcDb2dPolyline
 66
     1
 10
0.0
 20
0.0
 30
0.0
  0
VERTEX
  5
7D0
330
7CF
100
AcDbEntity
  8
Ebene 1
 62
   179
420
  1709851
370
    18
100
AcDbVertex
100
AcDb2dVertex
 10
82.70175643548775
 20
-196.9595539872184
 30
0.0
  0
VERTEX
  5
7D1
330
7CF
100
AcDbEntity
  8
Ebene 1
 62
   179
420
  1709851
370
    18
100
AcDbVertex
100
AcDb2dVertex
 10
82.70175643548775
 20
-194.9696668349382
 30
0.0
  0
SEQEND
  5
7D2
330
7CF
100
AcDbEntity
  8
Ebene 1
370
    18
  0
POLYLINE
  5
7D3
330
78B
100
AcDbEntity
  8
Ebene 1
 62
   179
420
  1709851
370
    18
100
AcDb2dPolyline
 66
     1
 10
0.0
 20
0.0
 30
0.0
  0
VERTEX
  5
7D4
330
7D3
100
AcDbEntity
  8
Ebene 1
 62
   179
420
  1709851
370
    18
100
AcDbVertex
100
AcDb2dVertex
 10
82.70175643548775
 20
-199.9650552885504
 30
0.0
  0
VERTEX
  5
7D5
330
7D3
100
AcDbEntity
  8
Ebene 1
 62
   179
420
  1709851
370
    18
100
AcDbVertex
100
AcDb2dVertex
 10
82.70175643548775
 20
-197.9544975633586
 30
0.0
  0
SEQEND
  5
7D6
330
7D3
100
AcDbEntity
  8
Ebene 1
370
    18
  0
MTEXT
  5
7D7
330
78B
100
AcDbEntity
  8
Ebene 1
 62
   179
420
  1709851
100
AcDbMText
 10
88.64954153599734
 20
-127.7656724398468
 30
0.0
 40
3.323900430802021
 41
0.0
 71
     7
 72
     1
  1
\fArial|b0|i0|c0|p34;\W1.00063;4
 73
     1
 44
1.0
  0
POLYLINE
  5
7D8
330
78B
100
AcDbEntity
  8
Ebene 1
370
     0
100
AcDb2dPolyline
 66
     1
 10
0.0
 20
0.0
 30
0.0
  0
VERTEX
  5
7D9
330
7D8
100
AcDbEntity
  8
Ebene 1
370
     0
100
AcDbVertex
100
AcDb2dVertex
 10
54.32777776419584
 20
-201.0447482136277
 30
0.0
  0
VERTEX
  5
7DA
330
7D8
100
AcDbEntity
  8
Ebene 1
370
     0
100
AcDbVertex
100
AcDb2dVertex
 10
154.5835014804514
 20
-201.0447482136277
 30
0.0
  0
VERTEX
  5
7DB
330
7D8
100
AcDbEntity
  8
Ebene 1
370
     0
100
AcDbVertex
100
AcDb2dVertex
 10
154.5835014804514
 20
-90.7980753353734
 30
0.0
  0
VERTEX
  5
7DC
330
7D8
100
AcDbEntity
  8
Ebene 1
370
     0
100
AcDbVertex
100
AcDb2dVertex
 10
54.32777776419584
 20
-90.7980753353734
 30
0.0
  0
VERTEX
  5
7DD
330
7D8
100
AcDbEntity
  8
Ebene 1
370
     0
100
AcDbVertex
100
AcDb2dVertex
 10
54.32777776419584
 20
-201.0447482136277
 30
0.0
  0
SEQEND
  5
7DE
330
7D8
100
AcDbEntity
  8
Ebene 1
370
     0
  0
ENDBLK
  5
78E
330
78B
100
AcDbEntity
  8
0
100
AcDbBlockEnd
  0
ENDSEC
  0
SECTION
  2
ENTITIES
  0
POLYLINE
  5
3C
330
1F
100
AcDbEntity
  8
Ebene 1
370
     0
100
AcDb2dPolyline
 66
     1
 10
0.0
 20
0.0
 30
0.0
  0
VERTEX
  5
3D
330
3C
100
AcDbEntity
  8
Ebene 1
370
     0
100
AcDbVertex
100
AcDb2dVertex
 10
63.75752087164743
 20
-200.8752495157534
 30
0.0
  0
VERTEX
  5
3E
330
3C
100
AcDbEntity
  8
Ebene 1
370
     0
100
AcDbVertex
100
AcDb2dVertex
 10
154.4143472921256
 20
-200.8752495157534
 30
0.0
  0
VERTEX
  5
3F
330
3C
100
AcDbEntity
  8
Ebene 1
370
     0
100
AcDbVertex
100
AcDb2dVertex
 10
63.75752087164743
 20
-185.3606065074793
 30
0.0
  0
VERTEX
  5
40
330
3C
100
AcDbEntity
  8
Ebene 1
370
     0
100
AcDbVertex
100
AcDb2dVertex
 10
63.75752087164743
 20
-200.8752495157534
 30
0.0
  0
SEQEND
  5
41
330
3C
100
AcDbEntity
  8
Ebene 1
370
     0
  0
HATCH
  5
42
330
1F
100
AcDbEntity
  8
Ebene 1
 62
   254
420
 14803683
100
AcDbHatch
 10
0.0
 20
0.0
 30
0.0
210
0.0
220
0.0
230
1.0
  2
SOLID
 70
     1
 71
     0
 91
        1
 92
        1
 93
        3
 72
     1
 10
63.75752087164743
 20
-200.8752495157534
 11
154.4143472921256
 21
-200.8752495157534
 72
     1
 10
154.4143472921256
 20
-200.8752495157534
 11
63.75752087164743
 21
-185.3606065074793
 72
     1
 10
63.75752087164743
 20
-185.3606065074793
 11
63.75752087164743
 21
-200.8752495157534
 97
        0
 75
     2
 76
     1
 98
        0
  0
POLYLINE
  5
43
330
1F
100
AcDbEntity
  8
Ebene 1
370
     0
100
AcDb2dPolyline
 66
     1
 10
0.0
 20
0.0
 30
0.0
  0
VERTEX
  5
44
330
43
100
AcDbEntity
  8
Ebene 1
370
     0
100
AcDbVertex
100
AcDb2dVertex
 10
63.75752087164743
 20
-185.3606065074793
 30
0.0
  0
VERTEX
  5
45
330
43
100
AcDbEntity
  8
Ebene 1
370
     0
100
AcDbVertex
100
AcDb2dVertex
 10
154.4143472921256
 20
-200.8752495157534
 30
0.0
  0
VERTEX
  5
46
330
43
100
AcDbEntity
  8
Ebene 1
370
     0
100
AcDbVertex
100
AcDb2dVertex
 10
154.4143472921256
 20
-133.035979513182
 30
0.0
  0
VERTEX
  5
47
330
43
100
AcDbEntity
  8
Ebene 1
370
     0
100
AcDbVertex
100
AcDb2dVertex
 10
63.75752087164743
 20
-185.3606065074793
 30
0.0
  0
SEQEND
  5
48
330
43
100
AcDbEntity
  8
Ebene 1
370
     0
  0
HATCH
  5
49
330
1F
100
AcDbEntity
  8
Ebene 1
 62
   254
420
 14803683
100
AcDbHatch
 10
0.0
 20
0.0
 30
0.0
210
0.0
220
0.0
230
1.0
  2
SOLID
 70
     1
 71
     0
 91
        1
 92
        1
 93
        3
 72
     1
 10
63.75752087164743
 20
-185.3606065074793
 11
154.4143472921256
 21
-200.8752495157534
 72
     1
 10
154.4143472921256
 20
-200.8752495157534
 11
154.4143472921256
 21
-133.035979513182
 72
     1
 10
154.4143472921256
 20
-133.035979513182
 11
63.75752087164743
 21
-185.3606065074793
 97
        0
 75
     2
 76
     1
 98
        0
  0
INSERT
  5
4B
330
1F
100
AcDbEntity
  8
Ebene 1
100
AcDbBlockReference
  2
block 2
 10
0.0
 20
0.0
 30
0.0
  0
POLYLINE
  5
399
330
1F
100
AcDbEntity
  8
Ebene 1
 62
   179
420
  1709851
370
    18
100
AcDb2dPolyline
 66
     1
 10
0.0
 20
0.0
 30
0.0
  0
VERTEX
  5
39A
330
399
100
AcDbEntity
  8
Ebene 1
 62
   179
420
  1709851
370
    18
100
AcDbVertex
100
AcDb2dVertex
 10
88.92497692004306
 20
-144.8471448748125
 30
0.0
  0
VERTEX
  5
39B
330
399
100
AcDbEntity
  8
Ebene 1
 62
   179
420
  1709851
370
    18
100
AcDbVertex
100
AcDb2dVertex
 10
88.88260224557449
 20
-144.7203653609553
 30
0.0
  0
VERTEX
  5
39C
330
399
100
AcDbEntity
  8
Ebene 1
 62
   179
420
  1709851
370
    18
100
AcDbVertex
100
AcDb2dVertex
 10
88.77632104985453
 20
-144.6356160120182
 30
0.0
  0
VERTEX
  5
39D
330
399
100
AcDbEntity
  8
Ebene 1
 62
   179
420
  1709851
370
    18
100
AcDbVertex
100
AcDb2dVertex
 10
88.64936928122307
 20
-144.6356160120182
 30
0.0
  0
VERTEX
  5
39E
330
399
100
AcDbEntity
  8
Ebene 1
 62
   179
420
  1709851
370
    18
100
AcDbVertex
100
AcDb2dVertex
 10
88.60699460675451
 20
-144.6566310944782
 30
0.0
  0
SEQEND
  5
39F
330
399
100
AcDbEntity
  8
Ebene 1
370
    18
  0
POLYLINE
  5
3A0
330
1F
100
AcDbEntity
  8
Ebene 1
 62
   179
420
  1709851
370
    18
100
AcDb2dPolyline
 66
     1
 10
0.0
 20
0.0
 30
0.0
  0
VERTEX
  5
3A1
330
3A0
100
AcDbEntity
  8
Ebene 1
 62
   179
420
  1709851
370
    18
100
AcDbVertex
100
AcDb2dVertex
 10
88.60699460675451
 20
-144.6566310944782
 30
0.0
  0
VERTEX
  5
3A2
330
3A0
100
AcDbEntity
  8
Ebene 1
 62
   179
420
  1709851
370
    18
100
AcDbVertex
100
AcDb2dVertex
 10
88.41648082642018
 20
-144.804770200344
 30
0.0
  0
VERTEX
  5
3A3
330
3A0
100
AcDbEntity
  8
Ebene 1
 62
   179
420
  1709851
370
    18
100
AcDbVertex
100
AcDb2dVertex
 10
88.31071639502302
 20
-145.0166435726868
 30
0.0
  0
VERTEX
  5
3A4
330
3A0
100
AcDbEntity
  8
Ebene 1
 62
   179
420
  1709851
370
    18
100
AcDbVertex
100
AcDb2dVertex
 10
88.26834172055445
 20
-145.2281724354812
 30
0.0
  0
VERTEX
  5
3A5
330
3A0
100
AcDbEntity
  8
Ebene 1
 62
   179
420
  1709851
370
    18
100
AcDbVertex
100
AcDb2dVertex
 10
88.31071639502302
 20
-145.3552964588869
 30
0.0
  0
VERTEX
  5
3A6
330
3A0
100
AcDbEntity
  8
Ebene 1
 62
   179
420
  1709851
370
    18
100
AcDbVertex
100
AcDb2dVertex
 10
88.43766816365448
 20
-145.4186862158155
 30
0.0
  0
VERTEX
  5
3A7
330
3A0
100
AcDbEntity
  8
Ebene 1
 62
   179
420
  1709851
370
    18
100
AcDbVertex
100
AcDb2dVertex
 10
88.56513669660872
 20
-145.4186862158155
 30
0.0
  0
VERTEX
  5
3A8
330
3A0
100
AcDbEntity
  8
Ebene 1
 62
   179
420
  1709851
370
    18
100
AcDbVertex
100
AcDb2dVertex
 10
88.60699460675451
 20
-145.4186862158155
 30
0.0
  0
SEQEND
  5
3A9
330
3A0
100
AcDbEntity
  8
Ebene 1
370
    18
  0
POLYLINE
  5
3AA
330
1F
100
AcDbEntity
  8
Ebene 1
 62
   179
420
  1709851
370
    18
100
AcDb2dPolyline
 66
     1
 10
0.0
 20
0.0
 30
0.0
  0
VERTEX
  5
3AB
330
3AA
100
AcDbEntity
  8
Ebene 1
 62
   179
420
  1709851
370
    18
100
AcDbVertex
100
AcDb2dVertex
 10
88.60699460675451
 20
-145.4186862158155
 30
0.0
  0
VERTEX
  5
3AC
330
3AA
100
AcDbEntity
  8
Ebene 1
 62
   179
420
  1709851
370
    18
100
AcDbVertex
100
AcDb2dVertex
 10
88.77632104985453
 20
-145.2495320274897
 30
0.0
  0
VERTEX
  5
3AD
330
3AA
100
AcDbEntity
  8
Ebene 1
 62
   179
420
  1709851
370
    18
100
AcDbVertex
100
AcDb2dVertex
 10
88.90378958280878
 20
-145.0590182471554
 30
0.0
  0
VERTEX
  5
3AE
330
3AA
100
AcDbEntity
  8
Ebene 1
 62
   179
420
  1709851
370
    18
100
AcDbVertex
100
AcDb2dVertex
 10
88.92497692004306
 20
-144.8471448748125
 30
0.0
  0
SEQEND
  5
3AF
330
3AA
100
AcDbEntity
  8
Ebene 1
370
    18
  0
POLYLINE
  5
3B0
330
1F
100
AcDbEntity
  8
Ebene 1
 62
   179
420
  1709851
370
    18
100
AcDb2dPolyline
 66
     1
 10
0.0
 20
0.0
 30
0.0
  0
VERTEX
  5
3B1
330
3B0
100
AcDbEntity
  8
Ebene 1
 62
   179
420
  1709851
370
    18
100
AcDbVertex
100
AcDb2dVertex
 10
89.68651527705754
 20
-144.4027275572153
 30
0.0
  0
VERTEX
  5
3B2
330
3B0
100
AcDbEntity
  8
Ebene 1
 62
   179
420
  1709851
370
    18
100
AcDbVertex
100
AcDb2dVertex
 10
89.64414060258896
 20
-144.1698391024124
 30
0.0
  0
VERTEX
  5
3B3
330
3B0
100
AcDbEntity
  8
Ebene 1
 62
   179
420
  1709851
370
    18
100
AcDbVertex
100
AcDb2dVertex
 10
89.51718883395752
 20
-143.9583102396181
 30
0.0
  0
VERTEX
  5
3B4
330
3B0
100
AcDbEntity
  8
Ebene 1
 62
   179
420
  1709851
370
    18
100
AcDbVertex
100
AcDb2dVertex
 10
89.32667505362319
 20
-143.7888115417438
 30
0.0
  0
VERTEX
  5
3B5
330
3B0
100
AcDbEntity
  8
Ebene 1
 62
   179
420
  1709851
370
    18
100
AcDbVertex
100
AcDb2dVertex
 10
89.1149739360546
 20
-143.7040621928066
 30
0.0
  0
VERTEX
  5
3B6
330
3B0
100
AcDbEntity
  8
Ebene 1
 62
   179
420
  1709851
370
    18
100
AcDbVertex
100
AcDb2dVertex
 10
88.86107039879168
 20
-143.7040621928066
 30
0.0
  0
VERTEX
  5
3B7
330
3B0
100
AcDbEntity
  8
Ebene 1
 62
   179
420
  1709851
370
    18
100
AcDbVertex
100
AcDb2dVertex
 10
88.62818194398879
 20
-143.7677964592837
 30
0.0
  0
VERTEX
  5
3B8
330
3B0
100
AcDbEntity
  8
Ebene 1
 62
   179
420
  1709851
370
    18
100
AcDbVertex
100
AcDb2dVertex
 10
88.60699460675451
 20
-143.7888115417438
 30
0.0
  0
SEQEND
  5
3B9
330
3B0
100
AcDbEntity
  8
Ebene 1
370
    18
  0
POLYLINE
  5
3BA
330
1F
100
AcDbEntity
  8
Ebene 1
 62
   179
420
  1709851
370
    18
100
AcDb2dPolyline
 66
     1
 10
0.0
 20
0.0
 30
0.0
  0
VERTEX
  5
3BB
330
3BA
100
AcDbEntity
  8
Ebene 1
 62
   179
420
  1709851
370
    18
100
AcDbVertex
100
AcDb2dVertex
 10
88.60699460675451
 20
-143.7888115417438
 30
0.0
  0
VERTEX
  5
3BC
330
3BA
100
AcDbEntity
  8
Ebene 1
 62
   179
420
  1709851
370
    18
100
AcDbVertex
100
AcDb2dVertex
 10
88.24715438332017
 20
-144.0427150790067
 30
0.0
  0
VERTEX
  5
3BD
330
3BA
100
AcDbEntity
  8
Ebene 1
 62
   179
420
  1709851
370
    18
100
AcDbVertex
100
AcDb2dVertex
 10
87.97206350882296
 20
-144.3393378002867
 30
0.0
  0
VERTEX
  5
3BE
330
3BA
100
AcDbEntity
  8
Ebene 1
 62
   179
420
  1709851
370
    18
100
AcDbVertex
100
AcDb2dVertex
 10
87.73917505402007
 20
-144.7203653609553
 30
0.0
  0
VERTEX
  5
3BF
330
3BA
100
AcDbEntity
  8
Ebene 1
 62
   179
420
  1709851
370
    18
100
AcDbVertex
100
AcDb2dVertex
 10
87.59103594815433
 20
-145.122408004084
 30
0.0
  0
VERTEX
  5
3C0
330
3BA
100
AcDbEntity
  8
Ebene 1
 62
   179
420
  1709851
370
    18
100
AcDbVertex
100
AcDb2dVertex
 10
87.52747393645147
 20
-145.5244506472126
 30
0.0
  0
VERTEX
  5
3C1
330
3BA
100
AcDbEntity
  8
Ebene 1
 62
   179
420
  1709851
370
    18
100
AcDbVertex
100
AcDb2dVertex
 10
87.52747393645147
 20
-145.6515746706184
 30
0.0
  0
VERTEX
  5
3C2
330
3BA
100
AcDbEntity
  8
Ebene 1
 62
   179
420
  1709851
370
    18
100
AcDbVertex
100
AcDb2dVertex
 10
87.56984861092005
 20
-145.9054782078813
 30
0.0
  0
VERTEX
  5
3C3
330
3BA
100
AcDbEntity
  8
Ebene 1
 62
   179
420
  1709851
370
    18
100
AcDbVertex
100
AcDb2dVertex
 10
87.67612980664
 20
-146.1173515802242
 30
0.0
  0
VERTEX
  5
3C4
330
3BA
100
AcDbEntity
  8
Ebene 1
 62
   179
420
  1709851
370
    18
100
AcDbVertex
100
AcDb2dVertex
 10
87.86664358697432
 20
-146.2865057685499
 30
0.0
  0
VERTEX
  5
3C5
330
3BA
100
AcDbEntity
  8
Ebene 1
 62
   179
420
  1709851
370
    18
100
AcDbVertex
100
AcDb2dVertex
 10
88.09901527745441
 20
-146.3712551174871
 30
0.0
  0
VERTEX
  5
3C6
330
3BA
100
AcDbEntity
  8
Ebene 1
 62
   179
420
  1709851
370
    18
100
AcDbVertex
100
AcDb2dVertex
 10
88.35343557904012
 20
-146.3712551174871
 30
0.0
  0
VERTEX
  5
3C7
330
3BA
100
AcDbEntity
  8
Ebene 1
 62
   179
420
  1709851
370
    18
100
AcDbVertex
100
AcDb2dVertex
 10
88.58580726952022
 20
-146.3078653605585
 30
0.0
  0
VERTEX
  5
3C8
330
3BA
100
AcDbEntity
  8
Ebene 1
 62
   179
420
  1709851
370
    18
100
AcDbVertex
100
AcDb2dVertex
 10
88.60699460675451
 20
-146.2865057685499
 30
0.0
  0
SEQEND
  5
3C9
330
3BA
100
AcDbEntity
  8
Ebene 1
370
    18
  0
POLYLINE
  5
3CA
330
1F
100
AcDbEntity
  8
Ebene 1
 62
   179
420
  1709851
370
    18
100
AcDb2dPolyline
 66
     1
 10
0.0
 20
0.0
 30
0.0
  0
VERTEX
  5
3CB
330
3CA
100
AcDbEntity
  8
Ebene 1
 62
   179
420
  1709851
370
    18
100
AcDbVertex
100
AcDb2dVertex
 10
88.60699460675451
 20
-146.2865057685499
 30
0.0
  0
VERTEX
  5
3CC
330
3CA
100
AcDbEntity
  8
Ebene 1
 62
   179
420
  1709851
370
    18
100
AcDbVertex
100
AcDb2dVertex
 10
88.94564749295456
 20
-146.032602231287
 30
0.0
  0
VERTEX
  5
3CD
330
3CA
100
AcDbEntity
  8
Ebene 1
 62
   179
420
  1709851
370
    18
100
AcDbVertex
100
AcDb2dVertex
 10
89.24244246900884
 20
-145.714964427547
 30
0.0
  0
VERTEX
  5
3CE
330
3CA
100
AcDbEntity
  8
Ebene 1
 62
   179
420
  1709851
370
    18
100
AcDbVertex
100
AcDb2dVertex
 10
89.47481415948894
 20
-145.3552964588869
 30
0.0
  0
VERTEX
  5
3CF
330
3CA
100
AcDbEntity
  8
Ebene 1
 62
   179
420
  1709851
370
    18
100
AcDbVertex
100
AcDb2dVertex
 10
89.62347002967746
 20
-144.9529093062097
 30
0.0
  0
VERTEX
  5
3D0
330
3CA
100
AcDbEntity
  8
Ebene 1
 62
   179
420
  1709851
370
    18
100
AcDbVertex
100
AcDb2dVertex
 10
89.68651527705754
 20
-144.529851580621
 30
0.0
  0
VERTEX
  5
3D1
330
3CA
100
AcDbEntity
  8
Ebene 1
 62
   179
420
  1709851
370
    18
100
AcDbVertex
100
AcDb2dVertex
 10
89.68651527705754
 20
-144.4027275572153
 30
0.0
  0
SEQEND
  5
3D2
330
3CA
100
AcDbEntity
  8
Ebene 1
370
    18
  0
POLYLINE
  5
3D3
330
1F
100
AcDbEntity
  8
Ebene 1
 62
   179
420
  1709851
370
    18
100
AcDb2dPolyline
 66
     1
 10
0.0
 20
0.0
 30
0.0
  0
VERTEX
  5
3D4
330
3D3
100
AcDbEntity
  8
Ebene 1
 62
   179
420
  1709851
370
    18
100
AcDbVertex
100
AcDb2dVertex
 10
117.5631944150537
 20
-158.563275785012
 30
0.0
  0
VERTEX
  5
3D5
330
3D3
100
AcDbEntity
  8
Ebene 1
 62
   179
420
  1709851
370
    18
100
AcDbVertex
100
AcDb2dVertex
 10
117.5204752310366
 20
-158.3090277382005
 30
0.0
  0
VERTEX
  5
3D6
330
3D3
100
AcDbEntity
  8
Ebene 1
 62
   179
420
  1709851
370
    18
100
AcDbVertex
100
AcDb2dVertex
 10
117.3940402267279
 20
-158.0974988754062
 30
0.0
  0
VERTEX
  5
3D7
330
3D3
100
AcDbEntity
  8
Ebene 1
 62
   179
420
  1709851
370
    18
100
AcDbVertex
100
AcDb2dVertex
 10
117.2035264463936
 20
-157.9280001775319
 30
0.0
  0
VERTEX
  5
3D8
330
3D3
100
AcDbEntity
  8
Ebene 1
 62
   179
420
  1709851
370
    18
100
AcDbVertex
100
AcDb2dVertex
 10
116.9706379915907
 20
-157.8432508285948
 30
0.0
  0
VERTEX
  5
3D9
330
3D3
100
AcDbEntity
  8
Ebene 1
 62
   179
420
  1709851
370
    18
100
AcDbVertex
100
AcDb2dVertex
 10
116.7377495367878
 20
-157.8432508285948
 30
0.0
  0
VERTEX
  5
3DA
330
3D3
100
AcDbEntity
  8
Ebene 1
 62
   179
420
  1709851
370
    18
100
AcDbVertex
100
AcDb2dVertex
 10
116.5048610819849
 20
-157.9073296046204
 30
0.0
  0
VERTEX
  5
3DB
330
3D3
100
AcDbEntity
  8
Ebene 1
 62
   179
420
  1709851
370
    18
100
AcDbVertex
100
AcDb2dVertex
 10
116.4838459995249
 20
-157.9280001775319
 30
0.0
  0
SEQEND
  5
3DC
330
3D3
100
AcDbEntity
  8
Ebene 1
370
    18
  0
POLYLINE
  5
3DD
330
1F
100
AcDbEntity
  8
Ebene 1
 62
   179
420
  1709851
370
    18
100
AcDb2dPolyline
 66
     1
 10
0.0
 20
0.0
 30
0.0
  0
VERTEX
  5
3DE
330
3DD
100
AcDbEntity
  8
Ebene 1
 62
   179
420
  1709851
370
    18
100
AcDbVertex
100
AcDb2dVertex
 10
116.4838459995249
 20
-160.425694404338
 30
0.0
  0
VERTEX
  5
3DF
330
3DD
100
AcDbEntity
  8
Ebene 1
 62
   179
420
  1709851
370
    18
100
AcDbVertex
100
AcDb2dVertex
 10
116.8224988857249
 20
-160.1721353766236
 30
0.0
  0
VERTEX
  5
3E0
330
3DD
100
AcDbEntity
  8
Ebene 1
 62
   179
420
  1709851
370
    18
100
AcDbVertex
100
AcDb2dVertex
 10
117.1187770974564
 20
-159.8758571648922
 30
0.0
  0
VERTEX
  5
3E1
330
3DD
100
AcDbEntity
  8
Ebene 1
 62
   179
420
  1709851
370
    18
100
AcDbVertex
100
AcDb2dVertex
 10
117.3303059602508
 20
-159.4948296042235
 30
0.0
  0
VERTEX
  5
3E2
330
3DD
100
AcDbEntity
  8
Ebene 1
 62
   179
420
  1709851
370
    18
100
AcDbVertex
100
AcDb2dVertex
 10
117.4784450661165
 20
-159.1138020435549
 30
0.0
  0
VERTEX
  5
3E3
330
3DD
100
AcDbEntity
  8
Ebene 1
 62
   179
420
  1709851
370
    18
100
AcDbVertex
100
AcDb2dVertex
 10
117.5421793325936
 20
-158.8175238318234
 30
0.0
  0
SEQEND
  5
3E4
330
3DD
100
AcDbEntity
  8
Ebene 1
370
    18
  0
POLYLINE
  5
3E5
330
1F
100
AcDbEntity
  8
Ebene 1
 62
   179
420
  1709851
370
    18
100
AcDb2dPolyline
 66
     1
 10
0.0
 20
0.0
 30
0.0
  0
VERTEX
  5
3E6
330
3E5
100
AcDbEntity
  8
Ebene 1
 62
   179
420
  1709851
370
    18
100
AcDbVertex
100
AcDb2dVertex
 10
115.3831379919876
 20
-159.8117783888665
 30
0.0
  0
VERTEX
  5
3E7
330
3E5
100
AcDbEntity
  8
Ebene 1
 62
   179
420
  1709851
370
    18
100
AcDbVertex
100
AcDb2dVertex
 10
115.4255126664561
 20
-160.0446668436694
 30
0.0
  0
VERTEX
  5
3E8
330
3E5
100
AcDbEntity
  8
Ebene 1
 62
   179
420
  1709851
370
    18
100
AcDbVertex
100
AcDb2dVertex
 10
115.5522921803133
 20
-160.2568847255608
 30
0.0
  0
VERTEX
  5
3E9
330
3E5
100
AcDbEntity
  8
Ebene 1
 62
   179
420
  1709851
370
    18
100
AcDbVertex
100
AcDb2dVertex
 10
115.7428059606476
 20
-160.425694404338
 30
0.0
  0
VERTEX
  5
3EA
330
3E5
100
AcDbEntity
  8
Ebene 1
 62
   179
420
  1709851
370
    18
100
AcDbVertex
100
AcDb2dVertex
 10
115.9756944154505
 20
-160.5104437532752
 30
0.0
  0
VERTEX
  5
3EB
330
3E5
100
AcDbEntity
  8
Ebene 1
 62
   179
420
  1709851
370
    18
100
AcDbVertex
100
AcDb2dVertex
 10
116.2085828702534
 20
-160.5104437532752
 30
0.0
  0
VERTEX
  5
3EC
330
3E5
100
AcDbEntity
  8
Ebene 1
 62
   179
420
  1709851
370
    18
100
AcDbVertex
100
AcDb2dVertex
 10
116.4414713250563
 20
-160.4470539963466
 30
0.0
  0
VERTEX
  5
3ED
330
3E5
100
AcDbEntity
  8
Ebene 1
 62
   179
420
  1709851
370
    18
100
AcDbVertex
100
AcDb2dVertex
 10
116.4838459995249
 20
-160.425694404338
 30
0.0
  0
SEQEND
  5
3EE
330
3E5
100
AcDbEntity
  8
Ebene 1
370
    18
  0
POLYLINE
  5
3EF
330
1F
100
AcDbEntity
  8
Ebene 1
 62
   179
420
  1709851
370
    18
100
AcDb2dPolyline
 66
     1
 10
0.0
 20
0.0
 30
0.0
  0
VERTEX
  5
3F0
330
3EF
100
AcDbEntity
  8
Ebene 1
 62
   179
420
  1709851
370
    18
100
AcDbVertex
100
AcDb2dVertex
 10
115.5522921803133
 20
-164.0030815562214
 30
0.0
  0
VERTEX
  5
3F1
330
3EF
100
AcDbEntity
  8
Ebene 1
 62
   179
420
  1709851
370
    18
100
AcDbVertex
100
AcDb2dVertex
 10
115.7428059606476
 20
-164.1725802540957
 30
0.0
  0
VERTEX
  5
3F2
330
3EF
100
AcDbEntity
  8
Ebene 1
 62
   179
420
  1709851
370
    18
100
AcDbVertex
100
AcDb2dVertex
 10
115.9756944154505
 20
-164.2573296030329
 30
0.0
  0
VERTEX
  5
3F3
330
3EF
100
AcDbEntity
  8
Ebene 1
 62
   179
420
  1709851
370
    18
100
AcDbVertex
100
AcDb2dVertex
 10
116.2085828702534
 20
-164.2780001759444
 30
0.0
  0
VERTEX
  5
3F4
330
3EF
100
AcDbEntity
  8
Ebene 1
 62
   179
420
  1709851
370
    18
100
AcDbVertex
100
AcDb2dVertex
 10
116.4414713250563
 20
-164.1932508270073
 30
0.0
  0
VERTEX
  5
3F5
330
3EF
100
AcDbEntity
  8
Ebene 1
 62
   179
420
  1709851
370
    18
100
AcDbVertex
100
AcDb2dVertex
 10
116.4838459995249
 20
-164.1725802540957
 30
0.0
  0
SEQEND
  5
3F6
330
3EF
100
AcDbEntity
  8
Ebene 1
370
    18
  0
POLYLINE
  5
3F7
330
1F
100
AcDbEntity
  8
Ebene 1
 62
   179
420
  1709851
370
    18
100
AcDb2dPolyline
 66
     1
 10
0.0
 20
0.0
 30
0.0
  0
VERTEX
  5
3F8
330
3F7
100
AcDbEntity
  8
Ebene 1
 62
   179
420
  1709851
370
    18
100
AcDbVertex
100
AcDb2dVertex
 10
115.3831379919876
 20
-163.5586642386242
 30
0.0
  0
VERTEX
  5
3F9
330
3F7
100
AcDbEntity
  8
Ebene 1
 62
   179
420
  1709851
370
    18
100
AcDbVertex
100
AcDb2dVertex
 10
115.4255126664561
 20
-163.7915526934271
 30
0.0
  0
VERTEX
  5
3FA
330
3F7
100
AcDbEntity
  8
Ebene 1
 62
   179
420
  1709851
370
    18
100
AcDbVertex
100
AcDb2dVertex
 10
115.5522921803133
 20
-164.0030815562214
 30
0.0
  0
SEQEND
  5
3FB
330
3F7
100
AcDbEntity
  8
Ebene 1
370
    18
  0
POLYLINE
  5
3FC
330
1F
100
AcDbEntity
  8
Ebene 1
 62
   179
420
  1709851
370
    18
100
AcDb2dPolyline
 66
     1
 10
0.0
 20
0.0
 30
0.0
  0
VERTEX
  5
3FD
330
3FC
100
AcDbEntity
  8
Ebene 1
 62
   179
420
  1709851
370
    18
100
AcDbVertex
100
AcDb2dVertex
 10
117.5631944150537
 20
-162.3094726156726
 30
0.0
  0
VERTEX
  5
3FE
330
3FC
100
AcDbEntity
  8
Ebene 1
 62
   179
420
  1709851
370
    18
100
AcDbVertex
100
AcDb2dVertex
 10
117.5204752310366
 20
-162.0559135879583
 30
0.0
  0
VERTEX
  5
3FF
330
3FC
100
AcDbEntity
  8
Ebene 1
 62
   179
420
  1709851
370
    18
100
AcDbVertex
100
AcDb2dVertex
 10
117.3940402267279
 20
-161.8443847251639
 30
0.0
  0
VERTEX
  5
400
330
3FC
100
AcDbEntity
  8
Ebene 1
 62
   179
420
  1709851
370
    18
100
AcDbVertex
100
AcDb2dVertex
 10
117.2035264463936
 20
-161.6955566002011
 30
0.0
  0
VERTEX
  5
401
330
3FC
100
AcDbEntity
  8
Ebene 1
 62
   179
420
  1709851
370
    18
100
AcDbVertex
100
AcDb2dVertex
 10
116.9706379915907
 20
-161.5901366783525
 30
0.0
  0
VERTEX
  5
402
330
3FC
100
AcDbEntity
  8
Ebene 1
 62
   179
420
  1709851
370
    18
100
AcDbVertex
100
AcDb2dVertex
 10
116.7377495367878
 20
-161.5901366783525
 30
0.0
  0
VERTEX
  5
403
330
3FC
100
AcDbEntity
  8
Ebene 1
 62
   179
420
  1709851
370
    18
100
AcDbVertex
100
AcDb2dVertex
 10
116.5048610819849
 20
-161.6748860272896
 30
0.0
  0
VERTEX
  5
404
330
3FC
100
AcDbEntity
  8
Ebene 1
 62
   179
420
  1709851
370
    18
100
AcDbVertex
100
AcDb2dVertex
 10
116.4838459995249
 20
-161.6748860272896
 30
0.0
  0
SEQEND
  5
405
330
3FC
100
AcDbEntity
  8
Ebene 1
370
    18
  0
POLYLINE
  5
406
330
1F
100
AcDbEntity
  8
Ebene 1
 62
   179
420
  1709851
370
    18
100
AcDb2dPolyline
 66
     1
 10
0.0
 20
0.0
 30
0.0
  0
VERTEX
  5
407
330
406
100
AcDbEntity
  8
Ebene 1
 62
   179
420
  1709851
370
    18
100
AcDbVertex
100
AcDb2dVertex
 10
116.4838459995249
 20
-161.6748860272896
 30
0.0
  0
VERTEX
  5
408
330
406
100
AcDbEntity
  8
Ebene 1
 62
   179
420
  1709851
370
    18
100
AcDbVertex
100
AcDb2dVertex
 10
116.1238335213163
 20
-161.928445055004
 30
0.0
  0
VERTEX
  5
409
330
406
100
AcDbEntity
  8
Ebene 1
 62
   179
420
  1709851
370
    18
100
AcDbVertex
100
AcDb2dVertex
 10
115.8275553095848
 20
-162.246082858744
 30
0.0
  0
VERTEX
  5
40A
330
406
100
AcDbEntity
  8
Ebene 1
 62
   179
420
  1709851
370
    18
100
AcDbVertex
100
AcDb2dVertex
 10
115.6160264467904
 20
-162.6057508274041
 30
0.0
  0
VERTEX
  5
40B
330
406
100
AcDbEntity
  8
Ebene 1
 62
   179
420
  1709851
370
    18
100
AcDbVertex
100
AcDb2dVertex
 10
115.4678873409247
 20
-163.0081379800813
 30
0.0
  0
VERTEX
  5
40C
330
406
100
AcDbEntity
  8
Ebene 1
 62
   179
420
  1709851
370
    18
100
AcDbVertex
100
AcDb2dVertex
 10
115.4255126664561
 20
-163.2830565998042
 30
0.0
  0
SEQEND
  5
40D
330
406
100
AcDbEntity
  8
Ebene 1
370
    18
  0
POLYLINE
  5
40E
330
1F
100
AcDbEntity
  8
Ebene 1
 62
   179
420
  1709851
370
    18
100
AcDb2dPolyline
 66
     1
 10
0.0
 20
0.0
 30
0.0
  0
VERTEX
  5
40F
330
40E
100
AcDbEntity
  8
Ebene 1
 62
   179
420
  1709851
370
    18
100
AcDbVertex
100
AcDb2dVertex
 10
116.8011392937164
 20
-158.9863335106006
 30
0.0
  0
VERTEX
  5
410
330
40E
100
AcDbEntity
  8
Ebene 1
 62
   179
420
  1709851
370
    18
100
AcDbVertex
100
AcDb2dVertex
 10
116.7587646192478
 20
-158.8595539967434
 30
0.0
  0
VERTEX
  5
411
330
40E
100
AcDbEntity
  8
Ebene 1
 62
   179
420
  1709851
370
    18
100
AcDbVertex
100
AcDb2dVertex
 10
116.6530001878507
 20
-158.7961642398149
 30
0.0
  0
VERTEX
  5
412
330
40E
100
AcDbEntity
  8
Ebene 1
 62
   179
420
  1709851
370
    18
100
AcDbVertex
100
AcDb2dVertex
 10
116.5258761644449
 20
-158.7961642398149
 30
0.0
  0
VERTEX
  5
413
330
40E
100
AcDbEntity
  8
Ebene 1
 62
   179
420
  1709851
370
    18
100
AcDbVertex
100
AcDb2dVertex
 10
116.4838459995249
 20
-158.7961642398149
 30
0.0
  0
SEQEND
  5
414
330
40E
100
AcDbEntity
  8
Ebene 1
370
    18
  0
POLYLINE
  5
415
330
1F
100
AcDbEntity
  8
Ebene 1
 62
   179
420
  1709851
370
    18
100
AcDb2dPolyline
 66
     1
 10
0.0
 20
0.0
 30
0.0
  0
VERTEX
  5
416
330
415
100
AcDbEntity
  8
Ebene 1
 62
   179
420
  1709851
370
    18
100
AcDbVertex
100
AcDb2dVertex
 10
116.1451931133248
 20
-159.3673610712693
 30
0.0
  0
VERTEX
  5
417
330
415
100
AcDbEntity
  8
Ebene 1
 62
   179
420
  1709851
370
    18
100
AcDbVertex
100
AcDb2dVertex
 10
116.1875677877934
 20
-159.4948296042235
 30
0.0
  0
VERTEX
  5
418
330
415
100
AcDbEntity
  8
Ebene 1
 62
   179
420
  1709851
370
    18
100
AcDbVertex
100
AcDb2dVertex
 10
116.2933322191906
 20
-159.5788899340636
 30
0.0
  0
VERTEX
  5
419
330
415
100
AcDbEntity
  8
Ebene 1
 62
   179
420
  1709851
370
    18
100
AcDbVertex
100
AcDb2dVertex
 10
116.4414713250563
 20
-159.5788899340636
 30
0.0
  0
VERTEX
  5
41A
330
415
100
AcDbEntity
  8
Ebene 1
 62
   179
420
  1709851
370
    18
100
AcDbVertex
100
AcDb2dVertex
 10
116.4838459995249
 20
-159.5582193611521
 30
0.0
  0
SEQEND
  5
41B
330
415
100
AcDbEntity
  8
Ebene 1
370
    18
  0
POLYLINE
  5
41C
330
1F
100
AcDbEntity
  8
Ebene 1
 62
   179
420
  1709851
370
    18
100
AcDb2dPolyline
 66
     1
 10
0.0
 20
0.0
 30
0.0
  0
VERTEX
  5
41D
330
41C
100
AcDbEntity
  8
Ebene 1
 62
   179
420
  1709851
370
    18
100
AcDbVertex
100
AcDb2dVertex
 10
116.4838459995249
 20
-158.7961642398149
 30
0.0
  0
VERTEX
  5
41E
330
41C
100
AcDbEntity
  8
Ebene 1
 62
   179
420
  1709851
370
    18
100
AcDbVertex
100
AcDb2dVertex
 10
116.2933322191906
 20
-158.9656629376892
 30
0.0
  0
VERTEX
  5
41F
330
41C
100
AcDbEntity
  8
Ebene 1
 62
   179
420
  1709851
370
    18
100
AcDbVertex
100
AcDb2dVertex
 10
116.1872232782449
 20
-159.1558322084749
 30
0.0
  0
VERTEX
  5
420
330
41C
100
AcDbEntity
  8
Ebene 1
 62
   179
420
  1709851
370
    18
100
AcDbVertex
100
AcDb2dVertex
 10
116.1451931133248
 20
-159.3673610712693
 30
0.0
  0
SEQEND
  5
421
330
41C
100
AcDbEntity
  8
Ebene 1
370
    18
  0
POLYLINE
  5
422
330
1F
100
AcDbEntity
  8
Ebene 1
 62
   179
420
  1709851
370
    18
100
AcDb2dPolyline
 66
     1
 10
0.0
 20
0.0
 30
0.0
  0
VERTEX
  5
423
330
422
100
AcDbEntity
  8
Ebene 1
 62
   179
420
  1709851
370
    18
100
AcDbVertex
100
AcDb2dVertex
 10
116.4838459995249
 20
-159.5582193611521
 30
0.0
  0
VERTEX
  5
424
330
422
100
AcDbEntity
  8
Ebene 1
 62
   179
420
  1709851
370
    18
100
AcDbVertex
100
AcDb2dVertex
 10
116.6530001878507
 20
-159.4100802552864
 30
0.0
  0
VERTEX
  5
425
330
422
100
AcDbEntity
  8
Ebene 1
 62
   179
420
  1709851
370
    18
100
AcDbVertex
100
AcDb2dVertex
 10
116.7587646192478
 20
-159.198551392492
 30
0.0
  0
VERTEX
  5
426
330
422
100
AcDbEntity
  8
Ebene 1
 62
   179
420
  1709851
370
    18
100
AcDbVertex
100
AcDb2dVertex
 10
116.8011392937164
 20
-158.9863335106006
 30
0.0
  0
SEQEND
  5
427
330
422
100
AcDbEntity
  8
Ebene 1
370
    18
  0
POLYLINE
  5
428
330
1F
100
AcDbEntity
  8
Ebene 1
 62
   179
420
  1709851
370
    18
100
AcDb2dPolyline
 66
     1
 10
0.0
 20
0.0
 30
0.0
  0
VERTEX
  5
429
330
428
100
AcDbEntity
  8
Ebene 1
 62
   179
420
  1709851
370
    18
100
AcDbVertex
100
AcDb2dVertex
 10
116.8011392937164
 20
-162.7332193603584
 30
0.0
  0
VERTEX
  5
42A
330
428
100
AcDbEntity
  8
Ebene 1
 62
   179
420
  1709851
370
    18
100
AcDbVertex
100
AcDb2dVertex
 10
116.7587646192478
 20
-162.6057508274041
 30
0.0
  0
VERTEX
  5
42B
330
428
100
AcDbEntity
  8
Ebene 1
 62
   179
420
  1709851
370
    18
100
AcDbVertex
100
AcDb2dVertex
 10
116.6530001878507
 20
-162.5423610704755
 30
0.0
  0
VERTEX
  5
42C
330
428
100
AcDbEntity
  8
Ebene 1
 62
   179
420
  1709851
370
    18
100
AcDbVertex
100
AcDb2dVertex
 10
116.5258761644449
 20
-162.5423610704755
 30
0.0
  0
VERTEX
  5
42D
330
428
100
AcDbEntity
  8
Ebene 1
 62
   179
420
  1709851
370
    18
100
AcDbVertex
100
AcDb2dVertex
 10
116.4838459995249
 20
-162.5637206624841
 30
0.0
  0
SEQEND
  5
42E
330
428
100
AcDbEntity
  8
Ebene 1
370
    18
  0
POLYLINE
  5
42F
330
1F
100
AcDbEntity
  8
Ebene 1
 62
   179
420
  1709851
370
    18
100
AcDb2dPolyline
 66
     1
 10
0.0
 20
0.0
 30
0.0
  0
VERTEX
  5
430
330
42F
100
AcDbEntity
  8
Ebene 1
 62
   179
420
  1709851
370
    18
100
AcDbVertex
100
AcDb2dVertex
 10
116.1451931133248
 20
-163.114246921027
 30
0.0
  0
VERTEX
  5
431
330
42F
100
AcDbEntity
  8
Ebene 1
 62
   179
420
  1709851
370
    18
100
AcDbVertex
100
AcDb2dVertex
 10
116.1875677877934
 20
-163.2410264348842
 30
0.0
  0
VERTEX
  5
432
330
42F
100
AcDbEntity
  8
Ebene 1
 62
   179
420
  1709851
370
    18
100
AcDbVertex
100
AcDb2dVertex
 10
116.2933322191906
 20
-163.3257757838213
 30
0.0
  0
VERTEX
  5
433
330
42F
100
AcDbEntity
  8
Ebene 1
 62
   179
420
  1709851
370
    18
100
AcDbVertex
100
AcDb2dVertex
 10
116.4414713250563
 20
-163.3257757838213
 30
0.0
  0
VERTEX
  5
434
330
42F
100
AcDbEntity
  8
Ebene 1
 62
   179
420
  1709851
370
    18
100
AcDbVertex
100
AcDb2dVertex
 10
116.4838459995249
 20
-163.3044161918128
 30
0.0
  0
SEQEND
  5
435
330
42F
100
AcDbEntity
  8
Ebene 1
370
    18
  0
POLYLINE
  5
436
330
1F
100
AcDbEntity
  8
Ebene 1
 62
   179
420
  1709851
370
    18
100
AcDb2dPolyline
 66
     1
 10
0.0
 20
0.0
 30
0.0
  0
VERTEX
  5
437
330
436
100
AcDbEntity
  8
Ebene 1
 62
   179
420
  1709851
370
    18
100
AcDbVertex
100
AcDb2dVertex
 10
116.4838459995249
 20
-162.5637206624841
 30
0.0
  0
VERTEX
  5
438
330
436
100
AcDbEntity
  8
Ebene 1
 62
   179
420
  1709851
370
    18
100
AcDbVertex
100
AcDb2dVertex
 10
116.2933322191906
 20
-162.7118597683498
 30
0.0
  0
VERTEX
  5
439
330
436
100
AcDbEntity
  8
Ebene 1
 62
   179
420
  1709851
370
    18
100
AcDbVertex
100
AcDb2dVertex
 10
116.1872232782449
 20
-162.9027180582327
 30
0.0
  0
VERTEX
  5
43A
330
436
100
AcDbEntity
  8
Ebene 1
 62
   179
420
  1709851
370
    18
100
AcDbVertex
100
AcDb2dVertex
 10
116.1451931133248
 20
-163.114246921027
 30
0.0
  0
SEQEND
  5
43B
330
436
100
AcDbEntity
  8
Ebene 1
370
    18
  0
POLYLINE
  5
43C
330
1F
100
AcDbEntity
  8
Ebene 1
 62
   179
420
  1709851
370
    18
100
AcDb2dPolyline
 66
     1
 10
0.0
 20
0.0
 30
0.0
  0
VERTEX
  5
43D
330
43C
100
AcDbEntity
  8
Ebene 1
 62
   179
420
  1709851
370
    18
100
AcDbVertex
100
AcDb2dVertex
 10
116.4838459995249
 20
-163.3044161918128
 30
0.0
  0
VERTEX
  5
43E
330
43C
100
AcDbEntity
  8
Ebene 1
 62
   179
420
  1709851
370
    18
100
AcDbVertex
100
AcDb2dVertex
 10
116.6530001878507
 20
-163.156277085947
 30
0.0
  0
VERTEX
  5
43F
330
43C
100
AcDbEntity
  8
Ebene 1
 62
   179
420
  1709851
370
    18
100
AcDbVertex
100
AcDb2dVertex
 10
116.7587646192478
 20
-162.9447482231527
 30
0.0
  0
VERTEX
  5
440
330
43C
100
AcDbEntity
  8
Ebene 1
 62
   179
420
  1709851
370
    18
100
AcDbVertex
100
AcDb2dVertex
 10
116.8011392937164
 20
-162.7332193603584
 30
0.0
  0
SEQEND
  5
441
330
43C
100
AcDbEntity
  8
Ebene 1
370
    18
  0
POLYLINE
  5
442
330
1F
100
AcDbEntity
  8
Ebene 1
 62
   179
420
  1709851
370
    18
100
AcDb2dPolyline
 66
     1
 10
0.0
 20
0.0
 30
0.0
  0
VERTEX
  5
443
330
442
100
AcDbEntity
  8
Ebene 1
 62
   179
420
  1709851
370
    18
100
AcDbVertex
100
AcDb2dVertex
 10
116.4838459995249
 20
-157.9280001775319
 30
0.0
  0
VERTEX
  5
444
330
442
100
AcDbEntity
  8
Ebene 1
 62
   179
420
  1709851
370
    18
100
AcDbVertex
100
AcDb2dVertex
 10
116.1238335213163
 20
-158.1822482243433
 30
0.0
  0
VERTEX
  5
445
330
442
100
AcDbEntity
  8
Ebene 1
 62
   179
420
  1709851
370
    18
100
AcDbVertex
100
AcDb2dVertex
 10
115.8275553095848
 20
-158.4998860280834
 30
0.0
  0
VERTEX
  5
446
330
442
100
AcDbEntity
  8
Ebene 1
 62
   179
420
  1709851
370
    18
100
AcDbVertex
100
AcDb2dVertex
 10
115.6160264467904
 20
-158.8595539967434
 30
0.0
  0
VERTEX
  5
447
330
442
100
AcDbEntity
  8
Ebene 1
 62
   179
420
  1709851
370
    18
100
AcDbVertex
100
AcDb2dVertex
 10
115.4678873409247
 20
-159.2619411494206
 30
0.0
  0
VERTEX
  5
448
330
442
100
AcDbEntity
  8
Ebene 1
 62
   179
420
  1709851
370
    18
100
AcDbVertex
100
AcDb2dVertex
 10
115.4255126664561
 20
-159.5368597691436
 30
0.0
  0
SEQEND
  5
449
330
442
100
AcDbEntity
  8
Ebene 1
370
    18
  0
POLYLINE
  5
44A
330
1F
100
AcDbEntity
  8
Ebene 1
 62
   179
420
  1709851
370
    18
100
AcDb2dPolyline
 66
     1
 10
0.0
 20
0.0
 30
0.0
  0
VERTEX
  5
44B
330
44A
100
AcDbEntity
  8
Ebene 1
 62
   179
420
  1709851
370
    18
100
AcDbVertex
100
AcDb2dVertex
 10
116.4838459995249
 20
-164.1725802540957
 30
0.0
  0
VERTEX
  5
44C
330
44A
100
AcDbEntity
  8
Ebene 1
 62
   179
420
  1709851
370
    18
100
AcDbVertex
100
AcDb2dVertex
 10
116.8224988857249
 20
-163.9396917992929
 30
0.0
  0
VERTEX
  5
44D
330
44A
100
AcDbEntity
  8
Ebene 1
 62
   179
420
  1709851
370
    18
100
AcDbVertex
100
AcDb2dVertex
 10
117.1187770974564
 20
-163.6220539955528
 30
0.0
  0
VERTEX
  5
44E
330
44A
100
AcDbEntity
  8
Ebene 1
 62
   179
420
  1709851
370
    18
100
AcDbVertex
100
AcDb2dVertex
 10
117.3303059602508
 20
-163.2623860268928
 30
0.0
  0
VERTEX
  5
44F
330
44A
100
AcDbEntity
  8
Ebene 1
 62
   179
420
  1709851
370
    18
100
AcDbVertex
100
AcDb2dVertex
 10
117.4784450661165
 20
-162.8599988742156
 30
0.0
  0
VERTEX
  5
450
330
44A
100
AcDbEntity
  8
Ebene 1
 62
   179
420
  1709851
370
    18
100
AcDbVertex
100
AcDb2dVertex
 10
117.5421793325936
 20
-162.5637206624841
 30
0.0
  0
SEQEND
  5
451
330
44A
100
AcDbEntity
  8
Ebene 1
370
    18
  0
POLYLINE
  5
452
330
1F
100
AcDbEntity
  8
Ebene 1
 62
   179
420
  1709851
370
    18
100
AcDb2dPolyline
 66
     1
 10
0.0
 20
0.0
 30
0.0
  0
VERTEX
  5
453
330
452
100
AcDbEntity
  8
Ebene 1
 62
   179
420
  1709851
370
    18
100
AcDbVertex
100
AcDb2dVertex
 10
112.038639294907
 20
-157.970719361549
 30
0.0
  0
VERTEX
  5
454
330
452
100
AcDbEntity
  8
Ebene 1
 62
   179
420
  1709851
370
    18
100
AcDbVertex
100
AcDb2dVertex
 10
112.038639294907
 20
-156.742887330606
 30
0.0
  0
SEQEND
  5
455
330
452
100
AcDbEntity
  8
Ebene 1
370
    18
  0
POLYLINE
  5
456
330
1F
100
AcDbEntity
  8
Ebene 1
 62
   179
420
  1709851
370
    18
100
AcDb2dPolyline
 66
     1
 10
0.0
 20
0.0
 30
0.0
  0
VERTEX
  5
457
330
456
100
AcDbEntity
  8
Ebene 1
 62
   179
420
  1709851
370
    18
100
AcDbVertex
100
AcDb2dVertex
 10
112.038639294907
 20
-160.9548610708724
 30
0.0
  0
VERTEX
  5
458
330
456
100
AcDbEntity
  8
Ebene 1
 62
   179
420
  1709851
370
    18
100
AcDbVertex
100
AcDb2dVertex
 10
112.038639294907
 20
-158.9656629376892
 30
0.0
  0
SEQEND
  5
459
330
456
100
AcDbEntity
  8
Ebene 1
370
    18
  0
POLYLINE
  5
45A
330
1F
100
AcDbEntity
  8
Ebene 1
 62
   179
420
  1709851
370
    18
100
AcDb2dPolyline
 66
     1
 10
0.0
 20
0.0
 30
0.0
  0
VERTEX
  5
45B
330
45A
100
AcDbEntity
  8
Ebene 1
 62
   179
420
  1709851
370
    18
100
AcDbVertex
100
AcDb2dVertex
 10
112.038639294907
 20
-163.9610513913014
 30
0.0
  0
VERTEX
  5
45C
330
45A
100
AcDbEntity
  8
Ebene 1
 62
   179
420
  1709851
370
    18
100
AcDbVertex
100
AcDb2dVertex
 10
112.038639294907
 20
-161.9711642390211
 30
0.0
  0
SEQEND
  5
45D
330
45A
100
AcDbEntity
  8
Ebene 1
370
    18
  0
POLYLINE
  5
45E
330
1F
100
AcDbEntity
  8
Ebene 1
 62
   179
420
  1709851
370
    18
100
AcDb2dPolyline
 66
     1
 10
0.0
 20
0.0
 30
0.0
  0
VERTEX
  5
45F
330
45E
100
AcDbEntity
  8
Ebene 1
 62
   179
420
  1709851
370
    18
100
AcDbVertex
100
AcDb2dVertex
 10
112.038639294907
 20
-165.9929687085018
 30
0.0
  0
VERTEX
  5
460
330
45E
100
AcDbEntity
  8
Ebene 1
 62
   179
420
  1709851
370
    18
100
AcDbVertex
100
AcDb2dVertex
 10
112.038639294907
 20
-165.9929687085018
 30
0.0
  0
VERTEX
  5
461
330
45E
100
AcDbEntity
  8
Ebene 1
 62
   179
420
  1709851
370
    18
100
AcDbVertex
100
AcDb2dVertex
 10
112.038639294907
 20
-164.9553059483445
 30
0.0
  0
SEQEND
  5
462
330
45E
100
AcDbEntity
  8
Ebene 1
370
    18
  0
POLYLINE
  5
463
330
1F
100
AcDbEntity
  8
Ebene 1
 62
   179
420
  1709851
370
    18
100
AcDb2dPolyline
 66
     1
 10
0.0
 20
0.0
 30
0.0
  0
VERTEX
  5
464
330
463
100
AcDbEntity
  8
Ebene 1
 62
   179
420
  1709851
370
    18
100
AcDbVertex
100
AcDb2dVertex
 10
112.7796793337843
 20
-166.4160264340904
 30
0.0
  0
VERTEX
  5
465
330
463
100
AcDbEntity
  8
Ebene 1
 62
   179
420
  1709851
370
    18
100
AcDbVertex
100
AcDb2dVertex
 10
113.7742784003759
 20
-166.9872232655449
 30
0.0
  0
SEQEND
  5
466
330
463
100
AcDbEntity
  8
Ebene 1
370
    18
  0
POLYLINE
  5
467
330
1F
100
AcDbEntity
  8
Ebene 1
 62
   179
420
  1709851
370
    18
100
AcDb2dPolyline
 66
     1
 10
0.0
 20
0.0
 30
0.0
  0
VERTEX
  5
468
330
467
100
AcDbEntity
  8
Ebene 1
 62
   179
420
  1709851
370
    18
100
AcDbVertex
100
AcDb2dVertex
 10
117.9869411597394
 20
-164.5536078147644
 30
0.0
  0
VERTEX
  5
469
330
467
100
AcDbEntity
  8
Ebene 1
 62
   179
420
  1709851
370
    18
100
AcDbVertex
100
AcDb2dVertex
 10
119.1720540066653
 20
-163.8763020423643
 30
0.0
  0
SEQEND
  5
46A
330
467
100
AcDbEntity
  8
Ebene 1
370
    18
  0
POLYLINE
  5
46B
330
1F
100
AcDbEntity
  8
Ebene 1
 62
   179
420
  1709851
370
    18
100
AcDb2dPolyline
 66
     1
 10
0.0
 20
0.0
 30
0.0
  0
VERTEX
  5
46C
330
46B
100
AcDbEntity
  8
Ebene 1
 62
   179
420
  1709851
370
    18
100
AcDbVertex
100
AcDb2dVertex
 10
115.4038085648991
 20
-166.0563584654303
 30
0.0
  0
VERTEX
  5
46D
330
46B
100
AcDbEntity
  8
Ebene 1
 62
   179
420
  1709851
370
    18
100
AcDbVertex
100
AcDb2dVertex
 10
117.1187770974564
 20
-165.0614148892902
 30
0.0
  0
SEQEND
  5
46E
330
46B
100
AcDbEntity
  8
Ebene 1
370
    18
  0
POLYLINE
  5
46F
330
1F
100
AcDbEntity
  8
Ebene 1
 62
   179
420
  1709851
370
    18
100
AcDb2dPolyline
 66
     1
 10
0.0
 20
0.0
 30
0.0
  0
VERTEX
  5
470
330
46F
100
AcDbEntity
  8
Ebene 1
 62
   179
420
  1709851
370
    18
100
AcDbVertex
100
AcDb2dVertex
 10
113.7742784003759
 20
-166.9872232655449
 30
0.0
  0
VERTEX
  5
471
330
46F
100
AcDbEntity
  8
Ebene 1
 62
   179
420
  1709851
370
    18
100
AcDbVertex
100
AcDb2dVertex
 10
113.7742784003759
 20
-166.9872232655449
 30
0.0
  0
VERTEX
  5
472
330
46F
100
AcDbEntity
  8
Ebene 1
 62
   179
420
  1709851
370
    18
100
AcDbVertex
100
AcDb2dVertex
 10
114.5363335217131
 20
-166.5428059479476
 30
0.0
  0
SEQEND
  5
473
330
46F
100
AcDbEntity
  8
Ebene 1
370
    18
  0
POLYLINE
  5
474
330
1F
100
AcDbEntity
  8
Ebene 1
 62
   179
420
  1709851
370
    18
100
AcDb2dPolyline
 66
     1
 10
0.0
 20
0.0
 30
0.0
  0
VERTEX
  5
475
330
474
100
AcDbEntity
  8
Ebene 1
 62
   179
420
  1709851
370
    18
100
AcDbVertex
100
AcDb2dVertex
 10
119.1720540066653
 20
-154.965218060217
 30
0.0
  0
VERTEX
  5
476
330
474
100
AcDbEntity
  8
Ebene 1
 62
   179
420
  1709851
370
    18
100
AcDbVertex
100
AcDb2dVertex
 10
119.1720540066653
 20
-154.6262206644685
 30
0.0
  0
SEQEND
  5
477
330
474
100
AcDbEntity
  8
Ebene 1
370
    18
  0
POLYLINE
  5
478
330
1F
100
AcDbEntity
  8
Ebene 1
 62
   179
420
  1709851
370
    18
100
AcDb2dPolyline
 66
     1
 10
0.0
 20
0.0
 30
0.0
  0
VERTEX
  5
479
330
478
100
AcDbEntity
  8
Ebene 1
 62
   179
420
  1709851
370
    18
100
AcDbVertex
100
AcDb2dVertex
 10
119.1720540066653
 20
-157.970719361549
 30
0.0
  0
VERTEX
  5
47A
330
478
100
AcDbEntity
  8
Ebene 1
 62
   179
420
  1709851
370
    18
100
AcDbVertex
100
AcDb2dVertex
 10
119.1720540066653
 20
-155.9594726172601
 30
0.0
  0
SEQEND
  5
47B
330
478
100
AcDbEntity
  8
Ebene 1
370
    18
  0
POLYLINE
  5
47C
330
1F
100
AcDbEntity
  8
Ebene 1
 62
   179
420
  1709851
370
    18
100
AcDb2dPolyline
 66
     1
 10
0.0
 20
0.0
 30
0.0
  0
VERTEX
  5
47D
330
47C
100
AcDbEntity
  8
Ebene 1
 62
   179
420
  1709851
370
    18
100
AcDbVertex
100
AcDb2dVertex
 10
119.1720540066653
 20
-160.9548610708724
 30
0.0
  0
VERTEX
  5
47E
330
47C
100
AcDbEntity
  8
Ebene 1
 62
   179
420
  1709851
370
    18
100
AcDbVertex
100
AcDb2dVertex
 10
119.1720540066653
 20
-158.9656629376892
 30
0.0
  0
SEQEND
  5
47F
330
47C
100
AcDbEntity
  8
Ebene 1
370
    18
  0
POLYLINE
  5
480
330
1F
100
AcDbEntity
  8
Ebene 1
 62
   179
420
  1709851
370
    18
100
AcDb2dPolyline
 66
     1
 10
0.0
 20
0.0
 30
0.0
  0
VERTEX
  5
481
330
480
100
AcDbEntity
  8
Ebene 1
 62
   179
420
  1709851
370
    18
100
AcDbVertex
100
AcDb2dVertex
 10
119.1720540066653
 20
-163.8763020423643
 30
0.0
  0
VERTEX
  5
482
330
480
100
AcDbEntity
  8
Ebene 1
 62
   179
420
  1709851
370
    18
100
AcDbVertex
100
AcDb2dVertex
 10
119.1720540066653
 20
-163.8763020423643
 30
0.0
  0
VERTEX
  5
483
330
480
100
AcDbEntity
  8
Ebene 1
 62
   179
420
  1709851
370
    18
100
AcDbVertex
100
AcDb2dVertex
 10
119.1720540066653
 20
-161.9711642390211
 30
0.0
  0
SEQEND
  5
484
330
480
100
AcDbEntity
  8
Ebene 1
370
    18
  0
POLYLINE
  5
485
330
1F
100
AcDbEntity
  8
Ebene 1
 62
   179
420
  1709851
370
    18
100
AcDb2dPolyline
 66
     1
 10
0.0
 20
0.0
 30
0.0
  0
VERTEX
  5
486
330
485
100
AcDbEntity
  8
Ebene 1
 62
   179
420
  1709851
370
    18
100
AcDbVertex
100
AcDb2dVertex
 10
109.4348361271552
 20
-142.9633666634779
 30
0.0
  0
VERTEX
  5
487
330
485
100
AcDbEntity
  8
Ebene 1
 62
   179
420
  1709851
370
    18
100
AcDbVertex
100
AcDb2dVertex
 10
109.4348361271552
 20
-141.7358791420834
 30
0.0
  0
SEQEND
  5
488
330
485
100
AcDbEntity
  8
Ebene 1
370
    18
  0
POLYLINE
  5
489
330
1F
100
AcDbEntity
  8
Ebene 1
 62
   179
420
  1709851
370
    18
100
AcDb2dPolyline
 66
     1
 10
0.0
 20
0.0
 30
0.0
  0
VERTEX
  5
48A
330
489
100
AcDbEntity
  8
Ebene 1
 62
   179
420
  1709851
370
    18
100
AcDbVertex
100
AcDb2dVertex
 10
109.4348361271552
 20
-144.4874769061524
 30
0.0
  0
VERTEX
  5
48B
330
489
100
AcDbEntity
  8
Ebene 1
 62
   179
420
  1709851
370
    18
100
AcDbVertex
100
AcDb2dVertex
 10
109.4348361271552
 20
-144.4874769061524
 30
0.0
  0
VERTEX
  5
48C
330
489
100
AcDbEntity
  8
Ebene 1
 62
   179
420
  1709851
370
    18
100
AcDbVertex
100
AcDb2dVertex
 10
109.4348361271552
 20
-143.9583102396181
 30
0.0
  0
SEQEND
  5
48D
330
489
100
AcDbEntity
  8
Ebene 1
370
    18
  0
POLYLINE
  5
48E
330
1F
100
AcDbEntity
  8
Ebene 1
 62
   179
420
  1709851
370
    18
100
AcDb2dPolyline
 66
     1
 10
0.0
 20
0.0
 30
0.0
  0
VERTEX
  5
48F
330
48E
100
AcDbEntity
  8
Ebene 1
 62
   179
420
  1709851
370
    18
100
AcDbVertex
100
AcDb2dVertex
 10
111.0440402283154
 20
-145.4186862158155
 30
0.0
  0
VERTEX
  5
490
330
48E
100
AcDbEntity
  8
Ebene 1
 62
   179
420
  1709851
370
    18
100
AcDbVertex
100
AcDb2dVertex
 10
111.1704752326241
 20
-145.5034355647526
 30
0.0
  0
SEQEND
  5
491
330
48E
100
AcDbEntity
  8
Ebene 1
370
    18
  0
POLYLINE
  5
492
330
1F
100
AcDbEntity
  8
Ebene 1
 62
   179
420
  1709851
370
    18
100
AcDb2dPolyline
 66
     1
 10
0.0
 20
0.0
 30
0.0
  0
VERTEX
  5
493
330
492
100
AcDbEntity
  8
Ebene 1
 62
   179
420
  1709851
370
    18
100
AcDbVertex
100
AcDb2dVertex
 10
109.4348361271552
 20
-144.4874769061524
 30
0.0
  0
VERTEX
  5
494
330
492
100
AcDbEntity
  8
Ebene 1
 62
   179
420
  1709851
370
    18
100
AcDbVertex
100
AcDb2dVertex
 10
109.4348361271552
 20
-144.4874769061524
 30
0.0
  0
VERTEX
  5
495
330
492
100
AcDbEntity
  8
Ebene 1
 62
   179
420
  1709851
370
    18
100
AcDbVertex
100
AcDb2dVertex
 10
110.1758761660324
 20
-144.9108791412897
 30
0.0
  0
SEQEND
  5
496
330
492
100
AcDbEntity
  8
Ebene 1
370
    18
  0
POLYLINE
  5
497
330
1F
100
AcDbEntity
  8
Ebene 1
 62
   179
420
  1709851
370
    18
100
AcDb2dPolyline
 66
     1
 10
0.0
 20
0.0
 30
0.0
  0
VERTEX
  5
498
330
497
100
AcDbEntity
  8
Ebene 1
 62
   179
420
  1709851
370
    18
100
AcDbVertex
100
AcDb2dVertex
 10
111.1704752326241
 20
-142.9633666634779
 30
0.0
  0
VERTEX
  5
499
330
497
100
AcDbEntity
  8
Ebene 1
 62
   179
420
  1709851
370
    18
100
AcDbVertex
100
AcDb2dVertex
 10
111.1704752326241
 20
-140.9738240207461
 30
0.0
  0
SEQEND
  5
49A
330
497
100
AcDbEntity
  8
Ebene 1
370
    18
  0
POLYLINE
  5
49B
330
1F
100
AcDbEntity
  8
Ebene 1
 62
   179
420
  1709851
370
    18
100
AcDb2dPolyline
 66
     1
 10
0.0
 20
0.0
 30
0.0
  0
VERTEX
  5
49C
330
49B
100
AcDbEntity
  8
Ebene 1
 62
   179
420
  1709851
370
    18
100
AcDbVertex
100
AcDb2dVertex
 10
111.1704752326241
 20
-145.5034355647526
 30
0.0
  0
VERTEX
  5
49D
330
49B
100
AcDbEntity
  8
Ebene 1
 62
   179
420
  1709851
370
    18
100
AcDbVertex
100
AcDb2dVertex
 10
111.1704752326241
 20
-143.9583102396181
 30
0.0
  0
SEQEND
  5
49E
330
49B
100
AcDbEntity
  8
Ebene 1
370
    18
  0
POLYLINE
  5
49F
330
1F
100
AcDbEntity
  8
Ebene 1
 62
   179
420
  1709851
370
    18
100
AcDb2dPolyline
 66
     1
 10
0.0
 20
0.0
 30
0.0
  0
VERTEX
  5
4A0
330
49F
100
AcDbEntity
  8
Ebene 1
 62
   179
420
  1709851
370
    18
100
AcDbVertex
100
AcDb2dVertex
 10
115.8275553095848
 20
-142.8152275576122
 30
0.0
  0
VERTEX
  5
4A1
330
49F
100
AcDbEntity
  8
Ebene 1
 62
   179
420
  1709851
370
    18
100
AcDbVertex
100
AcDb2dVertex
 10
116.5896104309221
 20
-142.3708102400149
 30
0.0
  0
SEQEND
  5
4A2
330
49F
100
AcDbEntity
  8
Ebene 1
370
    18
  0
POLYLINE
  5
4A3
330
1F
100
AcDbEntity
  8
Ebene 1
 62
   179
420
  1709851
370
    18
100
AcDb2dPolyline
 66
     1
 10
0.0
 20
0.0
 30
0.0
  0
VERTEX
  5
4A4
330
4A3
100
AcDbEntity
  8
Ebene 1
 62
   179
420
  1709851
370
    18
100
AcDbVertex
100
AcDb2dVertex
 10
113.22444116093
 20
-144.2969631258181
 30
0.0
  0
VERTEX
  5
4A5
330
4A3
100
AcDbEntity
  8
Ebene 1
 62
   179
420
  1709851
370
    18
100
AcDbVertex
100
AcDb2dVertex
 10
114.9593912473018
 20
-143.302019549678
 30
0.0
  0
SEQEND
  5
4A6
330
4A3
100
AcDbEntity
  8
Ebene 1
370
    18
  0
POLYLINE
  5
4A7
330
1F
100
AcDbEntity
  8
Ebene 1
 62
   179
420
  1709851
370
    18
100
AcDb2dPolyline
 66
     1
 10
0.0
 20
0.0
 30
0.0
  0
VERTEX
  5
4A8
330
4A7
100
AcDbEntity
  8
Ebene 1
 62
   179
420
  1709851
370
    18
100
AcDbVertex
100
AcDb2dVertex
 10
111.1704752326241
 20
-145.5034355647526
 30
0.0
  0
VERTEX
  5
4A9
330
4A7
100
AcDbEntity
  8
Ebene 1
 62
   179
420
  1709851
370
    18
100
AcDbVertex
100
AcDb2dVertex
 10
112.356277098647
 20
-144.804770200344
 30
0.0
  0
SEQEND
  5
4AA
330
4A7
100
AcDbEntity
  8
Ebene 1
370
    18
  0
POLYLINE
  5
4AB
330
1F
100
AcDbEntity
  8
Ebene 1
 62
   179
420
  1709851
370
    18
100
AcDb2dPolyline
 66
     1
 10
0.0
 20
0.0
 30
0.0
  0
VERTEX
  5
4AC
330
4AB
100
AcDbEntity
  8
Ebene 1
 62
   179
420
  1709851
370
    18
100
AcDbVertex
100
AcDb2dVertex
 10
116.5896104309221
 20
-139.957865362146
 30
0.0
  0
VERTEX
  5
4AD
330
4AB
100
AcDbEntity
  8
Ebene 1
 62
   179
420
  1709851
370
    18
100
AcDbVertex
100
AcDb2dVertex
 10
116.5896104309221
 20
-137.9679782098657
 30
0.0
  0
SEQEND
  5
4AE
330
4AB
100
AcDbEntity
  8
Ebene 1
370
    18
  0
POLYLINE
  5
4AF
330
1F
100
AcDbEntity
  8
Ebene 1
 62
   179
420
  1709851
370
    18
100
AcDb2dPolyline
 66
     1
 10
0.0
 20
0.0
 30
0.0
  0
VERTEX
  5
4B0
330
4AF
100
AcDbEntity
  8
Ebene 1
 62
   179
420
  1709851
370
    18
100
AcDbVertex
100
AcDb2dVertex
 10
116.5896104309221
 20
-142.3708102400149
 30
0.0
  0
VERTEX
  5
4B1
330
4AF
100
AcDbEntity
  8
Ebene 1
 62
   179
420
  1709851
370
    18
100
AcDbVertex
100
AcDb2dVertex
 10
116.5896104309221
 20
-140.9738240207461
 30
0.0
  0
SEQEND
  5
4B2
330
4AF
100
AcDbEntity
  8
Ebene 1
370
    18
  0
POLYLINE
  5
4B3
330
1F
100
AcDbEntity
  8
Ebene 1
 62
   179
420
  1709851
370
    18
100
AcDb2dPolyline
 66
     1
 10
0.0
 20
0.0
 30
0.0
  0
VERTEX
  5
4B4
330
4B3
100
AcDbEntity
  8
Ebene 1
 62
   179
420
  1709851
370
    18
100
AcDbVertex
100
AcDb2dVertex
 10
116.5896104309221
 20
-124.9717000013092
 30
0.0
  0
VERTEX
  5
4B5
330
4B3
100
AcDbEntity
  8
Ebene 1
 62
   179
420
  1709851
370
    18
100
AcDbVertex
100
AcDb2dVertex
 10
116.5896104309221
 20
-122.9607977665688
 30
0.0
  0
SEQEND
  5
4B6
330
4B3
100
AcDbEntity
  8
Ebene 1
370
    18
  0
POLYLINE
  5
4B7
330
1F
100
AcDbEntity
  8
Ebene 1
 62
   179
420
  1709851
370
    18
100
AcDb2dPolyline
 66
     1
 10
0.0
 20
0.0
 30
0.0
  0
VERTEX
  5
4B8
330
4B7
100
AcDbEntity
  8
Ebene 1
 62
   179
420
  1709851
370
    18
100
AcDbVertex
100
AcDb2dVertex
 10
116.5896104309221
 20
-127.9775458121896
 30
0.0
  0
VERTEX
  5
4B9
330
4B7
100
AcDbEntity
  8
Ebene 1
 62
   179
420
  1709851
370
    18
100
AcDbVertex
100
AcDb2dVertex
 10
116.5896104309221
 20
-125.9666435774493
 30
0.0
  0
SEQEND
  5
4BA
330
4B7
100
AcDbEntity
  8
Ebene 1
370
    18
  0
POLYLINE
  5
4BB
330
1F
100
AcDbEntity
  8
Ebene 1
 62
   179
420
  1709851
370
    18
100
AcDb2dPolyline
 66
     1
 10
0.0
 20
0.0
 30
0.0
  0
VERTEX
  5
4BC
330
4BB
100
AcDbEntity
  8
Ebene 1
 62
   179
420
  1709851
370
    18
100
AcDbVertex
100
AcDb2dVertex
 10
116.5896104309221
 20
-130.9620320310616
 30
0.0
  0
VERTEX
  5
4BD
330
4BB
100
AcDbEntity
  8
Ebene 1
 62
   179
420
  1709851
370
    18
100
AcDbVertex
100
AcDb2dVertex
 10
116.5896104309221
 20
-128.9721448787813
 30
0.0
  0
SEQEND
  5
4BE
330
4BB
100
AcDbEntity
  8
Ebene 1
370
    18
  0
POLYLINE
  5
4BF
330
1F
100
AcDbEntity
  8
Ebene 1
 62
   179
420
  1709851
370
    18
100
AcDb2dPolyline
 66
     1
 10
0.0
 20
0.0
 30
0.0
  0
VERTEX
  5
4C0
330
4BF
100
AcDbEntity
  8
Ebene 1
 62
   179
420
  1709851
370
    18
100
AcDbVertex
100
AcDb2dVertex
 10
116.5896104309221
 20
-132.8668253248562
 30
0.0
  0
VERTEX
  5
4C1
330
4BF
100
AcDbEntity
  8
Ebene 1
 62
   179
420
  1709851
370
    18
100
AcDbVertex
100
AcDb2dVertex
 10
116.5896104309221
 20
-131.9779906896618
 30
0.0
  0
SEQEND
  5
4C2
330
4BF
100
AcDbEntity
  8
Ebene 1
370
    18
  0
POLYLINE
  5
4C3
330
1F
100
AcDbEntity
  8
Ebene 1
 62
   179
420
  1709851
370
    18
100
AcDb2dPolyline
 66
     1
 10
0.0
 20
0.0
 30
0.0
  0
VERTEX
  5
4C4
330
4C3
100
AcDbEntity
  8
Ebene 1
 62
   179
420
  1709851
370
    18
100
AcDbVertex
100
AcDb2dVertex
 10
114.8539713254532
 20
-121.3732977669657
 30
0.0
  0
VERTEX
  5
4C5
330
4C3
100
AcDbEntity
  8
Ebene 1
 62
   179
420
  1709851
370
    18
100
AcDbVertex
100
AcDb2dVertex
 10
114.8539713254532
 20
-121.3732977669657
 30
0.0
  0
VERTEX
  5
4C6
330
4C3
100
AcDbEntity
  8
Ebene 1
 62
   179
420
  1709851
370
    18
100
AcDbVertex
100
AcDb2dVertex
 10
116.3357068936591
 20
-122.2411173197001
 30
0.0
  0
SEQEND
  5
4C7
330
4C3
100
AcDbEntity
  8
Ebene 1
370
    18
  0
POLYLINE
  5
4C8
330
1F
100
AcDbEntity
  8
Ebene 1
 62
   179
420
  1709851
370
    18
100
AcDb2dPolyline
 66
     1
 10
0.0
 20
0.0
 30
0.0
  0
VERTEX
  5
4C9
330
4C8
100
AcDbEntity
  8
Ebene 1
 62
   179
420
  1709851
370
    18
100
AcDbVertex
100
AcDb2dVertex
 10
114.9593912473018
 20
-123.2994506527689
 30
0.0
  0
VERTEX
  5
4CA
330
4C8
100
AcDbEntity
  8
Ebene 1
 62
   179
420
  1709851
370
    18
100
AcDbVertex
100
AcDb2dVertex
 10
116.5896104309221
 20
-122.3682413431059
 30
0.0
  0
SEQEND
  5
4CB
330
4C8
100
AcDbEntity
  8
Ebene 1
370
    18
  0
POLYLINE
  5
4CC
330
1F
100
AcDbEntity
  8
Ebene 1
 62
   179
420
  1709851
370
    18
100
AcDb2dPolyline
 66
     1
 10
0.0
 20
0.0
 30
0.0
  0
VERTEX
  5
4CD
330
4CC
100
AcDbEntity
  8
Ebene 1
 62
   179
420
  1709851
370
    18
100
AcDbVertex
100
AcDb2dVertex
 10
112.356277098647
 20
-124.8025458129834
 30
0.0
  0
VERTEX
  5
4CE
330
4CC
100
AcDbEntity
  8
Ebene 1
 62
   179
420
  1709851
370
    18
100
AcDbVertex
100
AcDb2dVertex
 10
114.0919162041159
 20
-123.8076022368432
 30
0.0
  0
SEQEND
  5
4CF
330
4CC
100
AcDbEntity
  8
Ebene 1
370
    18
  0
POLYLINE
  5
4D0
330
1F
100
AcDbEntity
  8
Ebene 1
 62
   179
420
  1709851
370
    18
100
AcDb2dPolyline
 66
     1
 10
0.0
 20
0.0
 30
0.0
  0
VERTEX
  5
4D1
330
4D0
100
AcDbEntity
  8
Ebene 1
 62
   179
420
  1709851
370
    18
100
AcDbVertex
100
AcDb2dVertex
 10
111.1704752326241
 20
-125.5008666678435
 30
0.0
  0
VERTEX
  5
4D2
330
4D0
100
AcDbEntity
  8
Ebene 1
 62
   179
420
  1709851
370
    18
100
AcDbVertex
100
AcDb2dVertex
 10
111.4888020554611
 20
-125.3103528875092
 30
0.0
  0
SEQEND
  5
4D3
330
4D0
100
AcDbEntity
  8
Ebene 1
370
    18
  0
POLYLINE
  5
4D4
330
1F
100
AcDbEntity
  8
Ebene 1
 62
   179
420
  1709851
370
    18
100
AcDb2dPolyline
 66
     1
 10
0.0
 20
0.0
 30
0.0
  0
VERTEX
  5
4D5
330
4D4
100
AcDbEntity
  8
Ebene 1
 62
   179
420
  1709851
370
    18
100
AcDbVertex
100
AcDb2dVertex
 10
114.0919162041159
 20
-121.8177150845629
 30
0.0
  0
VERTEX
  5
4D6
330
4D4
100
AcDbEntity
  8
Ebene 1
 62
   179
420
  1709851
370
    18
100
AcDbVertex
100
AcDb2dVertex
 10
114.8539713254532
 20
-121.3732977669657
 30
0.0
  0
SEQEND
  5
4D7
330
4D4
100
AcDbEntity
  8
Ebene 1
370
    18
  0
POLYLINE
  5
4D8
330
1F
100
AcDbEntity
  8
Ebene 1
 62
   179
420
  1709851
370
    18
100
AcDb2dPolyline
 66
     1
 10
0.0
 20
0.0
 30
0.0
  0
VERTEX
  5
4D9
330
4D8
100
AcDbEntity
  8
Ebene 1
 62
   179
420
  1709851
370
    18
100
AcDbVertex
100
AcDb2dVertex
 10
111.4888020554611
 20
-123.2994506527689
 30
0.0
  0
VERTEX
  5
4DA
330
4D8
100
AcDbEntity
  8
Ebene 1
 62
   179
420
  1709851
370
    18
100
AcDbVertex
100
AcDb2dVertex
 10
113.22444116093
 20
-122.3048515861773
 30
0.0
  0
SEQEND
  5
4DB
330
4D8
100
AcDbEntity
  8
Ebene 1
370
    18
  0
POLYLINE
  5
4DC
330
1F
100
AcDbEntity
  8
Ebene 1
 62
   179
420
  1709851
370
    18
100
AcDb2dPolyline
 66
     1
 10
0.0
 20
0.0
 30
0.0
  0
VERTEX
  5
4DD
330
4DC
100
AcDbEntity
  8
Ebene 1
 62
   179
420
  1709851
370
    18
100
AcDbVertex
100
AcDb2dVertex
 10
109.4348361271552
 20
-124.5059230917034
 30
0.0
  0
VERTEX
  5
4DE
330
4DC
100
AcDbEntity
  8
Ebene 1
 62
   179
420
  1709851
370
    18
100
AcDbVertex
100
AcDb2dVertex
 10
109.4348361271552
 20
-124.5059230917034
 30
0.0
  0
VERTEX
  5
4DF
330
4DC
100
AcDbEntity
  8
Ebene 1
 62
   179
420
  1709851
370
    18
100
AcDbVertex
100
AcDb2dVertex
 10
110.6413085660897
 20
-123.8076022368432
 30
0.0
  0
SEQEND
  5
4E0
330
4DC
100
AcDbEntity
  8
Ebene 1
370
    18
  0
POLYLINE
  5
4E1
330
1F
100
AcDbEntity
  8
Ebene 1
 62
   179
420
  1709851
370
    18
100
AcDb2dPolyline
 66
     1
 10
0.0
 20
0.0
 30
0.0
  0
VERTEX
  5
4E2
330
4E1
100
AcDbEntity
  8
Ebene 1
 62
   179
420
  1709851
370
    18
100
AcDbVertex
100
AcDb2dVertex
 10
109.4348361271552
 20
-124.9717000013092
 30
0.0
  0
VERTEX
  5
4E3
330
4E1
100
AcDbEntity
  8
Ebene 1
 62
   179
420
  1709851
370
    18
100
AcDbVertex
100
AcDb2dVertex
 10
109.4348361271552
 20
-124.5059230917034
 30
0.0
  0
SEQEND
  5
4E4
330
4E1
100
AcDbEntity
  8
Ebene 1
370
    18
  0
POLYLINE
  5
4E5
330
1F
100
AcDbEntity
  8
Ebene 1
 62
   179
420
  1709851
370
    18
100
AcDb2dPolyline
 66
     1
 10
0.0
 20
0.0
 30
0.0
  0
VERTEX
  5
4E6
330
4E5
100
AcDbEntity
  8
Ebene 1
 62
   179
420
  1709851
370
    18
100
AcDbVertex
100
AcDb2dVertex
 10
109.4348361271552
 20
-127.9775458121896
 30
0.0
  0
VERTEX
  5
4E7
330
4E5
100
AcDbEntity
  8
Ebene 1
 62
   179
420
  1709851
370
    18
100
AcDbVertex
100
AcDb2dVertex
 10
109.4348361271552
 20
-125.9666435774493
 30
0.0
  0
SEQEND
  5
4E8
330
4E5
100
AcDbEntity
  8
Ebene 1
370
    18
  0
POLYLINE
  5
4E9
330
1F
100
AcDbEntity
  8
Ebene 1
 62
   179
420
  1709851
370
    18
100
AcDb2dPolyline
 66
     1
 10
0.0
 20
0.0
 30
0.0
  0
VERTEX
  5
4EA
330
4E9
100
AcDbEntity
  8
Ebene 1
 62
   179
420
  1709851
370
    18
100
AcDbVertex
100
AcDb2dVertex
 10
109.4348361271552
 20
-130.9620320310616
 30
0.0
  0
VERTEX
  5
4EB
330
4E9
100
AcDbEntity
  8
Ebene 1
 62
   179
420
  1709851
370
    18
100
AcDbVertex
100
AcDb2dVertex
 10
109.4348361271552
 20
-128.9721448787813
 30
0.0
  0
SEQEND
  5
4EC
330
4E9
100
AcDbEntity
  8
Ebene 1
370
    18
  0
POLYLINE
  5
4ED
330
1F
100
AcDbEntity
  8
Ebene 1
 62
   179
420
  1709851
370
    18
100
AcDb2dPolyline
 66
     1
 10
0.0
 20
0.0
 30
0.0
  0
VERTEX
  5
4EE
330
4ED
100
AcDbEntity
  8
Ebene 1
 62
   179
420
  1709851
370
    18
100
AcDbVertex
100
AcDb2dVertex
 10
109.4348361271552
 20
-131.9990057721218
 30
0.0
  0
VERTEX
  5
4EF
330
4ED
100
AcDbEntity
  8
Ebene 1
 62
   179
420
  1709851
370
    18
100
AcDbVertex
100
AcDb2dVertex
 10
109.4348361271552
 20
-131.9990057721218
 30
0.0
  0
VERTEX
  5
4F0
330
4ED
100
AcDbEntity
  8
Ebene 1
 62
   179
420
  1709851
370
    18
100
AcDbVertex
100
AcDb2dVertex
 10
109.4348361271552
 20
-131.9779906896618
 30
0.0
  0
SEQEND
  5
4F1
330
4ED
100
AcDbEntity
  8
Ebene 1
370
    18
  0
POLYLINE
  5
4F2
330
1F
100
AcDbEntity
  8
Ebene 1
 62
   179
420
  1709851
370
    18
100
AcDb2dPolyline
 66
     1
 10
0.0
 20
0.0
 30
0.0
  0
VERTEX
  5
4F3
330
4F2
100
AcDbEntity
  8
Ebene 1
 62
   179
420
  1709851
370
    18
100
AcDbVertex
100
AcDb2dVertex
 10
109.4348361271552
 20
-124.5059230917034
 30
0.0
  0
VERTEX
  5
4F4
330
4F2
100
AcDbEntity
  8
Ebene 1
 62
   179
420
  1709851
370
    18
100
AcDbVertex
100
AcDb2dVertex
 10
109.4348361271552
 20
-124.5059230917034
 30
0.0
  0
VERTEX
  5
4F5
330
4F2
100
AcDbEntity
  8
Ebene 1
 62
   179
420
  1709851
370
    18
100
AcDbVertex
100
AcDb2dVertex
 10
111.0440402283154
 20
-125.4161173189064
 30
0.0
  0
SEQEND
  5
4F6
330
4F2
100
AcDbEntity
  8
Ebene 1
370
    18
  0
POLYLINE
  5
4F7
330
1F
100
AcDbEntity
  8
Ebene 1
 62
   179
420
  1709851
370
    18
100
AcDb2dPolyline
 66
     1
 10
0.0
 20
0.0
 30
0.0
  0
VERTEX
  5
4F8
330
4F7
100
AcDbEntity
  8
Ebene 1
 62
   179
420
  1709851
370
    18
100
AcDbVertex
100
AcDb2dVertex
 10
111.1704752326241
 20
-127.9775458121896
 30
0.0
  0
VERTEX
  5
4F9
330
4F7
100
AcDbEntity
  8
Ebene 1
 62
   179
420
  1709851
370
    18
100
AcDbVertex
100
AcDb2dVertex
 10
111.1704752326241
 20
-125.9666435774493
 30
0.0
  0
SEQEND
  5
4FA
330
4F7
100
AcDbEntity
  8
Ebene 1
370
    18
  0
POLYLINE
  5
4FB
330
1F
100
AcDbEntity
  8
Ebene 1
 62
   179
420
  1709851
370
    18
100
AcDb2dPolyline
 66
     1
 10
0.0
 20
0.0
 30
0.0
  0
VERTEX
  5
4FC
330
4FB
100
AcDbEntity
  8
Ebene 1
 62
   179
420
  1709851
370
    18
100
AcDbVertex
100
AcDb2dVertex
 10
111.1704752326241
 20
-130.9620320310616
 30
0.0
  0
VERTEX
  5
4FD
330
4FB
100
AcDbEntity
  8
Ebene 1
 62
   179
420
  1709851
370
    18
100
AcDbVertex
100
AcDb2dVertex
 10
111.1704752326241
 20
-128.9721448787813
 30
0.0
  0
SEQEND
  5
4FE
330
4FB
100
AcDbEntity
  8
Ebene 1
370
    18
  0
POLYLINE
  5
4FF
330
1F
100
AcDbEntity
  8
Ebene 1
 62
   179
420
  1709851
370
    18
100
AcDb2dPolyline
 66
     1
 10
0.0
 20
0.0
 30
0.0
  0
VERTEX
  5
500
330
4FF
100
AcDbEntity
  8
Ebene 1
 62
   179
420
  1709851
370
    18
100
AcDbVertex
100
AcDb2dVertex
 10
111.1704752326241
 20
-132.9939493482619
 30
0.0
  0
VERTEX
  5
501
330
4FF
100
AcDbEntity
  8
Ebene 1
 62
   179
420
  1709851
370
    18
100
AcDbVertex
100
AcDb2dVertex
 10
111.1704752326241
 20
-131.9779906896618
 30
0.0
  0
SEQEND
  5
502
330
4FF
100
AcDbEntity
  8
Ebene 1
370
    18
  0
POLYLINE
  5
503
330
1F
100
AcDbEntity
  8
Ebene 1
 62
   179
420
  1709851
370
    18
100
AcDb2dPolyline
 66
     1
 10
0.0
 20
0.0
 30
0.0
  0
VERTEX
  5
504
330
503
100
AcDbEntity
  8
Ebene 1
 62
   179
420
  1709851
370
    18
100
AcDbVertex
100
AcDb2dVertex
 10
113.7742784003759
 20
-157.970719361549
 30
0.0
  0
VERTEX
  5
505
330
503
100
AcDbEntity
  8
Ebene 1
 62
   179
420
  1709851
370
    18
100
AcDbVertex
100
AcDb2dVertex
 10
113.7742784003759
 20
-157.7378309067461
 30
0.0
  0
SEQEND
  5
506
330
503
100
AcDbEntity
  8
Ebene 1
370
    18
  0
POLYLINE
  5
507
330
1F
100
AcDbEntity
  8
Ebene 1
 62
   179
420
  1709851
370
    18
100
AcDb2dPolyline
 66
     1
 10
0.0
 20
0.0
 30
0.0
  0
VERTEX
  5
508
330
507
100
AcDbEntity
  8
Ebene 1
 62
   179
420
  1709851
370
    18
100
AcDbVertex
100
AcDb2dVertex
 10
113.7742784003759
 20
-160.9548610708724
 30
0.0
  0
VERTEX
  5
509
330
507
100
AcDbEntity
  8
Ebene 1
 62
   179
420
  1709851
370
    18
100
AcDbVertex
100
AcDb2dVertex
 10
113.7742784003759
 20
-158.9656629376892
 30
0.0
  0
SEQEND
  5
50A
330
507
100
AcDbEntity
  8
Ebene 1
370
    18
  0
POLYLINE
  5
50B
330
1F
100
AcDbEntity
  8
Ebene 1
 62
   179
420
  1709851
370
    25
100
AcDb2dPolyline
 66
     1
 10
0.0
 20
0.0
 30
0.0
  0
VERTEX
  5
50C
330
50B
100
AcDbEntity
  8
Ebene 1
 62
   179
420
  1709851
370
    25
100
AcDbVertex
100
AcDb2dVertex
 10
96.56585419677867
 20
-160.9341904979609
 30
0.0
  0
VERTEX
  5
50D
330
50B
100
AcDbEntity
  8
Ebene 1
 62
   179
420
  1709851
370
    25
100
AcDbVertex
100
AcDb2dVertex
 10
96.56585419677867
 20
-166.4160264340904
 30
0.0
  0
SEQEND
  5
50E
330
50B
100
AcDbEntity
  8
Ebene 1
370
    25
  0
INSERT
  5
510
330
1F
100
AcDbEntity
  8
Ebene 1
100
AcDbBlockReference
  2
block 3
 10
0.0
 20
0.0
 30
0.0
  0
POLYLINE
  5
54A
330
1F
100
AcDbEntity
  8
Ebene 1
 62
   179
420
  1709851
370
    25
100
AcDb2dPolyline
 66
     1
 10
0.0
 20
0.0
 30
0.0
  0
VERTEX
  5
54B
330
54A
100
AcDbEntity
  8
Ebene 1
 62
   179
420
  1709851
370
    25
100
AcDbVertex
100
AcDb2dVertex
 10
63.56700709131312
 20
-113.3934230944815
 30
0.0
  0
VERTEX
  5
54C
330
54A
100
AcDbEntity
  8
Ebene 1
 62
   179
420
  1709851
370
    25
100
AcDbVertex
100
AcDb2dVertex
 10
63.56700709131312
 20
-145.3973266238069
 30
0.0
  0
SEQEND
  5
54D
330
54A
100
AcDbEntity
  8
Ebene 1
370
    25
  0
POLYLINE
  5
54E
330
1F
100
AcDbEntity
  8
Ebene 1
 62
   179
420
  1709851
370
    25
100
AcDb2dPolyline
 66
     1
 10
0.0
 20
0.0
 30
0.0
  0
VERTEX
  5
54F
330
54E
100
AcDbEntity
  8
Ebene 1
 62
   179
420
  1709851
370
    25
100
AcDbVertex
100
AcDb2dVertex
 10
63.56700709131312
 20
-145.3973266238069
 30
0.0
  0
VERTEX
  5
550
330
54E
100
AcDbEntity
  8
Ebene 1
 62
   179
420
  1709851
370
    25
100
AcDbVertex
100
AcDb2dVertex
 10
69.98039684665422
 20
-141.6931599580663
 30
0.0
  0
SEQEND
  5
551
330
54E
100
AcDbEntity
  8
Ebene 1
370
    25
  0
POLYLINE
  5
552
330
1F
100
AcDbEntity
  8
Ebene 1
 62
   179
420
  1709851
370
    25
100
AcDb2dPolyline
 66
     1
 10
0.0
 20
0.0
 30
0.0
  0
VERTEX
  5
553
330
552
100
AcDbEntity
  8
Ebene 1
 62
   179
420
  1709851
370
    25
100
AcDbVertex
100
AcDb2dVertex
 10
69.98039684665422
 20
-109.6892564287409
 30
0.0
  0
VERTEX
  5
554
330
552
100
AcDbEntity
  8
Ebene 1
 62
   179
420
  1709851
370
    25
100
AcDbVertex
100
AcDb2dVertex
 10
69.98039684665422
 20
-141.6931599580663
 30
0.0
  0
SEQEND
  5
555
330
552
100
AcDbEntity
  8
Ebene 1
370
    25
  0
POLYLINE
  5
556
330
1F
100
AcDbEntity
  8
Ebene 1
 62
   179
420
  1709851
370
    25
100
AcDb2dPolyline
 66
     1
 10
0.0
 20
0.0
 30
0.0
  0
VERTEX
  5
557
330
556
100
AcDbEntity
  8
Ebene 1
 62
   179
420
  1709851
370
    25
100
AcDbVertex
100
AcDb2dVertex
 10
69.98039684665422
 20
-109.6892564287409
 30
0.0
  0
VERTEX
  5
558
330
556
100
AcDbEntity
  8
Ebene 1
 62
   179
420
  1709851
370
    25
100
AcDbVertex
100
AcDb2dVertex
 10
63.56700709131312
 20
-113.3934230944815
 30
0.0
  0
VERTEX
  5
559
330
556
100
AcDbEntity
  8
Ebene 1
 62
   179
420
  1709851
370
    25
100
AcDbVertex
100
AcDb2dVertex
 10
63.03784042477874
 20
-113.09714488275
 30
0.0
  0
VERTEX
  5
55A
330
556
100
AcDbEntity
  8
Ebene 1
 62
   179
420
  1709851
370
    25
100
AcDbVertex
100
AcDb2dVertex
 10
63.03784042477874
 20
-145.0800333296154
 30
0.0
  0
VERTEX
  5
55B
330
556
100
AcDbEntity
  8
Ebene 1
 62
   179
420
  1709851
370
    25
100
AcDbVertex
100
AcDb2dVertex
 10
63.56700709131312
 20
-145.3973266238069
 30
0.0
  0
SEQEND
  5
55C
330
556
100
AcDbEntity
  8
Ebene 1
370
    25
  0
POLYLINE
  5
55D
330
1F
100
AcDbEntity
  8
Ebene 1
 62
   179
420
  1709851
370
    25
100
AcDb2dPolyline
 66
     1
 10
0.0
 20
0.0
 30
0.0
  0
VERTEX
  5
55E
330
55D
100
AcDbEntity
  8
Ebene 1
 62
   179
420
  1709851
370
    25
100
AcDbVertex
100
AcDb2dVertex
 10
63.03784042477874
 20
-113.09714488275
 30
0.0
  0
VERTEX
  5
55F
330
55D
100
AcDbEntity
  8
Ebene 1
 62
   179
420
  1709851
370
    25
100
AcDbVertex
100
AcDb2dVertex
 10
69.98039684665422
 20
-109.0967000052779
 30
0.0
  0
SEQEND
  5
560
330
55D
100
AcDbEntity
  8
Ebene 1
370
    25
  0
POLYLINE
  5
561
330
1F
100
AcDbEntity
  8
Ebene 1
 62
   179
420
  1709851
370
    18
100
AcDb2dPolyline
 66
     1
 10
0.0
 20
0.0
 30
0.0
  0
VERTEX
  5
562
330
561
100
AcDbEntity
  8
Ebene 1
 62
   179
420
  1709851
370
    18
100
AcDbVertex
100
AcDb2dVertex
 10
65.81062552608206
 20
-128.6968817495098
 30
0.0
  0
VERTEX
  5
563
330
561
100
AcDbEntity
  8
Ebene 1
 62
   179
420
  1709851
370
    18
100
AcDbVertex
100
AcDb2dVertex
 10
67.20761174535087
 20
-127.892451953704
 30
0.0
  0
SEQEND
  5
564
330
561
100
AcDbEntity
  8
Ebene 1
370
    18
  0
POLYLINE
  5
565
330
1F
100
AcDbEntity
  8
Ebene 1
 62
   179
420
  1709851
370
    18
100
AcDb2dPolyline
 66
     1
 10
0.0
 20
0.0
 30
0.0
  0
VERTEX
  5
566
330
565
100
AcDbEntity
  8
Ebene 1
 62
   179
420
  1709851
370
    18
100
AcDbVertex
100
AcDb2dVertex
 10
62.1700208720443
 20
-144.5932413375496
 30
0.0
  0
VERTEX
  5
567
330
565
100
AcDbEntity
  8
Ebene 1
 62
   179
420
  1709851
370
    18
100
AcDbVertex
100
AcDb2dVertex
 10
62.1700208720443
 20
-112.5889932986757
 30
0.0
  0
SEQEND
  5
568
330
565
100
AcDbEntity
  8
Ebene 1
370
    18
  0
POLYLINE
  5
569
330
1F
100
AcDbEntity
  8
Ebene 1
 62
   179
420
  1709851
370
    18
100
AcDb2dPolyline
 66
     1
 10
0.0
 20
0.0
 30
0.0
  0
VERTEX
  5
56A
330
569
100
AcDbEntity
  8
Ebene 1
 62
   179
420
  1709851
370
    18
100
AcDbVertex
100
AcDb2dVertex
 10
62.1700208720443
 20
-112.5889932986757
 30
0.0
  0
VERTEX
  5
56B
330
569
100
AcDbEntity
  8
Ebene 1
 62
   179
420
  1709851
370
    18
100
AcDbVertex
100
AcDb2dVertex
 10
69.11274954869404
 20
-108.5885484212036
 30
0.0
  0
SEQEND
  5
56C
330
569
100
AcDbEntity
  8
Ebene 1
370
    18
  0
POLYLINE
  5
56D
330
1F
100
AcDbEntity
  8
Ebene 1
 62
   179
420
  1709851
370
    18
100
AcDb2dPolyline
 66
     1
 10
0.0
 20
0.0
 30
0.0
  0
VERTEX
  5
56E
330
56D
100
AcDbEntity
  8
Ebene 1
 62
   179
420
  1709851
370
    18
100
AcDbVertex
100
AcDb2dVertex
 10
69.98056910142847
 20
-109.0967000052779
 30
0.0
  0
VERTEX
  5
56F
330
56D
100
AcDbEntity
  8
Ebene 1
 62
   179
420
  1709851
370
    18
100
AcDbVertex
100
AcDb2dVertex
 10
69.11274954869404
 20
-108.5885484212036
 30
0.0
  0
SEQEND
  5
570
330
56D
100
AcDbEntity
  8
Ebene 1
370
    18
  0
POLYLINE
  5
571
330
1F
100
AcDbEntity
  8
Ebene 1
 62
   179
420
  1709851
370
    18
100
AcDb2dPolyline
 66
     1
 10
0.0
 20
0.0
 30
0.0
  0
VERTEX
  5
572
330
571
100
AcDbEntity
  8
Ebene 1
 62
   179
420
  1709851
370
    18
100
AcDbVertex
100
AcDb2dVertex
 10
63.03784042477874
 20
-113.0974893922986
 30
0.0
  0
VERTEX
  5
573
330
571
100
AcDbEntity
  8
Ebene 1
 62
   179
420
  1709851
370
    18
100
AcDbVertex
100
AcDb2dVertex
 10
62.1700208720443
 20
-112.5889932986757
 30
0.0
  0
SEQEND
  5
574
330
571
100
AcDbEntity
  8
Ebene 1
370
    18
  0
POLYLINE
  5
575
330
1F
100
AcDbEntity
  8
Ebene 1
 62
   179
420
  1709851
370
    18
100
AcDb2dPolyline
 66
     1
 10
0.0
 20
0.0
 30
0.0
  0
VERTEX
  5
576
330
575
100
AcDbEntity
  8
Ebene 1
 62
   179
420
  1709851
370
    18
100
AcDbVertex
100
AcDb2dVertex
 10
63.03784042477874
 20
-145.0800333296154
 30
0.0
  0
VERTEX
  5
577
330
575
100
AcDbEntity
  8
Ebene 1
 62
   179
420
  1709851
370
    18
100
AcDbVertex
100
AcDb2dVertex
 10
62.1700208720443
 20
-144.5932413375496
 30
0.0
  0
SEQEND
  5
578
330
575
100
AcDbEntity
  8
Ebene 1
370
    18
  0
POLYLINE
  5
579
330
1F
100
AcDbEntity
  8
Ebene 1
 62
   179
420
  1709851
370
    18
100
AcDb2dPolyline
 66
     1
 10
0.0
 20
0.0
 30
0.0
  0
VERTEX
  5
57A
330
579
100
AcDbEntity
  8
Ebene 1
 62
   179
420
  1709851
370
    18
100
AcDbVertex
100
AcDb2dVertex
 10
63.82108288335029
 20
-113.2246134157043
 30
0.0
  0
VERTEX
  5
57B
330
579
100
AcDbEntity
  8
Ebene 1
 62
   179
420
  1709851
370
    18
100
AcDbVertex
100
AcDb2dVertex
 10
65.53553465158487
 20
-114.2402275647559
 30
0.0
  0
SEQEND
  5
57C
330
579
100
AcDbEntity
  8
Ebene 1
370
    18
  0
POLYLINE
  5
57D
330
1F
100
AcDbEntity
  8
Ebene 1
 62
   179
420
  1709851
370
    18
100
AcDb2dPolyline
 66
     1
 10
0.0
 20
0.0
 30
0.0
  0
VERTEX
  5
57E
330
57D
100
AcDbEntity
  8
Ebene 1
 62
   179
420
  1709851
370
    18
100
AcDbVertex
100
AcDb2dVertex
 10
61.21745197037272
 20
-111.7425333379498
 30
0.0
  0
VERTEX
  5
57F
330
57D
100
AcDbEntity
  8
Ebene 1
 62
   179
420
  1709851
370
    18
100
AcDbVertex
100
AcDb2dVertex
 10
62.95326333061585
 20
-112.7374769140899
 30
0.0
  0
SEQEND
  5
580
330
57D
100
AcDbEntity
  8
Ebene 1
370
    18
  0
POLYLINE
  5
581
330
1F
100
AcDbEntity
  8
Ebene 1
 62
   179
420
  1709851
370
    18
100
AcDb2dPolyline
 66
     1
 10
0.0
 20
0.0
 30
0.0
  0
VERTEX
  5
582
330
581
100
AcDbEntity
  8
Ebene 1
 62
   179
420
  1709851
370
    18
100
AcDbVertex
100
AcDb2dVertex
 10
58.80450709250373
 20
-110.345547118681
 30
0.0
  0
VERTEX
  5
583
330
581
100
AcDbEntity
  8
Ebene 1
 62
   179
420
  1709851
370
    18
100
AcDbVertex
100
AcDb2dVertex
 10
58.80450709250373
 20
-110.345547118681
 30
0.0
  0
VERTEX
  5
584
330
581
100
AcDbEntity
  8
Ebene 1
 62
   179
420
  1709851
370
    18
100
AcDbVertex
100
AcDb2dVertex
 10
60.34963241763829
 20
-111.2343817538754
 30
0.0
  0
SEQEND
  5
585
330
581
100
AcDbEntity
  8
Ebene 1
370
    18
  0
POLYLINE
  5
586
330
1F
100
AcDbEntity
  8
Ebene 1
 62
   179
420
  1709851
370
    18
100
AcDb2dPolyline
 66
     1
 10
0.0
 20
0.0
 30
0.0
  0
VERTEX
  5
587
330
586
100
AcDbEntity
  8
Ebene 1
 62
   179
420
  1709851
370
    18
100
AcDbVertex
100
AcDb2dVertex
 10
62.42409666408148
 20
-115.6372137840247
 30
0.0
  0
VERTEX
  5
588
330
586
100
AcDbEntity
  8
Ebene 1
 62
   179
420
  1709851
370
    18
100
AcDbVertex
100
AcDb2dVertex
 10
64.15973576955035
 20
-116.6318128506164
 30
0.0
  0
SEQEND
  5
589
330
586
100
AcDbEntity
  8
Ebene 1
370
    18
  0
POLYLINE
  5
58A
330
1F
100
AcDbEntity
  8
Ebene 1
 62
   179
420
  1709851
370
    18
100
AcDb2dPolyline
 66
     1
 10
0.0
 20
0.0
 30
0.0
  0
VERTEX
  5
58B
330
58A
100
AcDbEntity
  8
Ebene 1
 62
   179
420
  1709851
370
    18
100
AcDbVertex
100
AcDb2dVertex
 10
59.82046575110392
 20
-114.1341186238102
 30
0.0
  0
VERTEX
  5
58C
330
58A
100
AcDbEntity
  8
Ebene 1
 62
   179
420
  1709851
370
    18
100
AcDbVertex
100
AcDb2dVertex
 10
61.55627711134704
 20
-115.1290621999504
 30
0.0
  0
SEQEND
  5
58D
330
58A
100
AcDbEntity
  8
Ebene 1
370
    18
  0
POLYLINE
  5
58E
330
1F
100
AcDbEntity
  8
Ebene 1
 62
   179
420
  1709851
370
    18
100
AcDb2dPolyline
 66
     1
 10
0.0
 20
0.0
 30
0.0
  0
VERTEX
  5
58F
330
58E
100
AcDbEntity
  8
Ebene 1
 62
   179
420
  1709851
370
    18
100
AcDbVertex
100
AcDb2dVertex
 10
57.40752087323493
 20
-112.7371324045414
 30
0.0
  0
VERTEX
  5
590
330
58E
100
AcDbEntity
  8
Ebene 1
 62
   179
420
  1709851
370
    18
100
AcDbVertex
100
AcDb2dVertex
 10
57.40752087323493
 20
-112.7371324045414
 30
0.0
  0
VERTEX
  5
591
330
58E
100
AcDbEntity
  8
Ebene 1
 62
   179
420
  1709851
370
    18
100
AcDbVertex
100
AcDb2dVertex
 10
58.95264619836948
 20
-113.6266560588329
 30
0.0
  0
SEQEND
  5
592
330
58E
100
AcDbEntity
  8
Ebene 1
370
    18
  0
POLYLINE
  5
593
330
1F
100
AcDbEntity
  8
Ebene 1
 62
   179
420
  1709851
370
    18
100
AcDb2dPolyline
 66
     1
 10
0.0
 20
0.0
 30
0.0
  0
VERTEX
  5
594
330
593
100
AcDbEntity
  8
Ebene 1
 62
   179
420
  1709851
370
    18
100
AcDbVertex
100
AcDb2dVertex
 10
64.66771509885044
 20
-135.7241875203224
 30
0.0
  0
VERTEX
  5
595
330
593
100
AcDbEntity
  8
Ebene 1
 62
   179
420
  1709851
370
    18
100
AcDbVertex
100
AcDb2dVertex
 10
66.38216686708502
 20
-136.7194756060111
 30
0.0
  0
SEQEND
  5
596
330
593
100
AcDbEntity
  8
Ebene 1
370
    18
  0
POLYLINE
  5
597
330
1F
100
AcDbEntity
  8
Ebene 1
 62
   179
420
  1709851
370
    18
100
AcDb2dPolyline
 66
     1
 10
0.0
 20
0.0
 30
0.0
  0
VERTEX
  5
598
330
597
100
AcDbEntity
  8
Ebene 1
 62
   179
420
  1709851
370
    18
100
AcDbVertex
100
AcDb2dVertex
 10
62.08544377788142
 20
-134.2214368696565
 30
0.0
  0
VERTEX
  5
599
330
597
100
AcDbEntity
  8
Ebene 1
 62
   179
420
  1709851
370
    18
100
AcDbVertex
100
AcDb2dVertex
 10
63.82108288335029
 20
-135.2373955282566
 30
0.0
  0
SEQEND
  5
59A
330
597
100
AcDbEntity
  8
Ebene 1
370
    18
  0
POLYLINE
  5
59B
330
1F
100
AcDbEntity
  8
Ebene 1
 62
   179
420
  1709851
370
    18
100
AcDb2dPolyline
 66
     1
 10
0.0
 20
0.0
 30
0.0
  0
VERTEX
  5
59C
330
59B
100
AcDbEntity
  8
Ebene 1
 62
   179
420
  1709851
370
    18
100
AcDbVertex
100
AcDb2dVertex
 10
59.48181286490386
 20
-132.7397013014505
 30
0.0
  0
VERTEX
  5
59D
330
59B
100
AcDbEntity
  8
Ebene 1
 62
   179
420
  1709851
370
    18
100
AcDbVertex
100
AcDb2dVertex
 10
61.21745197037272
 20
-133.7346448775907
 30
0.0
  0
SEQEND
  5
59E
330
59B
100
AcDbEntity
  8
Ebene 1
370
    18
  0
POLYLINE
  5
59F
330
1F
100
AcDbEntity
  8
Ebene 1
 62
   179
420
  1709851
370
    18
100
AcDb2dPolyline
 66
     1
 10
0.0
 20
0.0
 30
0.0
  0
VERTEX
  5
5A0
330
59F
100
AcDbEntity
  8
Ebene 1
 62
   179
420
  1709851
370
    18
100
AcDbVertex
100
AcDb2dVertex
 10
63.29191621681591
 20
-138.1371323981914
 30
0.0
  0
VERTEX
  5
5A1
330
59F
100
AcDbEntity
  8
Ebene 1
 62
   179
420
  1709851
370
    18
100
AcDbVertex
100
AcDb2dVertex
 10
65.00636798505049
 20
-139.1110608918715
 30
0.0
  0
SEQEND
  5
5A2
330
59F
100
AcDbEntity
  8
Ebene 1
370
    18
  0
POLYLINE
  5
5A3
330
1F
100
AcDbEntity
  8
Ebene 1
 62
   179
420
  1709851
370
    18
100
AcDb2dPolyline
 66
     1
 10
0.0
 20
0.0
 30
0.0
  0
VERTEX
  5
5A4
330
5A3
100
AcDbEntity
  8
Ebene 1
 62
   179
420
  1709851
370
    18
100
AcDbVertex
100
AcDb2dVertex
 10
60.68828530383835
 20
-136.6343817475255
 30
0.0
  0
VERTEX
  5
5A5
330
5A3
100
AcDbEntity
  8
Ebene 1
 62
   179
420
  1709851
370
    18
100
AcDbVertex
100
AcDb2dVertex
 10
62.42409666408148
 20
-137.6293253236656
 30
0.0
  0
SEQEND
  5
5A6
330
5A3
100
AcDbEntity
  8
Ebene 1
370
    18
  0
POLYLINE
  5
5A7
330
1F
100
AcDbEntity
  8
Ebene 1
 62
   179
420
  1709851
370
    18
100
AcDb2dPolyline
 66
     1
 10
0.0
 20
0.0
 30
0.0
  0
VERTEX
  5
5A8
330
5A7
100
AcDbEntity
  8
Ebene 1
 62
   179
420
  1709851
370
    18
100
AcDbVertex
100
AcDb2dVertex
 10
58.10601398286934
 20
-135.1316310968595
 30
0.0
  0
VERTEX
  5
5A9
330
5A7
100
AcDbEntity
  8
Ebene 1
 62
   179
420
  1709851
370
    18
100
AcDbVertex
100
AcDb2dVertex
 10
59.82046575110392
 20
-136.1265746729996
 30
0.0
  0
SEQEND
  5
5AA
330
5A7
100
AcDbEntity
  8
Ebene 1
370
    18
  0
POLYLINE
  5
5AB
330
1F
100
AcDbEntity
  8
Ebene 1
 62
   179
420
  1709851
370
    18
100
AcDb2dPolyline
 66
     1
 10
0.0
 20
0.0
 30
0.0
  0
VERTEX
  5
5AC
330
5AB
100
AcDbEntity
  8
Ebene 1
 62
   179
420
  1709851
370
    18
100
AcDbVertex
100
AcDb2dVertex
 10
66.4033542043193
 20
-115.6795884584933
 30
0.0
  0
VERTEX
  5
5AD
330
5AB
100
AcDbEntity
  8
Ebene 1
 62
   179
420
  1709851
370
    18
100
AcDbVertex
100
AcDb2dVertex
 10
65.62011174574775
 20
-117.6901461836851
 30
0.0
  0
VERTEX
  5
5AE
330
5AB
100
AcDbEntity
  8
Ebene 1
 62
   179
420
  1709851
370
    18
100
AcDbVertex
100
AcDb2dVertex
 10
66.4033542043193
 20
-118.7908541912224
 30
0.0
  0
SEQEND
  5
5AF
330
5AB
100
AcDbEntity
  8
Ebene 1
370
    18
  0
POLYLINE
  5
5B0
330
1F
100
AcDbEntity
  8
Ebene 1
 62
   179
420
  1709851
370
    18
100
AcDb2dPolyline
 66
     1
 10
0.0
 20
0.0
 30
0.0
  0
VERTEX
  5
5B1
330
5B0
100
AcDbEntity
  8
Ebene 1
 62
   179
420
  1709851
370
    18
100
AcDbVertex
100
AcDb2dVertex
 10
66.4033542043193
 20
-115.6795884584933
 30
0.0
  0
VERTEX
  5
5B2
330
5B0
100
AcDbEntity
  8
Ebene 1
 62
   179
420
  1709851
370
    18
100
AcDbVertex
100
AcDb2dVertex
 10
67.94847952945385
 20
-114.7693942312903
 30
0.0
  0
SEQEND
  5
5B3
330
5B0
100
AcDbEntity
  8
Ebene 1
370
    18
  0
POLYLINE
  5
5B4
330
1F
100
AcDbEntity
  8
Ebene 1
 62
   179
420
  1709851
370
    18
100
AcDb2dPolyline
 66
     1
 10
0.0
 20
0.0
 30
0.0
  0
VERTEX
  5
5B5
330
5B4
100
AcDbEntity
  8
Ebene 1
 62
   179
420
  1709851
370
    18
100
AcDbVertex
100
AcDb2dVertex
 10
68.87986109389115
 20
-115.3195759802847
 30
0.0
  0
VERTEX
  5
5B6
330
5B4
100
AcDbEntity
  8
Ebene 1
 62
   179
420
  1709851
370
    18
100
AcDbVertex
100
AcDb2dVertex
 10
67.94847952945385
 20
-114.7693942312903
 30
0.0
  0
SEQEND
  5
5B7
330
5B4
100
AcDbEntity
  8
Ebene 1
370
    18
  0
POLYLINE
  5
5B8
330
1F
100
AcDbEntity
  8
Ebene 1
 62
   179
420
  1709851
370
    18
100
AcDb2dPolyline
 66
     1
 10
0.0
 20
0.0
 30
0.0
  0
VERTEX
  5
5B9
330
5B8
100
AcDbEntity
  8
Ebene 1
 62
   179
420
  1709851
370
    18
100
AcDbVertex
100
AcDb2dVertex
 10
67.3347357687566
 20
-116.2087551250277
 30
0.0
  0
VERTEX
  5
5BA
330
5B8
100
AcDbEntity
  8
Ebene 1
 62
   179
420
  1709851
370
    18
100
AcDbVertex
100
AcDb2dVertex
 10
66.4033542043193
 20
-115.6795884584933
 30
0.0
  0
SEQEND
  5
5BB
330
5B8
100
AcDbEntity
  8
Ebene 1
370
    18
  0
POLYLINE
  5
5BC
330
1F
100
AcDbEntity
  8
Ebene 1
 62
   179
420
  1709851
370
    18
100
AcDb2dPolyline
 66
     1
 10
0.0
 20
0.0
 30
0.0
  0
VERTEX
  5
5BD
330
5BC
100
AcDbEntity
  8
Ebene 1
 62
   179
420
  1709851
370
    18
100
AcDbVertex
100
AcDb2dVertex
 10
66.55149331018505
 20
-118.2193128502195
 30
0.0
  0
VERTEX
  5
5BE
330
5BC
100
AcDbEntity
  8
Ebene 1
 62
   179
420
  1709851
370
    18
100
AcDbVertex
100
AcDb2dVertex
 10
65.62011174574775
 20
-117.6901461836851
 30
0.0
  0
SEQEND
  5
5BF
330
5BC
100
AcDbEntity
  8
Ebene 1
370
    18
  0
POLYLINE
  5
5C0
330
1F
100
AcDbEntity
  8
Ebene 1
 62
   179
420
  1709851
370
    18
100
AcDb2dPolyline
 66
     1
 10
0.0
 20
0.0
 30
0.0
  0
VERTEX
  5
5C1
330
5C0
100
AcDbEntity
  8
Ebene 1
 62
   179
420
  1709851
370
    18
100
AcDbVertex
100
AcDb2dVertex
 10
69.43021509765981
 20
-115.9334919957562
 30
0.0
  0
VERTEX
  5
5C2
330
5C0
100
AcDbEntity
  8
Ebene 1
 62
   179
420
  1709851
370
    18
100
AcDbVertex
100
AcDb2dVertex
 10
69.17613930562264
 20
-115.5734795175476
 30
0.0
  0
VERTEX
  5
5C3
330
5C0
100
AcDbEntity
  8
Ebene 1
 62
   179
420
  1709851
370
    18
100
AcDbVertex
100
AcDb2dVertex
 10
68.87986109389115
 20
-115.3195759802847
 30
0.0
  0
SEQEND
  5
5C4
330
5C0
100
AcDbEntity
  8
Ebene 1
370
    18
  0
POLYLINE
  5
5C5
330
1F
100
AcDbEntity
  8
Ebene 1
 62
   179
420
  1709851
370
    18
100
AcDb2dPolyline
 66
     1
 10
0.0
 20
0.0
 30
0.0
  0
VERTEX
  5
5C6
330
5C5
100
AcDbEntity
  8
Ebene 1
 62
   179
420
  1709851
370
    18
100
AcDbVertex
100
AcDb2dVertex
 10
67.3347357687566
 20
-119.3413804497654
 30
0.0
  0
VERTEX
  5
5C7
330
5C5
100
AcDbEntity
  8
Ebene 1
 62
   179
420
  1709851
370
    18
100
AcDbVertex
100
AcDb2dVertex
 10
67.14422198842229
 20
-118.9389932970882
 30
0.0
  0
VERTEX
  5
5C8
330
5C5
100
AcDbEntity
  8
Ebene 1
 62
   179
420
  1709851
370
    18
100
AcDbVertex
100
AcDb2dVertex
 10
66.9113335336194
 20
-118.5579657364195
 30
0.0
  0
VERTEX
  5
5C9
330
5C5
100
AcDbEntity
  8
Ebene 1
 62
   179
420
  1709851
370
    18
100
AcDbVertex
100
AcDb2dVertex
 10
66.59386798465361
 20
-118.2616875246881
 30
0.0
  0
VERTEX
  5
5CA
330
5C5
100
AcDbEntity
  8
Ebene 1
 62
   179
420
  1709851
370
    18
100
AcDbVertex
100
AcDb2dVertex
 10
66.55149331018505
 20
-118.2193128502195
 30
0.0
  0
VERTEX
  5
5CB
330
5C5
100
AcDbEntity
  8
Ebene 1
 62
   179
420
  1709851
370
    18
100
AcDbVertex
100
AcDb2dVertex
 10
66.8479437766908
 20
-117.8806599640194
 30
0.0
  0
VERTEX
  5
5CC
330
5C5
100
AcDbEntity
  8
Ebene 1
 62
   179
420
  1709851
370
    18
100
AcDbVertex
100
AcDb2dVertex
 10
67.08065997671942
 20
-117.4789618304393
 30
0.0
  0
VERTEX
  5
5CD
330
5C5
100
AcDbEntity
  8
Ebene 1
 62
   179
420
  1709851
370
    18
100
AcDbVertex
100
AcDb2dVertex
 10
67.24998641981945
 20
-117.0342000032935
 30
0.0
  0
VERTEX
  5
5CE
330
5C5
100
AcDbEntity
  8
Ebene 1
 62
   179
420
  1709851
370
    18
100
AcDbVertex
100
AcDb2dVertex
 10
67.3347357687566
 20
-116.5684230936878
 30
0.0
  0
VERTEX
  5
5CF
330
5C5
100
AcDbEntity
  8
Ebene 1
 62
   179
420
  1709851
370
    18
100
AcDbVertex
100
AcDb2dVertex
 10
67.3347357687566
 20
-116.2087551250277
 30
0.0
  0
VERTEX
  5
5D0
330
5C5
100
AcDbEntity
  8
Ebene 1
 62
   179
420
  1709851
370
    18
100
AcDbVertex
100
AcDb2dVertex
 10
67.73677841188525
 20
-116.1450208585506
 30
0.0
  0
VERTEX
  5
5D1
330
5C5
100
AcDbEntity
  8
Ebene 1
 62
   179
420
  1709851
370
    18
100
AcDbVertex
100
AcDb2dVertex
 10
68.11780597255388
 20
-115.9968817526848
 30
0.0
  0
VERTEX
  5
5D2
330
5C5
100
AcDbEntity
  8
Ebene 1
 62
   179
420
  1709851
370
    18
100
AcDbVertex
100
AcDb2dVertex
 10
68.47764619598823
 20
-115.7853528898905
 30
0.0
  0
VERTEX
  5
5D3
330
5C5
100
AcDbEntity
  8
Ebene 1
 62
   179
420
  1709851
370
    18
100
AcDbVertex
100
AcDb2dVertex
 10
68.77409666249397
 20
-115.489074678159
 30
0.0
  0
VERTEX
  5
5D4
330
5C5
100
AcDbEntity
  8
Ebene 1
 62
   179
420
  1709851
370
    18
100
AcDbVertex
100
AcDb2dVertex
 10
68.87986109389115
 20
-115.3195759802847
 30
0.0
  0
SEQEND
  5
5D5
330
5C5
100
AcDbEntity
  8
Ebene 1
370
    18
  0
POLYLINE
  5
5D6
330
1F
100
AcDbEntity
  8
Ebene 1
 62
   179
420
  1709851
370
    18
100
AcDb2dPolyline
 66
     1
 10
0.0
 20
0.0
 30
0.0
  0
VERTEX
  5
5D7
330
5D6
100
AcDbEntity
  8
Ebene 1
 62
   179
420
  1709851
370
    18
100
AcDbVertex
100
AcDb2dVertex
 10
67.3347357687566
 20
-119.3413804497654
 30
0.0
  0
VERTEX
  5
5D8
330
5D6
100
AcDbEntity
  8
Ebene 1
 62
   179
420
  1709851
370
    18
100
AcDbVertex
100
AcDb2dVertex
 10
67.73677841188525
 20
-119.2566311008282
 30
0.0
  0
VERTEX
  5
5D9
330
5D6
100
AcDbEntity
  8
Ebene 1
 62
   179
420
  1709851
370
    18
100
AcDbVertex
100
AcDb2dVertex
 10
68.13899330978818
 20
-119.1084919949625
 30
0.0
  0
VERTEX
  5
5DA
330
5D6
100
AcDbEntity
  8
Ebene 1
 62
   179
420
  1709851
370
    18
100
AcDbVertex
100
AcDb2dVertex
 10
68.26594507841963
 20
-119.0237426460253
 30
0.0
  0
SEQEND
  5
5DB
330
5D6
100
AcDbEntity
  8
Ebene 1
370
    18
  0
POLYLINE
  5
5DC
330
1F
100
AcDbEntity
  8
Ebene 1
 62
   179
420
  1709851
370
    18
100
AcDb2dPolyline
 66
     1
 10
0.0
 20
0.0
 30
0.0
  0
VERTEX
  5
5DD
330
5DC
100
AcDbEntity
  8
Ebene 1
 62
   179
420
  1709851
370
    18
100
AcDbVertex
100
AcDb2dVertex
 10
67.3347357687566
 20
-119.3413804497654
 30
0.0
  0
VERTEX
  5
5DE
330
5DC
100
AcDbEntity
  8
Ebene 1
 62
   179
420
  1709851
370
    18
100
AcDbVertex
100
AcDb2dVertex
 10
66.4033542043193
 20
-118.7908541912224
 30
0.0
  0
SEQEND
  5
5DF
330
5DC
100
AcDbEntity
  8
Ebene 1
370
    18
  0
POLYLINE
  5
5E0
330
1F
100
AcDbEntity
  8
Ebene 1
 62
   179
420
  1709851
370
    18
100
AcDb2dPolyline
 66
     1
 10
0.0
 20
0.0
 30
0.0
  0
VERTEX
  5
5E1
330
5E0
100
AcDbEntity
  8
Ebene 1
 62
   179
420
  1709851
370
    18
100
AcDbVertex
100
AcDb2dVertex
 10
69.28207599179407
 20
-118.0077839874251
 30
0.0
  0
VERTEX
  5
5E2
330
5E0
100
AcDbEntity
  8
Ebene 1
 62
   179
420
  1709851
370
    18
100
AcDbVertex
100
AcDb2dVertex
 10
69.49377710936267
 20
-117.5209919953593
 30
0.0
  0
VERTEX
  5
5E3
330
5E0
100
AcDbEntity
  8
Ebene 1
 62
   179
420
  1709851
370
    18
100
AcDbVertex
100
AcDb2dVertex
 10
69.57835420352555
 20
-117.2881035405564
 30
0.0
  0
SEQEND
  5
5E4
330
5E0
100
AcDbEntity
  8
Ebene 1
370
    18
  0
POLYLINE
  5
5E5
330
1F
100
AcDbEntity
  8
Ebene 1
 62
   179
420
  1709851
370
    18
100
AcDb2dPolyline
 66
     1
 10
0.0
 20
0.0
 30
0.0
  0
VERTEX
  5
5E6
330
5E5
100
AcDbEntity
  8
Ebene 1
 62
   179
420
  1709851
370
    18
100
AcDbVertex
100
AcDb2dVertex
 10
69.57835420352555
 20
-117.2881035405564
 30
0.0
  0
VERTEX
  5
5E7
330
5E5
100
AcDbEntity
  8
Ebene 1
 62
   179
420
  1709851
370
    18
100
AcDbVertex
100
AcDb2dVertex
 10
69.6631035524627
 20
-116.8647013054192
 30
0.0
  0
VERTEX
  5
5E8
330
5E5
100
AcDbEntity
  8
Ebene 1
 62
   179
420
  1709851
370
    18
100
AcDbVertex
100
AcDb2dVertex
 10
69.6631035524627
 20
-116.6741875250849
 30
0.0
  0
SEQEND
  5
5E9
330
5E5
100
AcDbEntity
  8
Ebene 1
370
    18
  0
POLYLINE
  5
5EA
330
1F
100
AcDbEntity
  8
Ebene 1
 62
   179
420
  1709851
370
    18
100
AcDb2dPolyline
 66
     1
 10
0.0
 20
0.0
 30
0.0
  0
VERTEX
  5
5EB
330
5EA
100
AcDbEntity
  8
Ebene 1
 62
   179
420
  1709851
370
    18
100
AcDbVertex
100
AcDb2dVertex
 10
69.62072887799413
 20
-116.3355346388849
 30
0.0
  0
VERTEX
  5
5EC
330
5EA
100
AcDbEntity
  8
Ebene 1
 62
   179
420
  1709851
370
    18
100
AcDbVertex
100
AcDb2dVertex
 10
69.53597952905697
 20
-116.081631101622
 30
0.0
  0
SEQEND
  5
5ED
330
5EA
100
AcDbEntity
  8
Ebene 1
370
    18
  0
POLYLINE
  5
5EE
330
1F
100
AcDbEntity
  8
Ebene 1
 62
   179
420
  1709851
370
    18
100
AcDb2dPolyline
 66
     1
 10
0.0
 20
0.0
 30
0.0
  0
VERTEX
  5
5EF
330
5EE
100
AcDbEntity
  8
Ebene 1
 62
   179
420
  1709851
370
    18
100
AcDbVertex
100
AcDb2dVertex
 10
69.6631035524627
 20
-116.6741875250849
 30
0.0
  0
VERTEX
  5
5F0
330
5EE
100
AcDbEntity
  8
Ebene 1
 62
   179
420
  1709851
370
    18
100
AcDbVertex
100
AcDb2dVertex
 10
69.62072887799413
 20
-116.3355346388849
 30
0.0
  0
SEQEND
  5
5F1
330
5EE
100
AcDbEntity
  8
Ebene 1
370
    18
  0
POLYLINE
  5
5F2
330
1F
100
AcDbEntity
  8
Ebene 1
 62
   179
420
  1709851
370
    18
100
AcDb2dPolyline
 66
     1
 10
0.0
 20
0.0
 30
0.0
  0
VERTEX
  5
5F3
330
5F2
100
AcDbEntity
  8
Ebene 1
 62
   179
420
  1709851
370
    18
100
AcDbVertex
100
AcDb2dVertex
 10
69.53597952905697
 20
-116.081631101622
 30
0.0
  0
VERTEX
  5
5F4
330
5F2
100
AcDbEntity
  8
Ebene 1
 62
   179
420
  1709851
370
    18
100
AcDbVertex
100
AcDb2dVertex
 10
69.40902776042553
 20
-115.8914618308362
 30
0.0
  0
VERTEX
  5
5F5
330
5F2
100
AcDbEntity
  8
Ebene 1
 62
   179
420
  1709851
370
    18
100
AcDbVertex
100
AcDb2dVertex
 10
69.28207599179407
 20
-115.7853528898905
 30
0.0
  0
SEQEND
  5
5F6
330
5F2
100
AcDbEntity
  8
Ebene 1
370
    18
  0
POLYLINE
  5
5F7
330
1F
100
AcDbEntity
  8
Ebene 1
 62
   179
420
  1709851
370
    18
100
AcDb2dPolyline
 66
     1
 10
0.0
 20
0.0
 30
0.0
  0
VERTEX
  5
5F8
330
5F7
100
AcDbEntity
  8
Ebene 1
 62
   179
420
  1709851
370
    18
100
AcDbVertex
100
AcDb2dVertex
 10
69.28207599179407
 20
-115.7853528898905
 30
0.0
  0
VERTEX
  5
5F9
330
5F7
100
AcDbEntity
  8
Ebene 1
 62
   179
420
  1709851
370
    18
100
AcDbVertex
100
AcDb2dVertex
 10
69.04918753699118
 20
-115.7216186234133
 30
0.0
  0
VERTEX
  5
5FA
330
5F7
100
AcDbEntity
  8
Ebene 1
 62
   179
420
  1709851
370
    18
100
AcDbVertex
100
AcDb2dVertex
 10
68.87986109389115
 20
-115.7006035409533
 30
0.0
  0
SEQEND
  5
5FB
330
5F7
100
AcDbEntity
  8
Ebene 1
370
    18
  0
POLYLINE
  5
5FC
330
1F
100
AcDbEntity
  8
Ebene 1
 62
   179
420
  1709851
370
    18
100
AcDb2dPolyline
 66
     1
 10
0.0
 20
0.0
 30
0.0
  0
VERTEX
  5
5FD
330
5FC
100
AcDbEntity
  8
Ebene 1
 62
   179
420
  1709851
370
    18
100
AcDbVertex
100
AcDb2dVertex
 10
68.87986109389115
 20
-115.7006035409533
 30
0.0
  0
VERTEX
  5
5FE
330
5FC
100
AcDbEntity
  8
Ebene 1
 62
   179
420
  1709851
370
    18
100
AcDbVertex
100
AcDb2dVertex
 10
68.54120820769108
 20
-115.7853528898905
 30
0.0
  0
VERTEX
  5
5FF
330
5FC
100
AcDbEntity
  8
Ebene 1
 62
   179
420
  1709851
370
    18
100
AcDbVertex
100
AcDb2dVertex
 10
68.3083197528882
 20
-115.8914618308362
 30
0.0
  0
SEQEND
  5
600
330
5FC
100
AcDbEntity
  8
Ebene 1
370
    18
  0
POLYLINE
  5
601
330
1F
100
AcDbEntity
  8
Ebene 1
 62
   179
420
  1709851
370
    18
100
AcDb2dPolyline
 66
     1
 10
0.0
 20
0.0
 30
0.0
  0
VERTEX
  5
602
330
601
100
AcDbEntity
  8
Ebene 1
 62
   179
420
  1709851
370
    18
100
AcDbVertex
100
AcDb2dVertex
 10
68.3083197528882
 20
-115.8911173212876
 30
0.0
  0
VERTEX
  5
603
330
601
100
AcDbEntity
  8
Ebene 1
 62
   179
420
  1709851
370
    18
100
AcDbVertex
100
AcDb2dVertex
 10
67.96966686668814
 20
-116.1450208585506
 30
0.0
  0
VERTEX
  5
604
330
601
100
AcDbEntity
  8
Ebene 1
 62
   179
420
  1709851
370
    18
100
AcDbVertex
100
AcDb2dVertex
 10
67.8215277608224
 20
-116.2721448819563
 30
0.0
  0
SEQEND
  5
605
330
601
100
AcDbEntity
  8
Ebene 1
370
    18
  0
POLYLINE
  5
606
330
1F
100
AcDbEntity
  8
Ebene 1
 62
   179
420
  1709851
370
    18
100
AcDb2dPolyline
 66
     1
 10
0.0
 20
0.0
 30
0.0
  0
VERTEX
  5
607
330
606
100
AcDbEntity
  8
Ebene 1
 62
   179
420
  1709851
370
    18
100
AcDbVertex
100
AcDb2dVertex
 10
67.8215277608224
 20
-116.2721448819563
 30
0.0
  0
VERTEX
  5
608
330
606
100
AcDbEntity
  8
Ebene 1
 62
   179
420
  1709851
370
    18
100
AcDbVertex
100
AcDb2dVertex
 10
67.50406221185662
 20
-116.6955471170935
 30
0.0
  0
VERTEX
  5
609
330
606
100
AcDbEntity
  8
Ebene 1
 62
   179
420
  1709851
370
    18
100
AcDbVertex
100
AcDb2dVertex
 10
67.35592310599088
 20
-116.8860608974278
 30
0.0
  0
SEQEND
  5
60A
330
606
100
AcDbEntity
  8
Ebene 1
370
    18
  0
POLYLINE
  5
60B
330
1F
100
AcDbEntity
  8
Ebene 1
 62
   179
420
  1709851
370
    18
100
AcDb2dPolyline
 66
     1
 10
0.0
 20
0.0
 30
0.0
  0
VERTEX
  5
60C
330
60B
100
AcDbEntity
  8
Ebene 1
 62
   179
420
  1709851
370
    18
100
AcDbVertex
100
AcDb2dVertex
 10
67.35592310599088
 20
-116.8860608974278
 30
0.0
  0
VERTEX
  5
60D
330
60B
100
AcDbEntity
  8
Ebene 1
 62
   179
420
  1709851
370
    18
100
AcDbVertex
100
AcDb2dVertex
 10
67.14422198842229
 20
-117.3728528894936
 30
0.0
  0
VERTEX
  5
60E
330
60B
100
AcDbEntity
  8
Ebene 1
 62
   179
420
  1709851
370
    18
100
AcDbVertex
100
AcDb2dVertex
 10
67.05947263948514
 20
-117.6057413442965
 30
0.0
  0
SEQEND
  5
60F
330
60B
100
AcDbEntity
  8
Ebene 1
370
    18
  0
POLYLINE
  5
610
330
1F
100
AcDbEntity
  8
Ebene 1
 62
   179
420
  1709851
370
    18
100
AcDb2dPolyline
 66
     1
 10
0.0
 20
0.0
 30
0.0
  0
VERTEX
  5
611
330
610
100
AcDbEntity
  8
Ebene 1
 62
   179
420
  1709851
370
    18
100
AcDbVertex
100
AcDb2dVertex
 10
67.05947263948514
 20
-117.6057413442965
 30
0.0
  0
VERTEX
  5
612
330
610
100
AcDbEntity
  8
Ebene 1
 62
   179
420
  1709851
370
    18
100
AcDbVertex
100
AcDb2dVertex
 10
66.97489554532225
 20
-118.0287990698852
 30
0.0
  0
VERTEX
  5
613
330
610
100
AcDbEntity
  8
Ebene 1
 62
   179
420
  1709851
370
    18
100
AcDbVertex
100
AcDb2dVertex
 10
66.97489554532225
 20
-118.2193128502195
 30
0.0
  0
SEQEND
  5
614
330
610
100
AcDbEntity
  8
Ebene 1
370
    18
  0
POLYLINE
  5
615
330
1F
100
AcDbEntity
  8
Ebene 1
 62
   179
420
  1709851
370
    18
100
AcDb2dPolyline
 66
     1
 10
0.0
 20
0.0
 30
0.0
  0
VERTEX
  5
616
330
615
100
AcDbEntity
  8
Ebene 1
 62
   179
420
  1709851
370
    18
100
AcDbVertex
100
AcDb2dVertex
 10
66.97489554532225
 20
-118.2193128502195
 30
0.0
  0
VERTEX
  5
617
330
615
100
AcDbEntity
  8
Ebene 1
 62
   179
420
  1709851
370
    18
100
AcDbVertex
100
AcDb2dVertex
 10
67.01727021979083
 20
-118.5579657364195
 30
0.0
  0
VERTEX
  5
618
330
615
100
AcDbEntity
  8
Ebene 1
 62
   179
420
  1709851
370
    18
100
AcDbVertex
100
AcDb2dVertex
 10
67.10184731395371
 20
-118.7908541912224
 30
0.0
  0
SEQEND
  5
619
330
615
100
AcDbEntity
  8
Ebene 1
370
    18
  0
POLYLINE
  5
61A
330
1F
100
AcDbEntity
  8
Ebene 1
 62
   179
420
  1709851
370
    18
100
AcDb2dPolyline
 66
     1
 10
0.0
 20
0.0
 30
0.0
  0
VERTEX
  5
61B
330
61A
100
AcDbEntity
  8
Ebene 1
 62
   179
420
  1709851
370
    18
100
AcDbVertex
100
AcDb2dVertex
 10
67.10184731395371
 20
-118.7908541912224
 30
0.0
  0
VERTEX
  5
61C
330
61A
100
AcDbEntity
  8
Ebene 1
 62
   179
420
  1709851
370
    18
100
AcDbVertex
100
AcDb2dVertex
 10
67.22879908258517
 20
-119.0027275635653
 30
0.0
  0
VERTEX
  5
61D
330
61A
100
AcDbEntity
  8
Ebene 1
 62
   179
420
  1709851
370
    18
100
AcDbVertex
100
AcDb2dVertex
 10
67.35592310599088
 20
-119.1084919949625
 30
0.0
  0
SEQEND
  5
61E
330
61A
100
AcDbEntity
  8
Ebene 1
370
    18
  0
POLYLINE
  5
61F
330
1F
100
AcDbEntity
  8
Ebene 1
 62
   179
420
  1709851
370
    18
100
AcDb2dPolyline
 66
     1
 10
0.0
 20
0.0
 30
0.0
  0
VERTEX
  5
620
330
61F
100
AcDbEntity
  8
Ebene 1
 62
   179
420
  1709851
370
    18
100
AcDbVertex
100
AcDb2dVertex
 10
67.35592310599088
 20
-119.1084919949625
 30
0.0
  0
VERTEX
  5
621
330
61F
100
AcDbEntity
  8
Ebene 1
 62
   179
420
  1709851
370
    18
100
AcDbVertex
100
AcDb2dVertex
 10
67.58863930601952
 20
-119.1718817518911
 30
0.0
  0
VERTEX
  5
622
330
61F
100
AcDbEntity
  8
Ebene 1
 62
   179
420
  1709851
370
    18
100
AcDbVertex
100
AcDb2dVertex
 10
67.75796574911953
 20
-119.1932413438996
 30
0.0
  0
SEQEND
  5
623
330
61F
100
AcDbEntity
  8
Ebene 1
370
    18
  0
POLYLINE
  5
624
330
1F
100
AcDbEntity
  8
Ebene 1
 62
   179
420
  1709851
370
    18
100
AcDb2dPolyline
 66
     1
 10
0.0
 20
0.0
 30
0.0
  0
VERTEX
  5
625
330
624
100
AcDbEntity
  8
Ebene 1
 62
   179
420
  1709851
370
    18
100
AcDbVertex
100
AcDb2dVertex
 10
67.75796574911953
 20
-119.1932413438996
 30
0.0
  0
VERTEX
  5
626
330
624
100
AcDbEntity
  8
Ebene 1
 62
   179
420
  1709851
370
    18
100
AcDbVertex
100
AcDb2dVertex
 10
68.0966186353196
 20
-119.1084919949625
 30
0.0
  0
VERTEX
  5
627
330
624
100
AcDbEntity
  8
Ebene 1
 62
   179
420
  1709851
370
    18
100
AcDbVertex
100
AcDb2dVertex
 10
68.3083197528882
 20
-119.0027275635653
 30
0.0
  0
SEQEND
  5
628
330
624
100
AcDbEntity
  8
Ebene 1
370
    18
  0
POLYLINE
  5
629
330
1F
100
AcDbEntity
  8
Ebene 1
 62
   179
420
  1709851
370
    18
100
AcDb2dPolyline
 66
     1
 10
0.0
 20
0.0
 30
0.0
  0
VERTEX
  5
62A
330
629
100
AcDbEntity
  8
Ebene 1
 62
   179
420
  1709851
370
    18
100
AcDbVertex
100
AcDb2dVertex
 10
68.3083197528882
 20
-119.0027275635653
 30
0.0
  0
VERTEX
  5
62B
330
629
100
AcDbEntity
  8
Ebene 1
 62
   179
420
  1709851
370
    18
100
AcDbVertex
100
AcDb2dVertex
 10
68.66815997632254
 20
-118.7484795167539
 30
0.0
  0
VERTEX
  5
62C
330
629
100
AcDbEntity
  8
Ebene 1
 62
   179
420
  1709851
370
    18
100
AcDbVertex
100
AcDb2dVertex
 10
68.8162990821883
 20
-118.6217000028967
 30
0.0
  0
SEQEND
  5
62D
330
629
100
AcDbEntity
  8
Ebene 1
370
    18
  0
POLYLINE
  5
62E
330
1F
100
AcDbEntity
  8
Ebene 1
 62
   179
420
  1709851
370
    18
100
AcDb2dPolyline
 66
     1
 10
0.0
 20
0.0
 30
0.0
  0
VERTEX
  5
62F
330
62E
100
AcDbEntity
  8
Ebene 1
 62
   179
420
  1709851
370
    18
100
AcDbVertex
100
AcDb2dVertex
 10
68.8162990821883
 20
-118.6217000028967
 30
0.0
  0
VERTEX
  5
630
330
62E
100
AcDbEntity
  8
Ebene 1
 62
   179
420
  1709851
370
    18
100
AcDbVertex
100
AcDb2dVertex
 10
69.13393688592832
 20
-118.1982977677595
 30
0.0
  0
VERTEX
  5
631
330
62E
100
AcDbEntity
  8
Ebene 1
 62
   179
420
  1709851
370
    18
100
AcDbVertex
100
AcDb2dVertex
 10
69.28207599179407
 20
-118.0077839874251
 30
0.0
  0
SEQEND
  5
632
330
62E
100
AcDbEntity
  8
Ebene 1
370
    18
  0
POLYLINE
  5
633
330
1F
100
AcDbEntity
  8
Ebene 1
 62
   179
420
  1709851
370
    18
100
AcDb2dPolyline
 66
     1
 10
0.0
 20
0.0
 30
0.0
  0
VERTEX
  5
634
330
633
100
AcDbEntity
  8
Ebene 1
 62
   179
420
  1709851
370
    18
100
AcDbVertex
100
AcDb2dVertex
 10
68.87986109389115
 20
-115.3619506547533
 30
0.0
  0
VERTEX
  5
635
330
633
100
AcDbEntity
  8
Ebene 1
 62
   179
420
  1709851
370
    18
100
AcDbVertex
100
AcDb2dVertex
 10
68.7529093252597
 20
-115.0656724430218
 30
0.0
  0
VERTEX
  5
636
330
633
100
AcDbEntity
  8
Ebene 1
 62
   179
420
  1709851
370
    18
100
AcDbVertex
100
AcDb2dVertex
 10
68.54120820769108
 20
-114.8327839882189
 30
0.0
  0
VERTEX
  5
637
330
633
100
AcDbEntity
  8
Ebene 1
 62
   179
420
  1709851
370
    18
100
AcDbVertex
100
AcDb2dVertex
 10
68.28713241565391
 20
-114.6632852903446
 30
0.0
  0
VERTEX
  5
638
330
633
100
AcDbEntity
  8
Ebene 1
 62
   179
420
  1709851
370
    18
100
AcDbVertex
100
AcDb2dVertex
 10
67.96966686668814
 20
-114.5575208589474
 30
0.0
  0
VERTEX
  5
639
330
633
100
AcDbEntity
  8
Ebene 1
 62
   179
420
  1709851
370
    18
100
AcDbVertex
100
AcDb2dVertex
 10
67.65220131772237
 20
-114.5365057764874
 30
0.0
  0
VERTEX
  5
63A
330
633
100
AcDbEntity
  8
Ebene 1
 62
   179
420
  1709851
370
    18
100
AcDbVertex
100
AcDb2dVertex
 10
67.35592310599088
 20
-114.599895533416
 30
0.0
  0
VERTEX
  5
63B
330
633
100
AcDbEntity
  8
Ebene 1
 62
   179
420
  1709851
370
    18
100
AcDbVertex
100
AcDb2dVertex
 10
67.16540932565657
 20
-114.7056599648132
 30
0.0
  0
SEQEND
  5
63C
330
633
100
AcDbEntity
  8
Ebene 1
370
    18
  0
POLYLINE
  5
63D
330
1F
100
AcDbEntity
  8
Ebene 1
 62
   179
420
  1709851
370
    18
100
AcDb2dPolyline
 66
     1
 10
0.0
 20
0.0
 30
0.0
  0
VERTEX
  5
63E
330
63D
100
AcDbEntity
  8
Ebene 1
 62
   179
420
  1709851
370
    18
100
AcDbVertex
100
AcDb2dVertex
 10
67.96966686668814
 20
-114.4727715100103
 30
0.0
  0
VERTEX
  5
63F
330
63D
100
AcDbEntity
  8
Ebene 1
 62
   179
420
  1709851
370
    18
100
AcDbVertex
100
AcDb2dVertex
 10
67.67338865495665
 20
-114.3459919961531
 30
0.0
  0
VERTEX
  5
640
330
63D
100
AcDbEntity
  8
Ebene 1
 62
   179
420
  1709851
370
    18
100
AcDbVertex
100
AcDb2dVertex
 10
67.35592310599088
 20
-114.3036173216845
 30
0.0
  0
VERTEX
  5
641
330
63D
100
AcDbEntity
  8
Ebene 1
 62
   179
420
  1709851
370
    18
100
AcDbVertex
100
AcDb2dVertex
 10
67.03828530225084
 20
-114.3459919961531
 30
0.0
  0
VERTEX
  5
642
330
63D
100
AcDbEntity
  8
Ebene 1
 62
   179
420
  1709851
370
    18
100
AcDbVertex
100
AcDb2dVertex
 10
66.76319442775365
 20
-114.4727715100103
 30
0.0
  0
SEQEND
  5
643
330
63D
100
AcDbEntity
  8
Ebene 1
370
    18
  0
POLYLINE
  5
644
330
1F
100
AcDbEntity
  8
Ebene 1
 62
   179
420
  1709851
370
    18
100
AcDb2dPolyline
 66
     1
 10
0.0
 20
0.0
 30
0.0
  0
VERTEX
  5
645
330
644
100
AcDbEntity
  8
Ebene 1
 62
   179
420
  1709851
370
    18
100
AcDbVertex
100
AcDb2dVertex
 10
65.57790932605344
 20
-118.6003404108881
 30
0.0
  0
VERTEX
  5
646
330
644
100
AcDbEntity
  8
Ebene 1
 62
   179
420
  1709851
370
    18
100
AcDbVertex
100
AcDb2dVertex
 10
65.95893688672207
 20
-118.833228865691
 30
0.0
  0
VERTEX
  5
647
330
644
100
AcDbEntity
  8
Ebene 1
 62
   179
420
  1709851
370
    18
100
AcDbVertex
100
AcDb2dVertex
 10
66.25521509845356
 20
-118.9603528890967
 30
0.0
  0
VERTEX
  5
648
330
644
100
AcDbEntity
  8
Ebene 1
 62
   179
420
  1709851
370
    18
100
AcDbVertex
100
AcDb2dVertex
 10
66.57268064741933
 20
-119.0027275635653
 30
0.0
  0
VERTEX
  5
649
330
644
100
AcDbEntity
  8
Ebene 1
 62
   179
420
  1709851
370
    18
100
AcDbVertex
100
AcDb2dVertex
 10
66.72081975328507
 20
-118.9813679715568
 30
0.0
  0
SEQEND
  5
64A
330
644
100
AcDbEntity
  8
Ebene 1
370
    18
  0
POLYLINE
  5
64B
330
1F
100
AcDbEntity
  8
Ebene 1
 62
   179
420
  1709851
370
    18
100
AcDb2dPolyline
 66
     1
 10
0.0
 20
0.0
 30
0.0
  0
VERTEX
  5
64C
330
64B
100
AcDbEntity
  8
Ebene 1
 62
   179
420
  1709851
370
    18
100
AcDbVertex
100
AcDb2dVertex
 10
67.96966686668814
 20
-114.4727715100103
 30
0.0
  0
VERTEX
  5
64D
330
64B
100
AcDbEntity
  8
Ebene 1
 62
   179
420
  1709851
370
    18
100
AcDbVertex
100
AcDb2dVertex
 10
68.35069442735677
 20
-114.7056599648132
 30
0.0
  0
SEQEND
  5
64E
330
64B
100
AcDbEntity
  8
Ebene 1
370
    18
  0
POLYLINE
  5
64F
330
1F
100
AcDbEntity
  8
Ebene 1
 62
   179
420
  1709851
370
    18
100
AcDb2dPolyline
 66
     1
 10
0.0
 20
0.0
 30
0.0
  0
VERTEX
  5
650
330
64F
100
AcDbEntity
  8
Ebene 1
 62
   179
420
  1709851
370
    18
100
AcDbVertex
100
AcDb2dVertex
 10
66.76319442775365
 20
-114.4727715100103
 30
0.0
  0
VERTEX
  5
651
330
64F
100
AcDbEntity
  8
Ebene 1
 62
   179
420
  1709851
370
    18
100
AcDbVertex
100
AcDb2dVertex
 10
66.31877711015642
 20
-114.7904093137503
 30
0.0
  0
VERTEX
  5
652
330
64F
100
AcDbEntity
  8
Ebene 1
 62
   179
420
  1709851
370
    18
100
AcDbVertex
100
AcDb2dVertex
 10
65.9165622122535
 20
-115.1504217919589
 30
0.0
  0
VERTEX
  5
653
330
64F
100
AcDbEntity
  8
Ebene 1
 62
   179
420
  1709851
370
    18
100
AcDbVertex
100
AcDb2dVertex
 10
65.57790932605344
 20
-115.5948391095562
 30
0.0
  0
VERTEX
  5
654
330
64F
100
AcDbEntity
  8
Ebene 1
 62
   179
420
  1709851
370
    18
100
AcDbVertex
100
AcDb2dVertex
 10
65.30264619678198
 20
-116.081631101622
 30
0.0
  0
VERTEX
  5
655
330
64F
100
AcDbEntity
  8
Ebene 1
 62
   179
420
  1709851
370
    18
100
AcDbVertex
100
AcDb2dVertex
 10
65.11213241644766
 20
-116.5894381761478
 30
0.0
  0
VERTEX
  5
656
330
64F
100
AcDbEntity
  8
Ebene 1
 62
   179
420
  1709851
370
    18
100
AcDbVertex
100
AcDb2dVertex
 10
65.00636798505049
 20
-117.1186048426822
 30
0.0
  0
VERTEX
  5
657
330
64F
100
AcDbEntity
  8
Ebene 1
 62
   179
420
  1709851
370
    18
100
AcDbVertex
100
AcDb2dVertex
 10
64.98518064781621
 20
-117.5843817522879
 30
0.0
  0
VERTEX
  5
658
330
64F
100
AcDbEntity
  8
Ebene 1
 62
   179
420
  1709851
370
    18
100
AcDbVertex
100
AcDb2dVertex
 10
65.02755532228478
 20
-117.8806599640194
 30
0.0
  0
VERTEX
  5
659
330
64F
100
AcDbEntity
  8
Ebene 1
 62
   179
420
  1709851
370
    18
100
AcDbVertex
100
AcDb2dVertex
 10
65.13331975368195
 20
-118.1769381757509
 30
0.0
  0
VERTEX
  5
65A
330
64F
100
AcDbEntity
  8
Ebene 1
 62
   179
420
  1709851
370
    18
100
AcDbVertex
100
AcDb2dVertex
 10
65.34502087125055
 20
-118.4311862225623
 30
0.0
  0
VERTEX
  5
65B
330
64F
100
AcDbEntity
  8
Ebene 1
 62
   179
420
  1709851
370
    18
100
AcDbVertex
100
AcDb2dVertex
 10
65.57790932605344
 20
-118.6003404108881
 30
0.0
  0
SEQEND
  5
65C
330
64F
100
AcDbEntity
  8
Ebene 1
370
    18
  0
POLYLINE
  5
65D
330
1F
100
AcDbEntity
  8
Ebene 1
 62
   179
420
  1709851
370
    18
100
AcDb2dPolyline
 66
     1
 10
0.0
 20
0.0
 30
0.0
  0
VERTEX
  5
65E
330
65D
100
AcDbEntity
  8
Ebene 1
 62
   179
420
  1709851
370
    18
100
AcDbVertex
100
AcDb2dVertex
 10
67.16540932565657
 20
-114.7056599648132
 30
0.0
  0
VERTEX
  5
65F
330
65D
100
AcDbEntity
  8
Ebene 1
 62
   179
420
  1709851
370
    18
100
AcDbVertex
100
AcDb2dVertex
 10
66.69963241605079
 20
-115.0019381765447
 30
0.0
  0
VERTEX
  5
660
330
65D
100
AcDbEntity
  8
Ebene 1
 62
   179
420
  1709851
370
    18
100
AcDbVertex
100
AcDb2dVertex
 10
66.29758977292214
 20
-115.3829657372133
 30
0.0
  0
VERTEX
  5
661
330
65D
100
AcDbEntity
  8
Ebene 1
 62
   179
420
  1709851
370
    18
100
AcDbVertex
100
AcDb2dVertex
 10
65.95893688672207
 20
-115.8277275643591
 30
0.0
  0
VERTEX
  5
662
330
65D
100
AcDbEntity
  8
Ebene 1
 62
   179
420
  1709851
370
    18
100
AcDbVertex
100
AcDb2dVertex
 10
65.7048610946849
 20
-116.2931599644163
 30
0.0
  0
VERTEX
  5
663
330
65D
100
AcDbEntity
  8
Ebene 1
 62
   179
420
  1709851
370
    18
100
AcDbVertex
100
AcDb2dVertex
 10
65.51434731435059
 20
-116.8223266309507
 30
0.0
  0
VERTEX
  5
664
330
65D
100
AcDbEntity
  8
Ebene 1
 62
   179
420
  1709851
370
    18
100
AcDbVertex
100
AcDb2dVertex
 10
65.38739554571913
 20
-117.351493297485
 30
0.0
  0
VERTEX
  5
665
330
65D
100
AcDbEntity
  8
Ebene 1
 62
   179
420
  1709851
370
    18
100
AcDbVertex
100
AcDb2dVertex
 10
65.36620820848484
 20
-117.7962551246308
 30
0.0
  0
VERTEX
  5
666
330
65D
100
AcDbEntity
  8
Ebene 1
 62
   179
420
  1709851
370
    18
100
AcDbVertex
100
AcDb2dVertex
 10
65.40858288295341
 20
-118.1135484188223
 30
0.0
  0
VERTEX
  5
667
330
65D
100
AcDbEntity
  8
Ebene 1
 62
   179
420
  1709851
370
    18
100
AcDbVertex
100
AcDb2dVertex
 10
65.53553465158487
 20
-118.4098266305538
 30
0.0
  0
VERTEX
  5
668
330
65D
100
AcDbEntity
  8
Ebene 1
 62
   179
420
  1709851
370
    18
100
AcDbVertex
100
AcDb2dVertex
 10
65.72604843191918
 20
-118.6640746773652
 30
0.0
  0
VERTEX
  5
669
330
65D
100
AcDbEntity
  8
Ebene 1
 62
   179
420
  1709851
370
    18
100
AcDbVertex
100
AcDb2dVertex
 10
65.95893688672207
 20
-118.833228865691
 30
0.0
  0
SEQEND
  5
66A
330
65D
100
AcDbEntity
  8
Ebene 1
370
    18
  0
POLYLINE
  5
66B
330
1F
100
AcDbEntity
  8
Ebene 1
 62
   179
420
  1709851
370
    18
100
AcDb2dPolyline
 66
     1
 10
0.0
 20
0.0
 30
0.0
  0
VERTEX
  5
66C
330
66B
100
AcDbEntity
  8
Ebene 1
 62
   179
420
  1709851
370
    18
100
AcDbVertex
100
AcDb2dVertex
 10
68.7529093252597
 20
-126.6015746753809
 30
0.0
  0
VERTEX
  5
66D
330
66B
100
AcDbEntity
  8
Ebene 1
 62
   179
420
  1709851
370
    18
100
AcDbVertex
100
AcDb2dVertex
 10
68.7529093252597
 20
-126.4534355695151
 30
0.0
  0
VERTEX
  5
66E
330
66B
100
AcDbEntity
  8
Ebene 1
 62
   179
420
  1709851
370
    18
100
AcDbVertex
100
AcDb2dVertex
 10
68.73172198802541
 20
-126.2205471147122
 30
0.0
  0
SEQEND
  5
66F
330
66B
100
AcDbEntity
  8
Ebene 1
370
    18
  0
POLYLINE
  5
670
330
1F
100
AcDbEntity
  8
Ebene 1
 62
   179
420
  1709851
370
    18
100
AcDb2dPolyline
 66
     1
 10
0.0
 20
0.0
 30
0.0
  0
VERTEX
  5
671
330
670
100
AcDbEntity
  8
Ebene 1
 62
   179
420
  1709851
370
    18
100
AcDbVertex
100
AcDb2dVertex
 10
68.033228878391
 20
-127.0246324009695
 30
0.0
  0
VERTEX
  5
672
330
670
100
AcDbEntity
  8
Ebene 1
 62
   179
420
  1709851
370
    18
100
AcDbVertex
100
AcDb2dVertex
 10
68.13899330978818
 20
-126.7707288637066
 30
0.0
  0
VERTEX
  5
673
330
670
100
AcDbEntity
  8
Ebene 1
 62
   179
420
  1709851
370
    18
100
AcDbVertex
100
AcDb2dVertex
 10
68.20255532149103
 20
-126.5168253264437
 30
0.0
  0
SEQEND
  5
674
330
670
100
AcDbEntity
  8
Ebene 1
370
    18
  0
POLYLINE
  5
675
330
1F
100
AcDbEntity
  8
Ebene 1
 62
   179
420
  1709851
370
    18
100
AcDb2dPolyline
 66
     1
 10
0.0
 20
0.0
 30
0.0
  0
VERTEX
  5
676
330
675
100
AcDbEntity
  8
Ebene 1
 62
   179
420
  1709851
370
    18
100
AcDbVertex
100
AcDb2dVertex
 10
66.33979219261644
 20
-128.9931599612413
 30
0.0
  0
VERTEX
  5
677
330
675
100
AcDbEntity
  8
Ebene 1
 62
   179
420
  1709851
370
    18
100
AcDbVertex
100
AcDb2dVertex
 10
67.71576332942523
 20
-128.189074674984
 30
0.0
  0
SEQEND
  5
678
330
675
100
AcDbEntity
  8
Ebene 1
370
    18
  0
POLYLINE
  5
679
330
1F
100
AcDbEntity
  8
Ebene 1
 62
   179
420
  1709851
370
    18
100
AcDb2dPolyline
 66
     1
 10
0.0
 20
0.0
 30
0.0
  0
VERTEX
  5
67A
330
679
100
AcDbEntity
  8
Ebene 1
 62
   179
420
  1709851
370
    18
100
AcDbVertex
100
AcDb2dVertex
 10
66.33979219261644
 20
-126.5802150833723
 30
0.0
  0
VERTEX
  5
67B
330
679
100
AcDbEntity
  8
Ebene 1
 62
   179
420
  1709851
370
    18
100
AcDbVertex
100
AcDb2dVertex
 10
67.71576332942523
 20
-125.797144879575
 30
0.0
  0
SEQEND
  5
67C
330
679
100
AcDbEntity
  8
Ebene 1
370
    18
  0
POLYLINE
  5
67D
330
1F
100
AcDbEntity
  8
Ebene 1
 62
   179
420
  1709851
370
    18
100
AcDb2dPolyline
 66
     1
 10
0.0
 20
0.0
 30
0.0
  0
VERTEX
  5
67E
330
67D
100
AcDbEntity
  8
Ebene 1
 62
   179
420
  1709851
370
    18
100
AcDbVertex
100
AcDb2dVertex
 10
65.40858288295341
 20
-128.781631098447
 30
0.0
  0
VERTEX
  5
67F
330
67D
100
AcDbEntity
  8
Ebene 1
 62
   179
420
  1709851
370
    18
100
AcDbVertex
100
AcDb2dVertex
 10
65.66248642021633
 20
-128.7602715064384
 30
0.0
  0
VERTEX
  5
680
330
67D
100
AcDbEntity
  8
Ebene 1
 62
   179
420
  1709851
370
    18
100
AcDbVertex
100
AcDb2dVertex
 10
65.81062552608206
 20
-128.6968817495098
 30
0.0
  0
SEQEND
  5
681
330
67D
100
AcDbEntity
  8
Ebene 1
370
    18
  0
POLYLINE
  5
682
330
1F
100
AcDbEntity
  8
Ebene 1
 62
   179
420
  1709851
370
    18
100
AcDb2dPolyline
 66
     1
 10
0.0
 20
0.0
 30
0.0
  0
VERTEX
  5
683
330
682
100
AcDbEntity
  8
Ebene 1
 62
   179
420
  1709851
370
    18
100
AcDbVertex
100
AcDb2dVertex
 10
68.20255532149103
 20
-126.5168253264437
 30
0.0
  0
VERTEX
  5
684
330
682
100
AcDbEntity
  8
Ebene 1
 62
   179
420
  1709851
370
    18
100
AcDbVertex
100
AcDb2dVertex
 10
68.24492999595961
 20
-126.0934230913065
 30
0.0
  0
VERTEX
  5
685
330
682
100
AcDbEntity
  8
Ebene 1
 62
   179
420
  1709851
370
    18
100
AcDbVertex
100
AcDb2dVertex
 10
68.20255532149103
 20
-125.8605346365036
 30
0.0
  0
VERTEX
  5
686
330
682
100
AcDbEntity
  8
Ebene 1
 62
   179
420
  1709851
370
    18
100
AcDbVertex
100
AcDb2dVertex
 10
68.11780597255388
 20
-125.6913804481779
 30
0.0
  0
SEQEND
  5
687
330
682
100
AcDbEntity
  8
Ebene 1
370
    18
  0
POLYLINE
  5
688
330
1F
100
AcDbEntity
  8
Ebene 1
 62
   179
420
  1709851
370
    18
100
AcDb2dPolyline
 66
     1
 10
0.0
 20
0.0
 30
0.0
  0
VERTEX
  5
689
330
688
100
AcDbEntity
  8
Ebene 1
 62
   179
420
  1709851
370
    18
100
AcDbVertex
100
AcDb2dVertex
 10
67.20761174535087
 20
-127.892451953704
 30
0.0
  0
VERTEX
  5
68A
330
688
100
AcDbEntity
  8
Ebene 1
 62
   179
420
  1709851
370
    18
100
AcDbVertex
100
AcDb2dVertex
 10
67.5464368863252
 20
-127.6385484164411
 30
0.0
  0
VERTEX
  5
68B
330
688
100
AcDbEntity
  8
Ebene 1
 62
   179
420
  1709851
370
    18
100
AcDbVertex
100
AcDb2dVertex
 10
67.8215277608224
 20
-127.3422702047096
 30
0.0
  0
VERTEX
  5
68C
330
688
100
AcDbEntity
  8
Ebene 1
 62
   179
420
  1709851
370
    18
100
AcDbVertex
100
AcDb2dVertex
 10
68.033228878391
 20
-127.0246324009695
 30
0.0
  0
SEQEND
  5
68D
330
688
100
AcDbEntity
  8
Ebene 1
370
    18
  0
POLYLINE
  5
68E
330
1F
100
AcDbEntity
  8
Ebene 1
 62
   179
420
  1709851
370
    18
100
AcDb2dPolyline
 66
     1
 10
0.0
 20
0.0
 30
0.0
  0
VERTEX
  5
68F
330
68E
100
AcDbEntity
  8
Ebene 1
 62
   179
420
  1709851
370
    18
100
AcDbVertex
100
AcDb2dVertex
 10
66.33979219261644
 20
-126.5802150833723
 30
0.0
  0
VERTEX
  5
690
330
68E
100
AcDbEntity
  8
Ebene 1
 62
   179
420
  1709851
370
    18
100
AcDbVertex
100
AcDb2dVertex
 10
66.00113930641639
 20
-126.8341186206352
 30
0.0
  0
VERTEX
  5
691
330
68E
100
AcDbEntity
  8
Ebene 1
 62
   179
420
  1709851
370
    18
100
AcDbVertex
100
AcDb2dVertex
 10
65.7048610946849
 20
-127.1517564243753
 30
0.0
  0
VERTEX
  5
692
330
68E
100
AcDbEntity
  8
Ebene 1
 62
   179
420
  1709851
370
    18
100
AcDbVertex
100
AcDb2dVertex
 10
65.49315997711629
 20
-127.5121134121324
 30
0.0
  0
VERTEX
  5
693
330
68E
100
AcDbEntity
  8
Ebene 1
 62
   179
420
  1709851
370
    18
100
AcDbVertex
100
AcDb2dVertex
 10
65.36620820848484
 20
-127.892451953704
 30
0.0
  0
VERTEX
  5
694
330
68E
100
AcDbEntity
  8
Ebene 1
 62
   179
420
  1709851
370
    18
100
AcDbVertex
100
AcDb2dVertex
 10
65.30264619678198
 20
-128.3158541888412
 30
0.0
  0
VERTEX
  5
695
330
68E
100
AcDbEntity
  8
Ebene 1
 62
   179
420
  1709851
370
    18
100
AcDbVertex
100
AcDb2dVertex
 10
65.30264619678198
 20
-128.3795884553183
 30
0.0
  0
VERTEX
  5
696
330
68E
100
AcDbEntity
  8
Ebene 1
 62
   179
420
  1709851
370
    18
100
AcDbVertex
100
AcDb2dVertex
 10
65.34502087125055
 20
-128.6334919925812
 30
0.0
  0
VERTEX
  5
697
330
68E
100
AcDbEntity
  8
Ebene 1
 62
   179
420
  1709851
370
    18
100
AcDbVertex
100
AcDb2dVertex
 10
65.45078530264772
 20
-128.8450208553756
 30
0.0
  0
VERTEX
  5
698
330
68E
100
AcDbEntity
  8
Ebene 1
 62
   179
420
  1709851
370
    18
100
AcDbVertex
100
AcDb2dVertex
 10
65.64129908298204
 20
-128.9931599612413
 30
0.0
  0
VERTEX
  5
699
330
68E
100
AcDbEntity
  8
Ebene 1
 62
   179
420
  1709851
370
    18
100
AcDbVertex
100
AcDb2dVertex
 10
65.87418753778493
 20
-129.0779093101785
 30
0.0
  0
VERTEX
  5
69A
330
68E
100
AcDbEntity
  8
Ebene 1
 62
   179
420
  1709851
370
    18
100
AcDbVertex
100
AcDb2dVertex
 10
66.10707599258782
 20
-129.0779093101785
 30
0.0
  0
VERTEX
  5
69B
330
68E
100
AcDbEntity
  8
Ebene 1
 62
   179
420
  1709851
370
    18
100
AcDbVertex
100
AcDb2dVertex
 10
66.33979219261644
 20
-128.9931599612413
 30
0.0
  0
SEQEND
  5
69C
330
68E
100
AcDbEntity
  8
Ebene 1
370
    18
  0
POLYLINE
  5
69D
330
1F
100
AcDbEntity
  8
Ebene 1
 62
   179
420
  1709851
370
    18
100
AcDb2dPolyline
 66
     1
 10
0.0
 20
0.0
 30
0.0
  0
VERTEX
  5
69E
330
69D
100
AcDbEntity
  8
Ebene 1
 62
   179
420
  1709851
370
    18
100
AcDbVertex
100
AcDb2dVertex
 10
68.73172198802541
 20
-126.2205471147122
 30
0.0
  0
VERTEX
  5
69F
330
69D
100
AcDbEntity
  8
Ebene 1
 62
   179
420
  1709851
370
    18
100
AcDbVertex
100
AcDb2dVertex
 10
68.64697263908826
 20
-126.0086737423694
 30
0.0
  0
VERTEX
  5
6A0
330
69D
100
AcDbEntity
  8
Ebene 1
 62
   179
420
  1709851
370
    18
100
AcDbVertex
100
AcDb2dVertex
 10
68.47764619598823
 20
-125.8395195540436
 30
0.0
  0
VERTEX
  5
6A1
330
69D
100
AcDbEntity
  8
Ebene 1
 62
   179
420
  1709851
370
    18
100
AcDbVertex
100
AcDb2dVertex
 10
68.26594507841963
 20
-125.7337551226464
 30
0.0
  0
VERTEX
  5
6A2
330
69D
100
AcDbEntity
  8
Ebene 1
 62
   179
420
  1709851
370
    18
100
AcDbVertex
100
AcDb2dVertex
 10
68.01204154115672
 20
-125.6913804481779
 30
0.0
  0
VERTEX
  5
6A3
330
69D
100
AcDbEntity
  8
Ebene 1
 62
   179
420
  1709851
370
    18
100
AcDbVertex
100
AcDb2dVertex
 10
67.77915308635383
 20
-125.7547702051065
 30
0.0
  0
VERTEX
  5
6A4
330
69D
100
AcDbEntity
  8
Ebene 1
 62
   179
420
  1709851
370
    18
100
AcDbVertex
100
AcDb2dVertex
 10
67.71576332942523
 20
-125.797144879575
 30
0.0
  0
SEQEND
  5
6A5
330
69D
100
AcDbEntity
  8
Ebene 1
370
    18
  0
POLYLINE
  5
6A6
330
1F
100
AcDbEntity
  8
Ebene 1
 62
   179
420
  1709851
370
    18
100
AcDb2dPolyline
 66
     1
 10
0.0
 20
0.0
 30
0.0
  0
VERTEX
  5
6A7
330
6A6
100
AcDbEntity
  8
Ebene 1
 62
   179
420
  1709851
370
    18
100
AcDbVertex
100
AcDb2dVertex
 10
67.71576332942523
 20
-128.189074674984
 30
0.0
  0
VERTEX
  5
6A8
330
6A6
100
AcDbEntity
  8
Ebene 1
 62
   179
420
  1709851
370
    18
100
AcDbVertex
100
AcDb2dVertex
 10
68.05441621562528
 20
-127.9348266281725
 30
0.0
  0
VERTEX
  5
6A9
330
6A6
100
AcDbEntity
  8
Ebene 1
 62
   179
420
  1709851
370
    18
100
AcDbVertex
100
AcDb2dVertex
 10
68.35069442735677
 20
-127.6385484164411
 30
0.0
  0
VERTEX
  5
6AA
330
6A6
100
AcDbEntity
  8
Ebene 1
 62
   179
420
  1709851
370
    18
100
AcDbVertex
100
AcDb2dVertex
 10
68.56239554492538
 20
-127.278880447781
 30
0.0
  0
VERTEX
  5
6AB
330
6A6
100
AcDbEntity
  8
Ebene 1
 62
   179
420
  1709851
370
    18
100
AcDbVertex
100
AcDb2dVertex
 10
68.71053465079112
 20
-126.8764932951038
 30
0.0
  0
VERTEX
  5
6AC
330
6A6
100
AcDbEntity
  8
Ebene 1
 62
   179
420
  1709851
370
    18
100
AcDbVertex
100
AcDb2dVertex
 10
68.7529093252597
 20
-126.6015746753809
 30
0.0
  0
SEQEND
  5
6AD
330
6A6
100
AcDbEntity
  8
Ebene 1
370
    18
  0
POLYLINE
  5
6AE
330
1F
100
AcDbEntity
  8
Ebene 1
 62
   179
420
  1709851
370
    18
100
AcDb2dPolyline
 66
     1
 10
0.0
 20
0.0
 30
0.0
  0
VERTEX
  5
6AF
330
6AE
100
AcDbEntity
  8
Ebene 1
 62
   179
420
  1709851
370
    18
100
AcDbVertex
100
AcDb2dVertex
 10
66.4033542043193
 20
-137.6716999981342
 30
0.0
  0
VERTEX
  5
6B0
330
6AE
100
AcDbEntity
  8
Ebene 1
 62
   179
420
  1709851
370
    18
100
AcDbVertex
100
AcDb2dVertex
 10
65.62011174574775
 20
-139.682946742423
 30
0.0
  0
VERTEX
  5
6B1
330
6AE
100
AcDbEntity
  8
Ebene 1
 62
   179
420
  1709851
370
    18
100
AcDbVertex
100
AcDb2dVertex
 10
66.4033542043193
 20
-140.8043253228718
 30
0.0
  0
SEQEND
  5
6B2
330
6AE
100
AcDbEntity
  8
Ebene 1
370
    18
  0
POLYLINE
  5
6B3
330
1F
100
AcDbEntity
  8
Ebene 1
 62
   179
420
  1709851
370
    18
100
AcDb2dPolyline
 66
     1
 10
0.0
 20
0.0
 30
0.0
  0
VERTEX
  5
6B4
330
6B3
100
AcDbEntity
  8
Ebene 1
 62
   179
420
  1709851
370
    18
100
AcDbVertex
100
AcDb2dVertex
 10
66.4033542043193
 20
-137.6716999981342
 30
0.0
  0
VERTEX
  5
6B5
330
6B3
100
AcDbEntity
  8
Ebene 1
 62
   179
420
  1709851
370
    18
100
AcDbVertex
100
AcDb2dVertex
 10
67.94847952945385
 20
-136.7825208533912
 30
0.0
  0
SEQEND
  5
6B6
330
6B3
100
AcDbEntity
  8
Ebene 1
370
    18
  0
POLYLINE
  5
6B7
330
1F
100
AcDbEntity
  8
Ebene 1
 62
   179
420
  1709851
370
    18
100
AcDb2dPolyline
 66
     1
 10
0.0
 20
0.0
 30
0.0
  0
VERTEX
  5
6B8
330
6B7
100
AcDbEntity
  8
Ebene 1
 62
   179
420
  1709851
370
    18
100
AcDbVertex
100
AcDb2dVertex
 10
68.87986109389115
 20
-137.3116875199256
 30
0.0
  0
VERTEX
  5
6B9
330
6B7
100
AcDbEntity
  8
Ebene 1
 62
   179
420
  1709851
370
    18
100
AcDbVertex
100
AcDb2dVertex
 10
67.94847952945385
 20
-136.7825208533912
 30
0.0
  0
SEQEND
  5
6BA
330
6B7
100
AcDbEntity
  8
Ebene 1
370
    18
  0
POLYLINE
  5
6BB
330
1F
100
AcDbEntity
  8
Ebene 1
 62
   179
420
  1709851
370
    18
100
AcDb2dPolyline
 66
     1
 10
0.0
 20
0.0
 30
0.0
  0
VERTEX
  5
6BC
330
6BB
100
AcDbEntity
  8
Ebene 1
 62
   179
420
  1709851
370
    18
100
AcDbVertex
100
AcDb2dVertex
 10
67.3347357687566
 20
-138.2218817471286
 30
0.0
  0
VERTEX
  5
6BD
330
6BB
100
AcDbEntity
  8
Ebene 1
 62
   179
420
  1709851
370
    18
100
AcDbVertex
100
AcDb2dVertex
 10
66.4033542043193
 20
-137.6716999981342
 30
0.0
  0
SEQEND
  5
6BE
330
6BB
100
AcDbEntity
  8
Ebene 1
370
    18
  0
POLYLINE
  5
6BF
330
1F
100
AcDbEntity
  8
Ebene 1
 62
   179
420
  1709851
370
    18
100
AcDb2dPolyline
 66
     1
 10
0.0
 20
0.0
 30
0.0
  0
VERTEX
  5
6C0
330
6BF
100
AcDbEntity
  8
Ebene 1
 62
   179
420
  1709851
370
    18
100
AcDbVertex
100
AcDb2dVertex
 10
66.55149331018505
 20
-140.2331284914174
 30
0.0
  0
VERTEX
  5
6C1
330
6BF
100
AcDbEntity
  8
Ebene 1
 62
   179
420
  1709851
370
    18
100
AcDbVertex
100
AcDb2dVertex
 10
65.62011174574775
 20
-139.682946742423
 30
0.0
  0
SEQEND
  5
6C2
330
6BF
100
AcDbEntity
  8
Ebene 1
370
    18
  0
POLYLINE
  5
6C3
330
1F
100
AcDbEntity
  8
Ebene 1
 62
   179
420
  1709851
370
    18
100
AcDb2dPolyline
 66
     1
 10
0.0
 20
0.0
 30
0.0
  0
VERTEX
  5
6C4
330
6C3
100
AcDbEntity
  8
Ebene 1
 62
   179
420
  1709851
370
    18
100
AcDbVertex
100
AcDb2dVertex
 10
69.43021509765981
 20
-137.9256035353971
 30
0.0
  0
VERTEX
  5
6C5
330
6C3
100
AcDbEntity
  8
Ebene 1
 62
   179
420
  1709851
370
    18
100
AcDbVertex
100
AcDb2dVertex
 10
69.17613930562264
 20
-137.5662800762855
 30
0.0
  0
VERTEX
  5
6C6
330
6C3
100
AcDbEntity
  8
Ebene 1
 62
   179
420
  1709851
370
    18
100
AcDbVertex
100
AcDb2dVertex
 10
68.87986109389115
 20
-137.3116875199256
 30
0.0
  0
SEQEND
  5
6C7
330
6C3
100
AcDbEntity
  8
Ebene 1
370
    18
  0
POLYLINE
  5
6C8
330
1F
100
AcDbEntity
  8
Ebene 1
 62
   179
420
  1709851
370
    18
100
AcDb2dPolyline
 66
     1
 10
0.0
 20
0.0
 30
0.0
  0
VERTEX
  5
6C9
330
6C8
100
AcDbEntity
  8
Ebene 1
 62
   179
420
  1709851
370
    18
100
AcDbVertex
100
AcDb2dVertex
 10
67.3347357687566
 20
-141.3334919894062
 30
0.0
  0
VERTEX
  5
6CA
330
6C8
100
AcDbEntity
  8
Ebene 1
 62
   179
420
  1709851
370
    18
100
AcDbVertex
100
AcDb2dVertex
 10
67.14422198842229
 20
-140.931104836729
 30
0.0
  0
VERTEX
  5
6CB
330
6C8
100
AcDbEntity
  8
Ebene 1
 62
   179
420
  1709851
370
    18
100
AcDbVertex
100
AcDb2dVertex
 10
66.9113335336194
 20
-140.571436868069
 30
0.0
  0
VERTEX
  5
6CC
330
6C8
100
AcDbEntity
  8
Ebene 1
 62
   179
420
  1709851
370
    18
100
AcDbVertex
100
AcDb2dVertex
 10
66.59386798465361
 20
-140.2537990643289
 30
0.0
  0
VERTEX
  5
6CD
330
6C8
100
AcDbEntity
  8
Ebene 1
 62
   179
420
  1709851
370
    18
100
AcDbVertex
100
AcDb2dVertex
 10
66.55149331018505
 20
-140.2331284914174
 30
0.0
  0
VERTEX
  5
6CE
330
6C8
100
AcDbEntity
  8
Ebene 1
 62
   179
420
  1709851
370
    18
100
AcDbVertex
100
AcDb2dVertex
 10
66.8479437766908
 20
-139.8727715036603
 30
0.0
  0
VERTEX
  5
6CF
330
6C8
100
AcDbEntity
  8
Ebene 1
 62
   179
420
  1709851
370
    18
100
AcDbVertex
100
AcDb2dVertex
 10
67.08065997671942
 20
-139.4707288605316
 30
0.0
  0
VERTEX
  5
6D0
330
6C8
100
AcDbEntity
  8
Ebene 1
 62
   179
420
  1709851
370
    18
100
AcDbVertex
100
AcDb2dVertex
 10
67.24998641981945
 20
-139.0263115429344
 30
0.0
  0
VERTEX
  5
6D1
330
6C8
100
AcDbEntity
  8
Ebene 1
 62
   179
420
  1709851
370
    18
100
AcDbVertex
100
AcDb2dVertex
 10
67.3347357687566
 20
-138.5818942253372
 30
0.0
  0
VERTEX
  5
6D2
330
6C8
100
AcDbEntity
  8
Ebene 1
 62
   179
420
  1709851
370
    18
100
AcDbVertex
100
AcDb2dVertex
 10
67.3347357687566
 20
-138.2218817471286
 30
0.0
  0
VERTEX
  5
6D3
330
6C8
100
AcDbEntity
  8
Ebene 1
 62
   179
420
  1709851
370
    18
100
AcDbVertex
100
AcDb2dVertex
 10
67.73677841188525
 20
-138.1371323981914
 30
0.0
  0
VERTEX
  5
6D4
330
6C8
100
AcDbEntity
  8
Ebene 1
 62
   179
420
  1709851
370
    18
100
AcDbVertex
100
AcDb2dVertex
 10
68.11780597255388
 20
-137.9889932923257
 30
0.0
  0
VERTEX
  5
6D5
330
6C8
100
AcDbEntity
  8
Ebene 1
 62
   179
420
  1709851
370
    18
100
AcDbVertex
100
AcDb2dVertex
 10
68.47764619598823
 20
-137.7778089390798
 30
0.0
  0
VERTEX
  5
6D6
330
6C8
100
AcDbEntity
  8
Ebene 1
 62
   179
420
  1709851
370
    18
100
AcDbVertex
100
AcDb2dVertex
 10
68.77409666249397
 20
-137.4811862177999
 30
0.0
  0
VERTEX
  5
6D7
330
6C8
100
AcDbEntity
  8
Ebene 1
 62
   179
420
  1709851
370
    18
100
AcDbVertex
100
AcDb2dVertex
 10
68.87986109389115
 20
-137.3116875199256
 30
0.0
  0
SEQEND
  5
6D8
330
6C8
100
AcDbEntity
  8
Ebene 1
370
    18
  0
POLYLINE
  5
6D9
330
1F
100
AcDbEntity
  8
Ebene 1
 62
   179
420
  1709851
370
    18
100
AcDb2dPolyline
 66
     1
 10
0.0
 20
0.0
 30
0.0
  0
VERTEX
  5
6DA
330
6D9
100
AcDbEntity
  8
Ebene 1
 62
   179
420
  1709851
370
    18
100
AcDbVertex
100
AcDb2dVertex
 10
67.3347357687566
 20
-141.3334919894062
 30
0.0
  0
VERTEX
  5
6DB
330
6D9
100
AcDbEntity
  8
Ebene 1
 62
   179
420
  1709851
370
    18
100
AcDbVertex
100
AcDb2dVertex
 10
67.73677841188525
 20
-141.2704467420261
 30
0.0
  0
VERTEX
  5
6DC
330
6D9
100
AcDbEntity
  8
Ebene 1
 62
   179
420
  1709851
370
    18
100
AcDbVertex
100
AcDb2dVertex
 10
68.13899330978818
 20
-141.1006035346033
 30
0.0
  0
VERTEX
  5
6DD
330
6D9
100
AcDbEntity
  8
Ebene 1
 62
   179
420
  1709851
370
    18
100
AcDbVertex
100
AcDb2dVertex
 10
68.26594507841963
 20
-141.0372137776747
 30
0.0
  0
SEQEND
  5
6DE
330
6D9
100
AcDbEntity
  8
Ebene 1
370
    18
  0
POLYLINE
  5
6DF
330
1F
100
AcDbEntity
  8
Ebene 1
 62
   179
420
  1709851
370
    18
100
AcDb2dPolyline
 66
     1
 10
0.0
 20
0.0
 30
0.0
  0
VERTEX
  5
6E0
330
6DF
100
AcDbEntity
  8
Ebene 1
 62
   179
420
  1709851
370
    18
100
AcDbVertex
100
AcDb2dVertex
 10
67.3347357687566
 20
-141.3334919894062
 30
0.0
  0
VERTEX
  5
6E1
330
6DF
100
AcDbEntity
  8
Ebene 1
 62
   179
420
  1709851
370
    18
100
AcDbVertex
100
AcDb2dVertex
 10
66.4033542043193
 20
-140.8043253228718
 30
0.0
  0
SEQEND
  5
6E2
330
6DF
100
AcDbEntity
  8
Ebene 1
370
    18
  0
POLYLINE
  5
6E3
330
1F
100
AcDbEntity
  8
Ebene 1
 62
   179
420
  1709851
370
    18
100
AcDb2dPolyline
 66
     1
 10
0.0
 20
0.0
 30
0.0
  0
VERTEX
  5
6E4
330
6E3
100
AcDbEntity
  8
Ebene 1
 62
   179
420
  1709851
370
    18
100
AcDbVertex
100
AcDb2dVertex
 10
69.28207599179407
 20
-139.999895527066
 30
0.0
  0
VERTEX
  5
6E5
330
6E3
100
AcDbEntity
  8
Ebene 1
 62
   179
420
  1709851
370
    18
100
AcDbVertex
100
AcDb2dVertex
 10
69.49377710936267
 20
-139.5131035350002
 30
0.0
  0
VERTEX
  5
6E6
330
6E3
100
AcDbEntity
  8
Ebene 1
 62
   179
420
  1709851
370
    18
100
AcDbVertex
100
AcDb2dVertex
 10
69.57835420352555
 20
-139.2802150801973
 30
0.0
  0
SEQEND
  5
6E7
330
6E3
100
AcDbEntity
  8
Ebene 1
370
    18
  0
POLYLINE
  5
6E8
330
1F
100
AcDbEntity
  8
Ebene 1
 62
   179
420
  1709851
370
    18
100
AcDb2dPolyline
 66
     1
 10
0.0
 20
0.0
 30
0.0
  0
VERTEX
  5
6E9
330
6E8
100
AcDbEntity
  8
Ebene 1
 62
   179
420
  1709851
370
    18
100
AcDbVertex
100
AcDb2dVertex
 10
69.57835420352555
 20
-139.2802150801973
 30
0.0
  0
VERTEX
  5
6EA
330
6E8
100
AcDbEntity
  8
Ebene 1
 62
   179
420
  1709851
370
    18
100
AcDbVertex
100
AcDb2dVertex
 10
69.6631035524627
 20
-138.8568128450601
 30
0.0
  0
VERTEX
  5
6EB
330
6E8
100
AcDbEntity
  8
Ebene 1
 62
   179
420
  1709851
370
    18
100
AcDbVertex
100
AcDb2dVertex
 10
69.6631035524627
 20
-138.6662990647258
 30
0.0
  0
SEQEND
  5
6EC
330
6E8
100
AcDbEntity
  8
Ebene 1
370
    18
  0
POLYLINE
  5
6ED
330
1F
100
AcDbEntity
  8
Ebene 1
 62
   179
420
  1709851
370
    18
100
AcDb2dPolyline
 66
     1
 10
0.0
 20
0.0
 30
0.0
  0
VERTEX
  5
6EE
330
6ED
100
AcDbEntity
  8
Ebene 1
 62
   179
420
  1709851
370
    18
100
AcDbVertex
100
AcDb2dVertex
 10
69.6631035524627
 20
-138.6662990647258
 30
0.0
  0
VERTEX
  5
6EF
330
6ED
100
AcDbEntity
  8
Ebene 1
 62
   179
420
  1709851
370
    18
100
AcDbVertex
100
AcDb2dVertex
 10
69.62072887799413
 20
-138.3276461785257
 30
0.0
  0
VERTEX
  5
6F0
330
6ED
100
AcDbEntity
  8
Ebene 1
 62
   179
420
  1709851
370
    18
100
AcDbVertex
100
AcDb2dVertex
 10
69.53597952905697
 20
-138.0954467428199
 30
0.0
  0
SEQEND
  5
6F1
330
6ED
100
AcDbEntity
  8
Ebene 1
370
    18
  0
POLYLINE
  5
6F2
330
1F
100
AcDbEntity
  8
Ebene 1
 62
   179
420
  1709851
370
    18
100
AcDb2dPolyline
 66
     1
 10
0.0
 20
0.0
 30
0.0
  0
VERTEX
  5
6F3
330
6F2
100
AcDbEntity
  8
Ebene 1
 62
   179
420
  1709851
370
    18
100
AcDbVertex
100
AcDb2dVertex
 10
69.53597952905697
 20
-138.0954467428199
 30
0.0
  0
VERTEX
  5
6F4
330
6F2
100
AcDbEntity
  8
Ebene 1
 62
   179
420
  1709851
370
    18
100
AcDbVertex
100
AcDb2dVertex
 10
69.40902776042553
 20
-137.904588452937
 30
0.0
  0
VERTEX
  5
6F5
330
6F2
100
AcDbEntity
  8
Ebene 1
 62
   179
420
  1709851
370
    18
100
AcDbVertex
100
AcDb2dVertex
 10
69.28207599179407
 20
-137.7984795119914
 30
0.0
  0
SEQEND
  5
6F6
330
6F2
100
AcDbEntity
  8
Ebene 1
370
    18
  0
POLYLINE
  5
6F7
330
1F
100
AcDbEntity
  8
Ebene 1
 62
   179
420
  1709851
370
    18
100
AcDb2dPolyline
 66
     1
 10
0.0
 20
0.0
 30
0.0
  0
VERTEX
  5
6F8
330
6F7
100
AcDbEntity
  8
Ebene 1
 62
   179
420
  1709851
370
    18
100
AcDbVertex
100
AcDb2dVertex
 10
69.28207599179407
 20
-137.7984795119914
 30
0.0
  0
VERTEX
  5
6F9
330
6F7
100
AcDbEntity
  8
Ebene 1
 62
   179
420
  1709851
370
    18
100
AcDbVertex
100
AcDb2dVertex
 10
69.04918753699118
 20
-137.7140746726027
 30
0.0
  0
VERTEX
  5
6FA
330
6F7
100
AcDbEntity
  8
Ebene 1
 62
   179
420
  1709851
370
    18
100
AcDbVertex
100
AcDb2dVertex
 10
68.87986109389115
 20
-137.7140746726027
 30
0.0
  0
SEQEND
  5
6FB
330
6F7
100
AcDbEntity
  8
Ebene 1
370
    18
  0
POLYLINE
  5
6FC
330
1F
100
AcDbEntity
  8
Ebene 1
 62
   179
420
  1709851
370
    18
100
AcDb2dPolyline
 66
     1
 10
0.0
 20
0.0
 30
0.0
  0
VERTEX
  5
6FD
330
6FC
100
AcDbEntity
  8
Ebene 1
 62
   179
420
  1709851
370
    18
100
AcDbVertex
100
AcDb2dVertex
 10
68.87986109389115
 20
-137.7140746726027
 30
0.0
  0
VERTEX
  5
6FE
330
6FC
100
AcDbEntity
  8
Ebene 1
 62
   179
420
  1709851
370
    18
100
AcDbVertex
100
AcDb2dVertex
 10
68.54120820769108
 20
-137.7778089390798
 30
0.0
  0
VERTEX
  5
6FF
330
6FC
100
AcDbEntity
  8
Ebene 1
 62
   179
420
  1709851
370
    18
100
AcDbVertex
100
AcDb2dVertex
 10
68.3083197528882
 20
-137.8832288609285
 30
0.0
  0
SEQEND
  5
700
330
6FC
100
AcDbEntity
  8
Ebene 1
370
    18
  0
POLYLINE
  5
701
330
1F
100
AcDbEntity
  8
Ebene 1
 62
   179
420
  1709851
370
    18
100
AcDb2dPolyline
 66
     1
 10
0.0
 20
0.0
 30
0.0
  0
VERTEX
  5
702
330
701
100
AcDbEntity
  8
Ebene 1
 62
   179
420
  1709851
370
    18
100
AcDbVertex
100
AcDb2dVertex
 10
68.3083197528882
 20
-137.8832288609285
 30
0.0
  0
VERTEX
  5
703
330
701
100
AcDbEntity
  8
Ebene 1
 62
   179
420
  1709851
370
    18
100
AcDbVertex
100
AcDb2dVertex
 10
67.96966686668814
 20
-138.1371323981914
 30
0.0
  0
VERTEX
  5
704
330
701
100
AcDbEntity
  8
Ebene 1
 62
   179
420
  1709851
370
    18
100
AcDbVertex
100
AcDb2dVertex
 10
67.8215277608224
 20
-138.2642564215971
 30
0.0
  0
SEQEND
  5
705
330
701
100
AcDbEntity
  8
Ebene 1
370
    18
  0
POLYLINE
  5
706
330
1F
100
AcDbEntity
  8
Ebene 1
 62
   179
420
  1709851
370
    18
100
AcDb2dPolyline
 66
     1
 10
0.0
 20
0.0
 30
0.0
  0
VERTEX
  5
707
330
706
100
AcDbEntity
  8
Ebene 1
 62
   179
420
  1709851
370
    18
100
AcDbVertex
100
AcDb2dVertex
 10
67.8215277608224
 20
-138.2642564215971
 30
0.0
  0
VERTEX
  5
708
330
706
100
AcDbEntity
  8
Ebene 1
 62
   179
420
  1709851
370
    18
100
AcDbVertex
100
AcDb2dVertex
 10
67.50406221185662
 20
-138.6876586567343
 30
0.0
  0
VERTEX
  5
709
330
706
100
AcDbEntity
  8
Ebene 1
 62
   179
420
  1709851
370
    18
100
AcDbVertex
100
AcDb2dVertex
 10
67.35592310599088
 20
-138.8991875195287
 30
0.0
  0
SEQEND
  5
70A
330
706
100
AcDbEntity
  8
Ebene 1
370
    18
  0
POLYLINE
  5
70B
330
1F
100
AcDbEntity
  8
Ebene 1
 62
   179
420
  1709851
370
    18
100
AcDb2dPolyline
 66
     1
 10
0.0
 20
0.0
 30
0.0
  0
VERTEX
  5
70C
330
70B
100
AcDbEntity
  8
Ebene 1
 62
   179
420
  1709851
370
    18
100
AcDbVertex
100
AcDb2dVertex
 10
67.35592310599088
 20
-138.8991875195287
 30
0.0
  0
VERTEX
  5
70D
330
70B
100
AcDbEntity
  8
Ebene 1
 62
   179
420
  1709851
370
    18
100
AcDbVertex
100
AcDb2dVertex
 10
67.14422198842229
 20
-139.3649644291345
 30
0.0
  0
VERTEX
  5
70E
330
70B
100
AcDbEntity
  8
Ebene 1
 62
   179
420
  1709851
370
    18
100
AcDbVertex
100
AcDb2dVertex
 10
67.05947263948514
 20
-139.5978528839373
 30
0.0
  0
SEQEND
  5
70F
330
70B
100
AcDbEntity
  8
Ebene 1
370
    18
  0
POLYLINE
  5
710
330
1F
100
AcDbEntity
  8
Ebene 1
 62
   179
420
  1709851
370
    18
100
AcDb2dPolyline
 66
     1
 10
0.0
 20
0.0
 30
0.0
  0
VERTEX
  5
711
330
710
100
AcDbEntity
  8
Ebene 1
 62
   179
420
  1709851
370
    18
100
AcDbVertex
100
AcDb2dVertex
 10
67.05947263948514
 20
-139.5978528839373
 30
0.0
  0
VERTEX
  5
712
330
710
100
AcDbEntity
  8
Ebene 1
 62
   179
420
  1709851
370
    18
100
AcDbVertex
100
AcDb2dVertex
 10
66.97489554532225
 20
-140.0212551190746
 30
0.0
  0
VERTEX
  5
713
330
710
100
AcDbEntity
  8
Ebene 1
 62
   179
420
  1709851
370
    18
100
AcDbVertex
100
AcDb2dVertex
 10
66.97489554532225
 20
-140.2331284914174
 30
0.0
  0
SEQEND
  5
714
330
710
100
AcDbEntity
  8
Ebene 1
370
    18
  0
POLYLINE
  5
715
330
1F
100
AcDbEntity
  8
Ebene 1
 62
   179
420
  1709851
370
    18
100
AcDb2dPolyline
 66
     1
 10
0.0
 20
0.0
 30
0.0
  0
VERTEX
  5
716
330
715
100
AcDbEntity
  8
Ebene 1
 62
   179
420
  1709851
370
    18
100
AcDbVertex
100
AcDb2dVertex
 10
66.97489554532225
 20
-140.2327839818689
 30
0.0
  0
VERTEX
  5
717
330
715
100
AcDbEntity
  8
Ebene 1
 62
   179
420
  1709851
370
    18
100
AcDbVertex
100
AcDb2dVertex
 10
67.01727021979083
 20
-140.571436868069
 30
0.0
  0
VERTEX
  5
718
330
715
100
AcDbEntity
  8
Ebene 1
 62
   179
420
  1709851
370
    18
100
AcDbVertex
100
AcDb2dVertex
 10
67.10184731395371
 20
-140.8043253228718
 30
0.0
  0
SEQEND
  5
719
330
715
100
AcDbEntity
  8
Ebene 1
370
    18
  0
POLYLINE
  5
71A
330
1F
100
AcDbEntity
  8
Ebene 1
 62
   179
420
  1709851
370
    18
100
AcDb2dPolyline
 66
     1
 10
0.0
 20
0.0
 30
0.0
  0
VERTEX
  5
71B
330
71A
100
AcDbEntity
  8
Ebene 1
 62
   179
420
  1709851
370
    18
100
AcDbVertex
100
AcDb2dVertex
 10
67.10184731395371
 20
-140.8043253228718
 30
0.0
  0
VERTEX
  5
71C
330
71A
100
AcDbEntity
  8
Ebene 1
 62
   179
420
  1709851
370
    18
100
AcDbVertex
100
AcDb2dVertex
 10
67.22879908258517
 20
-140.9948391032061
 30
0.0
  0
VERTEX
  5
71D
330
71A
100
AcDbEntity
  8
Ebene 1
 62
   179
420
  1709851
370
    18
100
AcDbVertex
100
AcDb2dVertex
 10
67.35592310599088
 20
-141.1006035346033
 30
0.0
  0
SEQEND
  5
71E
330
71A
100
AcDbEntity
  8
Ebene 1
370
    18
  0
POLYLINE
  5
71F
330
1F
100
AcDbEntity
  8
Ebene 1
 62
   179
420
  1709851
370
    18
100
AcDb2dPolyline
 66
     1
 10
0.0
 20
0.0
 30
0.0
  0
VERTEX
  5
720
330
71F
100
AcDbEntity
  8
Ebene 1
 62
   179
420
  1709851
370
    18
100
AcDbVertex
100
AcDb2dVertex
 10
67.35592310599088
 20
-141.1006035346033
 30
0.0
  0
VERTEX
  5
721
330
71F
100
AcDbEntity
  8
Ebene 1
 62
   179
420
  1709851
370
    18
100
AcDbVertex
100
AcDb2dVertex
 10
67.58863930601952
 20
-141.1853528835405
 30
0.0
  0
VERTEX
  5
722
330
71F
100
AcDbEntity
  8
Ebene 1
 62
   179
420
  1709851
370
    18
100
AcDbVertex
100
AcDb2dVertex
 10
67.75796574911953
 20
-141.1853528835405
 30
0.0
  0
SEQEND
  5
723
330
71F
100
AcDbEntity
  8
Ebene 1
370
    18
  0
POLYLINE
  5
724
330
1F
100
AcDbEntity
  8
Ebene 1
 62
   179
420
  1709851
370
    18
100
AcDb2dPolyline
 66
     1
 10
0.0
 20
0.0
 30
0.0
  0
VERTEX
  5
725
330
724
100
AcDbEntity
  8
Ebene 1
 62
   179
420
  1709851
370
    18
100
AcDbVertex
100
AcDb2dVertex
 10
67.75796574911953
 20
-141.1853528835405
 30
0.0
  0
VERTEX
  5
726
330
724
100
AcDbEntity
  8
Ebene 1
 62
   179
420
  1709851
370
    18
100
AcDbVertex
100
AcDb2dVertex
 10
68.0966186353196
 20
-141.1006035346033
 30
0.0
  0
VERTEX
  5
727
330
724
100
AcDbEntity
  8
Ebene 1
 62
   179
420
  1709851
370
    18
100
AcDbVertex
100
AcDb2dVertex
 10
68.3083197528882
 20
-140.9948391032061
 30
0.0
  0
SEQEND
  5
728
330
724
100
AcDbEntity
  8
Ebene 1
370
    18
  0
POLYLINE
  5
729
330
1F
100
AcDbEntity
  8
Ebene 1
 62
   179
420
  1709851
370
    18
100
AcDb2dPolyline
 66
     1
 10
0.0
 20
0.0
 30
0.0
  0
VERTEX
  5
72A
330
729
100
AcDbEntity
  8
Ebene 1
 62
   179
420
  1709851
370
    18
100
AcDbVertex
100
AcDb2dVertex
 10
68.3083197528882
 20
-140.9948391032061
 30
0.0
  0
VERTEX
  5
72B
330
729
100
AcDbEntity
  8
Ebene 1
 62
   179
420
  1709851
370
    18
100
AcDbVertex
100
AcDb2dVertex
 10
68.66815997632254
 20
-140.7622951579518
 30
0.0
  0
VERTEX
  5
72C
330
729
100
AcDbEntity
  8
Ebene 1
 62
   179
420
  1709851
370
    18
100
AcDbVertex
100
AcDb2dVertex
 10
68.8162990821883
 20
-140.6138115425375
 30
0.0
  0
SEQEND
  5
72D
330
729
100
AcDbEntity
  8
Ebene 1
370
    18
  0
POLYLINE
  5
72E
330
1F
100
AcDbEntity
  8
Ebene 1
 62
   179
420
  1709851
370
    18
100
AcDb2dPolyline
 66
     1
 10
0.0
 20
0.0
 30
0.0
  0
VERTEX
  5
72F
330
72E
100
AcDbEntity
  8
Ebene 1
 62
   179
420
  1709851
370
    18
100
AcDbVertex
100
AcDb2dVertex
 10
68.8162990821883
 20
-140.6138115425375
 30
0.0
  0
VERTEX
  5
730
330
72E
100
AcDbEntity
  8
Ebene 1
 62
   179
420
  1709851
370
    18
100
AcDbVertex
100
AcDb2dVertex
 10
69.13393688592832
 20
-140.2121134089574
 30
0.0
  0
VERTEX
  5
731
330
72E
100
AcDbEntity
  8
Ebene 1
 62
   179
420
  1709851
370
    18
100
AcDbVertex
100
AcDb2dVertex
 10
69.28207599179407
 20
-139.999895527066
 30
0.0
  0
SEQEND
  5
732
330
72E
100
AcDbEntity
  8
Ebene 1
370
    18
  0
POLYLINE
  5
733
330
1F
100
AcDbEntity
  8
Ebene 1
 62
   179
420
  1709851
370
    18
100
AcDb2dPolyline
 66
     1
 10
0.0
 20
0.0
 30
0.0
  0
VERTEX
  5
734
330
733
100
AcDbEntity
  8
Ebene 1
 62
   179
420
  1709851
370
    18
100
AcDbVertex
100
AcDb2dVertex
 10
68.87986109389115
 20
-137.3116875199256
 30
0.0
  0
VERTEX
  5
735
330
733
100
AcDbEntity
  8
Ebene 1
 62
   179
420
  1709851
370
    18
100
AcDbVertex
100
AcDb2dVertex
 10
68.73172198802541
 20
-137.0154093081941
 30
0.0
  0
VERTEX
  5
736
330
733
100
AcDbEntity
  8
Ebene 1
 62
   179
420
  1709851
370
    18
100
AcDbVertex
100
AcDb2dVertex
 10
68.49883353322252
 20
-136.8038804453997
 30
0.0
  0
VERTEX
  5
737
330
733
100
AcDbEntity
  8
Ebene 1
 62
   179
420
  1709851
370
    18
100
AcDbVertex
100
AcDb2dVertex
 10
68.22374265872531
 20
-136.6343817475255
 30
0.0
  0
VERTEX
  5
738
330
733
100
AcDbEntity
  8
Ebene 1
 62
   179
420
  1709851
370
    18
100
AcDbVertex
100
AcDb2dVertex
 10
67.92729219221957
 20
-136.5496323985883
 30
0.0
  0
VERTEX
  5
739
330
733
100
AcDbEntity
  8
Ebene 1
 62
   179
420
  1709851
370
    18
100
AcDbVertex
100
AcDb2dVertex
 10
67.6098266432538
 20
-136.5496323985883
 30
0.0
  0
VERTEX
  5
73A
330
733
100
AcDbEntity
  8
Ebene 1
 62
   179
420
  1709851
370
    18
100
AcDbVertex
100
AcDb2dVertex
 10
67.29236109428803
 20
-136.6343817475255
 30
0.0
  0
VERTEX
  5
73B
330
733
100
AcDbEntity
  8
Ebene 1
 62
   179
420
  1709851
370
    18
100
AcDbVertex
100
AcDb2dVertex
 10
67.16540932565657
 20
-136.697771504454
 30
0.0
  0
SEQEND
  5
73C
330
733
100
AcDbEntity
  8
Ebene 1
370
    18
  0
POLYLINE
  5
73D
330
1F
100
AcDbEntity
  8
Ebene 1
 62
   179
420
  1709851
370
    18
100
AcDb2dPolyline
 66
     1
 10
0.0
 20
0.0
 30
0.0
  0
VERTEX
  5
73E
330
73D
100
AcDbEntity
  8
Ebene 1
 62
   179
420
  1709851
370
    18
100
AcDbVertex
100
AcDb2dVertex
 10
67.96966686668814
 20
-136.4652275591997
 30
0.0
  0
VERTEX
  5
73F
330
73D
100
AcDbEntity
  8
Ebene 1
 62
   179
420
  1709851
370
    18
100
AcDbVertex
100
AcDb2dVertex
 10
67.67338865495665
 20
-136.3381035357939
 30
0.0
  0
VERTEX
  5
740
330
73D
100
AcDbEntity
  8
Ebene 1
 62
   179
420
  1709851
370
    18
100
AcDbVertex
100
AcDb2dVertex
 10
67.35592310599088
 20
-136.3170884533339
 30
0.0
  0
VERTEX
  5
741
330
73D
100
AcDbEntity
  8
Ebene 1
 62
   179
420
  1709851
370
    18
100
AcDbVertex
100
AcDb2dVertex
 10
67.03828530225084
 20
-136.359118618254
 30
0.0
  0
VERTEX
  5
742
330
73D
100
AcDbEntity
  8
Ebene 1
 62
   179
420
  1709851
370
    18
100
AcDbVertex
100
AcDb2dVertex
 10
66.76319442775365
 20
-136.4652275591997
 30
0.0
  0
SEQEND
  5
743
330
73D
100
AcDbEntity
  8
Ebene 1
370
    18
  0
POLYLINE
  5
744
330
1F
100
AcDbEntity
  8
Ebene 1
 62
   179
420
  1709851
370
    18
100
AcDb2dPolyline
 66
     1
 10
0.0
 20
0.0
 30
0.0
  0
VERTEX
  5
745
330
744
100
AcDbEntity
  8
Ebene 1
 62
   179
420
  1709851
370
    18
100
AcDbVertex
100
AcDb2dVertex
 10
65.57790932605344
 20
-140.6138115425375
 30
0.0
  0
VERTEX
  5
746
330
744
100
AcDbEntity
  8
Ebene 1
 62
   179
420
  1709851
370
    18
100
AcDbVertex
100
AcDb2dVertex
 10
65.95893688672207
 20
-140.8253404053319
 30
0.0
  0
VERTEX
  5
747
330
744
100
AcDbEntity
  8
Ebene 1
 62
   179
420
  1709851
370
    18
100
AcDbVertex
100
AcDb2dVertex
 10
66.25521509845356
 20
-140.9524644287376
 30
0.0
  0
VERTEX
  5
748
330
744
100
AcDbEntity
  8
Ebene 1
 62
   179
420
  1709851
370
    18
100
AcDbVertex
100
AcDb2dVertex
 10
66.57268064741933
 20
-140.9948391032061
 30
0.0
  0
VERTEX
  5
749
330
744
100
AcDbEntity
  8
Ebene 1
 62
   179
420
  1709851
370
    18
100
AcDbVertex
100
AcDb2dVertex
 10
66.72081975328507
 20
-140.9734795111976
 30
0.0
  0
SEQEND
  5
74A
330
744
100
AcDbEntity
  8
Ebene 1
370
    18
  0
POLYLINE
  5
74B
330
1F
100
AcDbEntity
  8
Ebene 1
 62
   179
420
  1709851
370
    18
100
AcDb2dPolyline
 66
     1
 10
0.0
 20
0.0
 30
0.0
  0
VERTEX
  5
74C
330
74B
100
AcDbEntity
  8
Ebene 1
 62
   179
420
  1709851
370
    18
100
AcDbVertex
100
AcDb2dVertex
 10
67.96966686668814
 20
-136.4652275591997
 30
0.0
  0
VERTEX
  5
74D
330
74B
100
AcDbEntity
  8
Ebene 1
 62
   179
420
  1709851
370
    18
100
AcDbVertex
100
AcDb2dVertex
 10
68.35069442735677
 20
-136.697771504454
 30
0.0
  0
SEQEND
  5
74E
330
74B
100
AcDbEntity
  8
Ebene 1
370
    18
  0
POLYLINE
  5
74F
330
1F
100
AcDbEntity
  8
Ebene 1
 62
   179
420
  1709851
370
    18
100
AcDb2dPolyline
 66
     1
 10
0.0
 20
0.0
 30
0.0
  0
VERTEX
  5
750
330
74F
100
AcDbEntity
  8
Ebene 1
 62
   179
420
  1709851
370
    18
100
AcDbVertex
100
AcDb2dVertex
 10
66.4033542043193
 20
-137.6716999981342
 30
0.0
  0
VERTEX
  5
751
330
74F
100
AcDbEntity
  8
Ebene 1
 62
   179
420
  1709851
370
    18
100
AcDbVertex
100
AcDb2dVertex
 10
67.92729219221957
 20
-136.7825208533912
 30
0.0
  0
SEQEND
  5
752
330
74F
100
AcDbEntity
  8
Ebene 1
370
    18
  0
POLYLINE
  5
753
330
1F
100
AcDbEntity
  8
Ebene 1
 62
   179
420
  1709851
370
    18
100
AcDb2dPolyline
 66
     1
 10
0.0
 20
0.0
 30
0.0
  0
VERTEX
  5
754
330
753
100
AcDbEntity
  8
Ebene 1
 62
   179
420
  1709851
370
    18
100
AcDbVertex
100
AcDb2dVertex
 10
66.76319442775365
 20
-136.4652275591997
 30
0.0
  0
VERTEX
  5
755
330
753
100
AcDbEntity
  8
Ebene 1
 62
   179
420
  1709851
370
    18
100
AcDbVertex
100
AcDb2dVertex
 10
66.31877711015642
 20
-136.7825208533912
 30
0.0
  0
VERTEX
  5
756
330
753
100
AcDbEntity
  8
Ebene 1
 62
   179
420
  1709851
370
    18
100
AcDbVertex
100
AcDb2dVertex
 10
65.9165622122535
 20
-137.1635484140598
 30
0.0
  0
VERTEX
  5
757
330
753
100
AcDbEntity
  8
Ebene 1
 62
   179
420
  1709851
370
    18
100
AcDbVertex
100
AcDb2dVertex
 10
65.57790932605344
 20
-137.5872951587455
 30
0.0
  0
VERTEX
  5
758
330
753
100
AcDbEntity
  8
Ebene 1
 62
   179
420
  1709851
370
    18
100
AcDbVertex
100
AcDb2dVertex
 10
65.30264619678198
 20
-138.0737426412628
 30
0.0
  0
VERTEX
  5
759
330
753
100
AcDbEntity
  8
Ebene 1
 62
   179
420
  1709851
370
    18
100
AcDbVertex
100
AcDb2dVertex
 10
65.11213241644766
 20
-138.5818942253372
 30
0.0
  0
VERTEX
  5
75A
330
753
100
AcDbEntity
  8
Ebene 1
 62
   179
420
  1709851
370
    18
100
AcDbVertex
100
AcDb2dVertex
 10
65.00636798505049
 20
-139.1320759743316
 30
0.0
  0
VERTEX
  5
75B
330
753
100
AcDbEntity
  8
Ebene 1
 62
   179
420
  1709851
370
    18
100
AcDbVertex
100
AcDb2dVertex
 10
64.98518064781621
 20
-139.5764932919288
 30
0.0
  0
VERTEX
  5
75C
330
753
100
AcDbEntity
  8
Ebene 1
 62
   179
420
  1709851
370
    18
100
AcDbVertex
100
AcDb2dVertex
 10
65.02755532228478
 20
-139.8941310956688
 30
0.0
  0
VERTEX
  5
75D
330
753
100
AcDbEntity
  8
Ebene 1
 62
   179
420
  1709851
370
    18
100
AcDbVertex
100
AcDb2dVertex
 10
65.13331975368195
 20
-140.1904093074003
 30
0.0
  0
VERTEX
  5
75E
330
753
100
AcDbEntity
  8
Ebene 1
 62
   179
420
  1709851
370
    18
100
AcDbVertex
100
AcDb2dVertex
 10
65.34502087125055
 20
-140.4232977622032
 30
0.0
  0
VERTEX
  5
75F
330
753
100
AcDbEntity
  8
Ebene 1
 62
   179
420
  1709851
370
    18
100
AcDbVertex
100
AcDb2dVertex
 10
65.57790932605344
 20
-140.6138115425375
 30
0.0
  0
SEQEND
  5
760
330
753
100
AcDbEntity
  8
Ebene 1
370
    18
  0
POLYLINE
  5
761
330
1F
100
AcDbEntity
  8
Ebene 1
 62
   179
420
  1709851
370
    18
100
AcDb2dPolyline
 66
     1
 10
0.0
 20
0.0
 30
0.0
  0
VERTEX
  5
762
330
761
100
AcDbEntity
  8
Ebene 1
 62
   179
420
  1709851
370
    18
100
AcDbVertex
100
AcDb2dVertex
 10
67.16540932565657
 20
-136.697771504454
 30
0.0
  0
VERTEX
  5
763
330
761
100
AcDbEntity
  8
Ebene 1
 62
   179
420
  1709851
370
    18
100
AcDbVertex
100
AcDb2dVertex
 10
66.69963241605079
 20
-137.0154093081941
 30
0.0
  0
VERTEX
  5
764
330
761
100
AcDbEntity
  8
Ebene 1
 62
   179
420
  1709851
370
    18
100
AcDbVertex
100
AcDb2dVertex
 10
66.29758977292214
 20
-137.3754217864027
 30
0.0
  0
VERTEX
  5
765
330
761
100
AcDbEntity
  8
Ebene 1
 62
   179
420
  1709851
370
    18
100
AcDbVertex
100
AcDb2dVertex
 10
65.95893688672207
 20
-137.8198391039999
 30
0.0
  0
VERTEX
  5
766
330
761
100
AcDbEntity
  8
Ebene 1
 62
   179
420
  1709851
370
    18
100
AcDbVertex
100
AcDb2dVertex
 10
65.7048610946849
 20
-138.3066310960657
 30
0.0
  0
VERTEX
  5
767
330
761
100
AcDbEntity
  8
Ebene 1
 62
   179
420
  1709851
370
    18
100
AcDbVertex
100
AcDb2dVertex
 10
65.51434731435059
 20
-138.8144381705915
 30
0.0
  0
VERTEX
  5
768
330
761
100
AcDbEntity
  8
Ebene 1
 62
   179
420
  1709851
370
    18
100
AcDbVertex
100
AcDb2dVertex
 10
65.38739554571913
 20
-139.3436048371259
 30
0.0
  0
VERTEX
  5
769
330
761
100
AcDbEntity
  8
Ebene 1
 62
   179
420
  1709851
370
    18
100
AcDbVertex
100
AcDb2dVertex
 10
65.36620820848484
 20
-139.7883666642717
 30
0.0
  0
VERTEX
  5
76A
330
761
100
AcDbEntity
  8
Ebene 1
 62
   179
420
  1709851
370
    18
100
AcDbVertex
100
AcDb2dVertex
 10
65.40858288295341
 20
-140.1056599584632
 30
0.0
  0
VERTEX
  5
76B
330
761
100
AcDbEntity
  8
Ebene 1
 62
   179
420
  1709851
370
    18
100
AcDbVertex
100
AcDb2dVertex
 10
65.53553465158487
 20
-140.4019381701947
 30
0.0
  0
VERTEX
  5
76C
330
761
100
AcDbEntity
  8
Ebene 1
 62
   179
420
  1709851
370
    18
100
AcDbVertex
100
AcDb2dVertex
 10
65.72604843191918
 20
-140.6561862170061
 30
0.0
  0
VERTEX
  5
76D
330
761
100
AcDbEntity
  8
Ebene 1
 62
   179
420
  1709851
370
    18
100
AcDbVertex
100
AcDb2dVertex
 10
65.95893688672207
 20
-140.8253404053319
 30
0.0
  0
SEQEND
  5
76E
330
761
100
AcDbEntity
  8
Ebene 1
370
    18
  0
POLYLINE
  5
76F
330
1F
100
AcDbEntity
  8
Ebene 1
 62
   179
420
  1709851
370
    25
100
AcDb2dPolyline
 66
     1
 10
0.0
 20
0.0
 30
0.0
  0
VERTEX
  5
770
330
76F
100
AcDbEntity
  8
Ebene 1
 62
   179
420
  1709851
370
    25
100
AcDbVertex
100
AcDb2dVertex
 10
80.28863930284452
 20
-115.6372137840247
 30
0.0
  0
VERTEX
  5
771
330
76F
100
AcDbEntity
  8
Ebene 1
 62
   179
420
  1709851
370
    25
100
AcDbVertex
100
AcDb2dVertex
 10
69.98056910142847
 20
-109.6892564287409
 30
0.0
  0
SEQEND
  5
772
330
76F
100
AcDbEntity
  8
Ebene 1
370
    25
  0
POLYLINE
  5
773
330
1F
100
AcDbEntity
  8
Ebene 1
 62
   179
420
  1709851
370
    25
100
AcDb2dPolyline
 66
     1
 10
0.0
 20
0.0
 30
0.0
  0
VERTEX
  5
774
330
773
100
AcDbEntity
  8
Ebene 1
 62
   179
420
  1709851
370
    25
100
AcDbVertex
100
AcDb2dVertex
 10
69.98056910142847
 20
-141.6935044676148
 30
0.0
  0
VERTEX
  5
775
330
773
100
AcDbEntity
  8
Ebene 1
 62
   179
420
  1709851
370
    25
100
AcDbVertex
100
AcDb2dVertex
 10
79.14572887561287
 20
-146.9851711329586
 30
0.0
  0
SEQEND
  5
776
330
773
100
AcDbEntity
  8
Ebene 1
370
    25
  0
INSERT
  5
778
330
1F
100
AcDbEntity
  8
Ebene 1
100
AcDbBlockReference
  2
block 4
 10
0.0
 20
0.0
 30
0.0
  0
POLYLINE
  5
783
330
1F
100
AcDbEntity
  8
Ebene 1
 62
   179
420
  1709851
370
    25
100
AcDb2dPolyline
 66
     1
 10
0.0
 20
0.0
 30
0.0
  0
VERTEX
  5
784
330
783
100
AcDbEntity
  8
Ebene 1
 62
   179
420
  1709851
370
    25
100
AcDbVertex
100
AcDb2dVertex
 10
82.3631035492877
 20
-174.628445051829
 30
0.0
  0
VERTEX
  5
785
330
783
100
AcDbEntity
  8
Ebene 1
 62
   179
420
  1709851
370
    25
100
AcDbVertex
100
AcDb2dVertex
 10
82.3631035492877
 20
-169.1252495236909
 30
0.0
  0
SEQEND
  5
786
330
783
100
AcDbEntity
  8
Ebene 1
370
    25
  0
POLYLINE
  5
787
330
1F
100
AcDbEntity
  8
Ebene 1
 62
   179
420
  1709851
370
    25
100
AcDb2dPolyline
 66
     1
 10
0.0
 20
0.0
 30
0.0
  0
VERTEX
  5
788
330
787
100
AcDbEntity
  8
Ebene 1
 62
   179
420
  1709851
370
    25
100
AcDbVertex
100
AcDb2dVertex
 10
82.70175643548775
 20
-174.4169161890347
 30
0.0
  0
VERTEX
  5
789
330
787
100
AcDbEntity
  8
Ebene 1
 62
   179
420
  1709851
370
    25
100
AcDbVertex
100
AcDb2dVertex
 10
82.70175643548775
 20
-168.9137206608966
 30
0.0
  0
SEQEND
  5
78A
330
787
100
AcDbEntity
  8
Ebene 1
370
    25
  0
INSERT
  5
78C
330
1F
100
AcDbEntity
  8
Ebene 1
100
AcDbBlockReference
  2
block 5
 10
0.0
 20
0.0
 30
0.0
  0
POLYLINE
  5
7DF
330
1F
100
AcDbEntity
  8
Ebene 1
 62
   179
420
  1709851
370
    25
100
AcDb2dPolyline
 66
     1
 10
0.0
 20
0.0
 30
0.0
  0
VERTEX
  5
7E0
330
7DF
100
AcDbEntity
  8
Ebene 1
 62
   179
420
  1709851
370
    25
100
AcDbVertex
100
AcDb2dVertex
 10
82.36293129451344
 20
-115.0443128510132
 30
0.0
  0
VERTEX
  5
7E1
330
7DF
100
AcDbEntity
  8
Ebene 1
 62
   179
420
  1709851
370
    25
100
AcDbVertex
100
AcDb2dVertex
 10
82.36293129451344
 20
-145.122408004084
 30
0.0
  0
SEQEND
  5
7E2
330
7DF
100
AcDbEntity
  8
Ebene 1
370
    25
  0
POLYLINE
  5
7E3
330
1F
100
AcDbEntity
  8
Ebene 1
 62
   179
420
  1709851
370
    25
100
AcDb2dPolyline
 66
     1
 10
0.0
 20
0.0
 30
0.0
  0
VERTEX
  5
7E4
330
7E3
100
AcDbEntity
  8
Ebene 1
 62
   179
420
  1709851
370
    25
100
AcDbVertex
100
AcDb2dVertex
 10
81.32578529867898
 20
-106.6413804529404
 30
0.0
  0
VERTEX
  5
7E5
330
7E3
100
AcDbEntity
  8
Ebene 1
 62
   179
420
  1709851
370
    25
100
AcDbVertex
100
AcDb2dVertex
 10
89.11514619082885
 20
-111.1496324049383
 30
0.0
  0
SEQEND
  5
7E6
330
7E3
100
AcDbEntity
  8
Ebene 1
370
    25
  0
POLYLINE
  5
7E7
330
1F
100
AcDbEntity
  8
Ebene 1
 62
   179
420
  1709851
370
    25
100
AcDb2dPolyline
 66
     1
 10
0.0
 20
0.0
 30
0.0
  0
VERTEX
  5
7E8
330
7E7
100
AcDbEntity
  8
Ebene 1
 62
   179
420
  1709851
370
    25
100
AcDbVertex
100
AcDb2dVertex
 10
80.28863930284452
 20
-105.6464368768002
 30
0.0
  0
VERTEX
  5
7E9
330
7E7
100
AcDbEntity
  8
Ebene 1
 62
   179
420
  1709851
370
    25
100
AcDbVertex
100
AcDb2dVertex
 10
89.4749864142632
 20
-110.9381035421439
 30
0.0
  0
SEQEND
  5
7EA
330
7E7
100
AcDbEntity
  8
Ebene 1
370
    25
  0
POLYLINE
  5
7EB
330
1F
100
AcDbEntity
  8
Ebene 1
 62
   179
420
  1709851
370
    25
100
AcDb2dPolyline
 66
     1
 10
0.0
 20
0.0
 30
0.0
  0
VERTEX
  5
7EC
330
7EB
100
AcDbEntity
  8
Ebene 1
 62
   179
420
  1709851
370
    25
100
AcDbVertex
100
AcDb2dVertex
 10
80.28863930284452
 20
-105.6464368768002
 30
0.0
  0
VERTEX
  5
7ED
330
7EB
100
AcDbEntity
  8
Ebene 1
 62
   179
420
  1709851
370
    25
100
AcDbVertex
100
AcDb2dVertex
 10
80.28863930284452
 20
-106.450866672606
 30
0.0
  0
VERTEX
  5
7EE
330
7EB
100
AcDbEntity
  8
Ebene 1
 62
   179
420
  1709851
370
    25
100
AcDbVertex
100
AcDb2dVertex
 10
80.98713241247891
 20
-106.8529093157347
 30
0.0
  0
VERTEX
  5
7EF
330
7EB
100
AcDbEntity
  8
Ebene 1
 62
   179
420
  1709851
370
    25
100
AcDbVertex
100
AcDb2dVertex
 10
81.32578529867898
 20
-106.6413804529404
 30
0.0
  0
SEQEND
  5
7F0
330
7EB
100
AcDbEntity
  8
Ebene 1
370
    25
  0
POLYLINE
  5
7F1
330
1F
100
AcDbEntity
  8
Ebene 1
 62
   179
420
  1709851
370
    25
100
AcDb2dPolyline
 66
     1
 10
0.0
 20
0.0
 30
0.0
  0
VERTEX
  5
7F2
330
7F1
100
AcDbEntity
  8
Ebene 1
 62
   179
420
  1709851
370
    25
100
AcDbVertex
100
AcDb2dVertex
 10
89.11514619082885
 20
-111.1496324049383
 30
0.0
  0
VERTEX
  5
7F3
330
7F1
100
AcDbEntity
  8
Ebene 1
 62
   179
420
  1709851
370
    25
100
AcDbVertex
100
AcDb2dVertex
 10
82.36293129451344
 20
-115.0443128510132
 30
0.0
  0
VERTEX
  5
7F4
330
7F1
100
AcDbEntity
  8
Ebene 1
 62
   179
420
  1709851
370
    25
100
AcDbVertex
100
AcDb2dVertex
 10
82.7015841807135
 20
-115.2561862233561
 30
0.0
  0
VERTEX
  5
7F5
330
7F1
100
AcDbEntity
  8
Ebene 1
 62
   179
420
  1709851
370
    25
100
AcDbVertex
100
AcDb2dVertex
 10
96.56585419677867
 20
-107.2549519588633
 30
0.0
  0
SEQEND
  5
7F6
330
7F1
100
AcDbEntity
  8
Ebene 1
370
    25
  0
POLYLINE
  5
7F7
330
1F
100
AcDbEntity
  8
Ebene 1
 62
   179
420
  1709851
370
    25
100
AcDb2dPolyline
 66
     1
 10
0.0
 20
0.0
 30
0.0
  0
VERTEX
  5
7F8
330
7F7
100
AcDbEntity
  8
Ebene 1
 62
   179
420
  1709851
370
    25
100
AcDbVertex
100
AcDb2dVertex
 10
96.56585419677867
 20
-107.2549519588633
 30
0.0
  0
VERTEX
  5
7F9
330
7F7
100
AcDbEntity
  8
Ebene 1
 62
   179
420
  1709851
370
    25
100
AcDbVertex
100
AcDb2dVertex
 10
96.22720131057862
 20
-107.043423096069
 30
0.0
  0
VERTEX
  5
7FA
330
7F7
100
AcDbEntity
  8
Ebene 1
 62
   179
420
  1709851
370
    25
100
AcDbVertex
100
AcDb2dVertex
 10
89.4749864142632
 20
-110.9381035421439
 30
0.0
  0
SEQEND
  5
7FB
330
7F7
100
AcDbEntity
  8
Ebene 1
370
    25
  0
POLYLINE
  5
7FC
330
1F
100
AcDbEntity
  8
Ebene 1
 62
   179
420
  1709851
370
    18
100
AcDb2dPolyline
 66
     1
 10
0.0
 20
0.0
 30
0.0
  0
VERTEX
  5
7FD
330
7FC
100
AcDbEntity
  8
Ebene 1
 62
   179
420
  1709851
370
    18
100
AcDbVertex
100
AcDb2dVertex
 10
85.26301267399676
 20
-121.1404093121628
 30
0.0
  0
VERTEX
  5
7FE
330
7FC
100
AcDbEntity
  8
Ebene 1
 62
   179
420
  1709851
370
    18
100
AcDbVertex
100
AcDb2dVertex
 10
85.22063799952818
 20
-120.7173515865741
 30
0.0
  0
VERTEX
  5
7FF
330
7FC
100
AcDbEntity
  8
Ebene 1
 62
   179
420
  1709851
370
    18
100
AcDbVertex
100
AcDb2dVertex
 10
85.09351397612245
 20
-120.314964433897
 30
0.0
  0
VERTEX
  5
800
330
7FC
100
AcDbEntity
  8
Ebene 1
 62
   179
420
  1709851
370
    18
100
AcDbVertex
100
AcDb2dVertex
 10
84.90317245056241
 20
-119.9339368732283
 30
0.0
  0
VERTEX
  5
801
330
7FC
100
AcDbEntity
  8
Ebene 1
 62
   179
420
  1709851
370
    18
100
AcDbVertex
100
AcDb2dVertex
 10
84.62790932129094
 20
-119.6166435790368
 30
0.0
  0
VERTEX
  5
802
330
7FC
100
AcDbEntity
  8
Ebene 1
 62
   179
420
  1709851
370
    18
100
AcDbVertex
100
AcDb2dVertex
 10
84.39502086648805
 20
-119.4261297987025
 30
0.0
  0
SEQEND
  5
803
330
7FC
100
AcDbEntity
  8
Ebene 1
370
    18
  0
POLYLINE
  5
804
330
1F
100
AcDbEntity
  8
Ebene 1
 62
   179
420
  1709851
370
    18
100
AcDb2dPolyline
 66
     1
 10
0.0
 20
0.0
 30
0.0
  0
VERTEX
  5
805
330
804
100
AcDbEntity
  8
Ebene 1
 62
   179
420
  1709851
370
    18
100
AcDbVertex
100
AcDb2dVertex
 10
84.18349200369371
 20
-120.1458102455712
 30
0.0
  0
VERTEX
  5
806
330
804
100
AcDbEntity
  8
Ebene 1
 62
   179
420
  1709851
370
    18
100
AcDbVertex
100
AcDb2dVertex
 10
84.056367980288
 20
-120.1244506535626
 30
0.0
  0
VERTEX
  5
807
330
804
100
AcDbEntity
  8
Ebene 1
 62
   179
420
  1709851
370
    18
100
AcDbVertex
100
AcDb2dVertex
 10
83.92941621165654
 20
-120.1668253280312
 30
0.0
  0
VERTEX
  5
808
330
804
100
AcDbEntity
  8
Ebene 1
 62
   179
420
  1709851
370
    18
100
AcDbVertex
100
AcDb2dVertex
 10
83.86585419995367
 20
-120.2939493514369
 30
0.0
  0
VERTEX
  5
809
330
804
100
AcDbEntity
  8
Ebene 1
 62
   179
420
  1709851
370
    18
100
AcDbVertex
100
AcDb2dVertex
 10
83.86585419995367
 20
-120.3363240259055
 30
0.0
  0
SEQEND
  5
80A
330
804
100
AcDbEntity
  8
Ebene 1
370
    18
  0
POLYLINE
  5
80B
330
1F
100
AcDbEntity
  8
Ebene 1
 62
   179
420
  1709851
370
    18
100
AcDb2dPolyline
 66
     1
 10
0.0
 20
0.0
 30
0.0
  0
VERTEX
  5
80C
330
80B
100
AcDbEntity
  8
Ebene 1
 62
   179
420
  1709851
370
    18
100
AcDbVertex
100
AcDb2dVertex
 10
84.18349200369371
 20
-120.9078653669085
 30
0.0
  0
VERTEX
  5
80D
330
80B
100
AcDbEntity
  8
Ebene 1
 62
   179
420
  1709851
370
    18
100
AcDbVertex
100
AcDb2dVertex
 10
84.31044377232517
 20
-120.9288804493685
 30
0.0
  0
VERTEX
  5
80E
330
80B
100
AcDbEntity
  8
Ebene 1
 62
   179
420
  1709851
370
    18
100
AcDbVertex
100
AcDb2dVertex
 10
84.43739554095663
 20
-120.8654906924399
 30
0.0
  0
VERTEX
  5
80F
330
80B
100
AcDbEntity
  8
Ebene 1
 62
   179
420
  1709851
370
    18
100
AcDbVertex
100
AcDb2dVertex
 10
84.50095755265949
 20
-120.7593817514942
 30
0.0
  0
VERTEX
  5
810
330
80B
100
AcDbEntity
  8
Ebene 1
 62
   179
420
  1709851
370
    18
100
AcDbVertex
100
AcDb2dVertex
 10
84.52214488989377
 20
-120.7173515865741
 30
0.0
  0
SEQEND
  5
811
330
80B
100
AcDbEntity
  8
Ebene 1
370
    18
  0
POLYLINE
  5
812
330
1F
100
AcDbEntity
  8
Ebene 1
 62
   179
420
  1709851
370
    18
100
AcDb2dPolyline
 66
     1
 10
0.0
 20
0.0
 30
0.0
  0
VERTEX
  5
813
330
812
100
AcDbEntity
  8
Ebene 1
 62
   179
420
  1709851
370
    18
100
AcDbVertex
100
AcDb2dVertex
 10
83.86585419995367
 20
-120.3363240259055
 30
0.0
  0
VERTEX
  5
814
330
812
100
AcDbEntity
  8
Ebene 1
 62
   179
420
  1709851
370
    18
100
AcDbVertex
100
AcDb2dVertex
 10
83.90822887442225
 20
-120.5692124807084
 30
0.0
  0
VERTEX
  5
815
330
812
100
AcDbEntity
  8
Ebene 1
 62
   179
420
  1709851
370
    18
100
AcDbVertex
100
AcDb2dVertex
 10
84.0351806430537
 20
-120.7593817514942
 30
0.0
  0
VERTEX
  5
816
330
812
100
AcDbEntity
  8
Ebene 1
 62
   179
420
  1709851
370
    18
100
AcDbVertex
100
AcDb2dVertex
 10
84.18349200369371
 20
-120.9078653669085
 30
0.0
  0
SEQEND
  5
817
330
812
100
AcDbEntity
  8
Ebene 1
370
    18
  0
POLYLINE
  5
818
330
1F
100
AcDbEntity
  8
Ebene 1
 62
   179
420
  1709851
370
    18
100
AcDb2dPolyline
 66
     1
 10
0.0
 20
0.0
 30
0.0
  0
VERTEX
  5
819
330
818
100
AcDbEntity
  8
Ebene 1
 62
   179
420
  1709851
370
    18
100
AcDbVertex
100
AcDb2dVertex
 10
84.52214488989377
 20
-120.7173515865741
 30
0.0
  0
VERTEX
  5
81A
330
818
100
AcDbEntity
  8
Ebene 1
 62
   179
420
  1709851
370
    18
100
AcDbVertex
100
AcDb2dVertex
 10
84.4797702154252
 20
-120.4844631317712
 30
0.0
  0
VERTEX
  5
81B
330
818
100
AcDbEntity
  8
Ebene 1
 62
   179
420
  1709851
370
    18
100
AcDbVertex
100
AcDb2dVertex
 10
84.35281844679375
 20
-120.2939493514369
 30
0.0
  0
VERTEX
  5
81C
330
818
100
AcDbEntity
  8
Ebene 1
 62
   179
420
  1709851
370
    18
100
AcDbVertex
100
AcDb2dVertex
 10
84.18349200369371
 20
-120.1458102455712
 30
0.0
  0
SEQEND
  5
81D
330
818
100
AcDbEntity
  8
Ebene 1
370
    18
  0
POLYLINE
  5
81E
330
1F
100
AcDbEntity
  8
Ebene 1
 62
   179
420
  1709851
370
    18
100
AcDb2dPolyline
 66
     1
 10
0.0
 20
0.0
 30
0.0
  0
VERTEX
  5
81F
330
81E
100
AcDbEntity
  8
Ebene 1
 62
   179
420
  1709851
370
    18
100
AcDbVertex
100
AcDb2dVertex
 10
84.18349200369371
 20
-119.2779906928368
 30
0.0
  0
VERTEX
  5
820
330
81E
100
AcDbEntity
  8
Ebene 1
 62
   179
420
  1709851
370
    18
100
AcDbVertex
100
AcDb2dVertex
 10
83.95060354889083
 20
-119.1932413438996
 30
0.0
  0
VERTEX
  5
821
330
81E
100
AcDbEntity
  8
Ebene 1
 62
   179
420
  1709851
370
    18
100
AcDbVertex
100
AcDb2dVertex
 10
83.71771509408794
 20
-119.1932413438996
 30
0.0
  0
VERTEX
  5
822
330
81E
100
AcDbEntity
  8
Ebene 1
 62
   179
420
  1709851
370
    18
100
AcDbVertex
100
AcDb2dVertex
 10
83.48499889405932
 20
-119.2779906928368
 30
0.0
  0
VERTEX
  5
823
330
81E
100
AcDbEntity
  8
Ebene 1
 62
   179
420
  1709851
370
    18
100
AcDbVertex
100
AcDb2dVertex
 10
83.29448511372499
 20
-119.4261297987025
 30
0.0
  0
VERTEX
  5
824
330
81E
100
AcDbEntity
  8
Ebene 1
 62
   179
420
  1709851
370
    18
100
AcDbVertex
100
AcDb2dVertex
 10
83.14634600785925
 20
-119.6376586614968
 30
0.0
  0
VERTEX
  5
825
330
81E
100
AcDbEntity
  8
Ebene 1
 62
   179
420
  1709851
370
    18
100
AcDbVertex
100
AcDb2dVertex
 10
83.10397133339067
 20
-119.8705471162997
 30
0.0
  0
VERTEX
  5
826
330
81E
100
AcDbEntity
  8
Ebene 1
 62
   179
420
  1709851
370
    18
100
AcDbVertex
100
AcDb2dVertex
 10
83.10397133339067
 20
-119.8915621987598
 30
0.0
  0
SEQEND
  5
827
330
81E
100
AcDbEntity
  8
Ebene 1
370
    18
  0
POLYLINE
  5
828
330
1F
100
AcDbEntity
  8
Ebene 1
 62
   179
420
  1709851
370
    18
100
AcDb2dPolyline
 66
     1
 10
0.0
 20
0.0
 30
0.0
  0
VERTEX
  5
829
330
828
100
AcDbEntity
  8
Ebene 1
 62
   179
420
  1709851
370
    18
100
AcDbVertex
100
AcDb2dVertex
 10
84.18349200369371
 20
-121.7756849196429
 30
0.0
  0
VERTEX
  5
82A
330
828
100
AcDbEntity
  8
Ebene 1
 62
   179
420
  1709851
370
    18
100
AcDbVertex
100
AcDb2dVertex
 10
84.41620820372233
 20
-121.8600897590315
 30
0.0
  0
VERTEX
  5
82B
330
828
100
AcDbEntity
  8
Ebene 1
 62
   179
420
  1709851
370
    18
100
AcDbVertex
100
AcDb2dVertex
 10
84.67028399575952
 20
-121.8600897590315
 30
0.0
  0
VERTEX
  5
82C
330
828
100
AcDbEntity
  8
Ebene 1
 62
   179
420
  1709851
370
    18
100
AcDbVertex
100
AcDb2dVertex
 10
84.90317245056241
 20
-121.7756849196429
 30
0.0
  0
VERTEX
  5
82D
330
828
100
AcDbEntity
  8
Ebene 1
 62
   179
420
  1709851
370
    18
100
AcDbVertex
100
AcDb2dVertex
 10
85.09351397612245
 20
-121.6275458137771
 30
0.0
  0
VERTEX
  5
82E
330
828
100
AcDbEntity
  8
Ebene 1
 62
   179
420
  1709851
370
    18
100
AcDbVertex
100
AcDb2dVertex
 10
85.22063799952818
 20
-121.4156724414343
 30
0.0
  0
VERTEX
  5
82F
330
828
100
AcDbEntity
  8
Ebene 1
 62
   179
420
  1709851
370
    18
100
AcDbVertex
100
AcDb2dVertex
 10
85.26301267399676
 20
-121.1827839866314
 30
0.0
  0
VERTEX
  5
830
330
828
100
AcDbEntity
  8
Ebene 1
 62
   179
420
  1709851
370
    18
100
AcDbVertex
100
AcDb2dVertex
 10
85.26301267399676
 20
-121.1404093121628
 30
0.0
  0
SEQEND
  5
831
330
828
100
AcDbEntity
  8
Ebene 1
370
    18
  0
POLYLINE
  5
832
330
1F
100
AcDbEntity
  8
Ebene 1
 62
   179
420
  1709851
370
    18
100
AcDb2dPolyline
 66
     1
 10
0.0
 20
0.0
 30
0.0
  0
VERTEX
  5
833
330
832
100
AcDbEntity
  8
Ebene 1
 62
   179
420
  1709851
370
    18
100
AcDbVertex
100
AcDb2dVertex
 10
83.10397133339067
 20
-119.8915621987598
 30
0.0
  0
VERTEX
  5
834
330
832
100
AcDbEntity
  8
Ebene 1
 62
   179
420
  1709851
370
    18
100
AcDbVertex
100
AcDb2dVertex
 10
83.14634600785925
 20
-120.3363240259055
 30
0.0
  0
VERTEX
  5
835
330
832
100
AcDbEntity
  8
Ebene 1
 62
   179
420
  1709851
370
    18
100
AcDbVertex
100
AcDb2dVertex
 10
83.27329777649071
 20
-120.7383666690342
 30
0.0
  0
VERTEX
  5
836
330
832
100
AcDbEntity
  8
Ebene 1
 62
   179
420
  1709851
370
    18
100
AcDbVertex
100
AcDb2dVertex
 10
83.48499889405932
 20
-121.1193942297028
 30
0.0
  0
VERTEX
  5
837
330
832
100
AcDbEntity
  8
Ebene 1
 62
   179
420
  1709851
370
    18
100
AcDbVertex
100
AcDb2dVertex
 10
83.73890243132222
 20
-121.4370320334428
 30
0.0
  0
VERTEX
  5
838
330
832
100
AcDbEntity
  8
Ebene 1
 62
   179
420
  1709851
370
    18
100
AcDbVertex
100
AcDb2dVertex
 10
83.9717908861251
 20
-121.6275458137771
 30
0.0
  0
SEQEND
  5
839
330
832
100
AcDbEntity
  8
Ebene 1
370
    18
  0
POLYLINE
  5
83A
330
1F
100
AcDbEntity
  8
Ebene 1
 62
   179
420
  1709851
370
    18
100
AcDb2dPolyline
 66
     1
 10
0.0
 20
0.0
 30
0.0
  0
VERTEX
  5
83B
330
83A
100
AcDbEntity
  8
Ebene 1
 62
   179
420
  1709851
370
    18
100
AcDbVertex
100
AcDb2dVertex
 10
80.28881155761877
 20
-106.450866672606
 30
0.0
  0
VERTEX
  5
83C
330
83A
100
AcDbEntity
  8
Ebene 1
 62
   179
420
  1709851
370
    18
100
AcDbVertex
100
AcDb2dVertex
 10
80.28881155761877
 20
-146.3288804430185
 30
0.0
  0
SEQEND
  5
83D
330
83A
100
AcDbEntity
  8
Ebene 1
370
    18
  0
POLYLINE
  5
83E
330
1F
100
AcDbEntity
  8
Ebene 1
 62
   179
420
  1709851
370
    18
100
AcDb2dPolyline
 66
     1
 10
0.0
 20
0.0
 30
0.0
  0
VERTEX
  5
83F
330
83E
100
AcDbEntity
  8
Ebene 1
 62
   179
420
  1709851
370
    18
100
AcDbVertex
100
AcDb2dVertex
 10
80.98730466725318
 20
-106.8529093157347
 30
0.0
  0
VERTEX
  5
840
330
83E
100
AcDbEntity
  8
Ebene 1
 62
   179
420
  1709851
370
    18
100
AcDbVertex
100
AcDb2dVertex
 10
80.98730466725318
 20
-145.9268377998898
 30
0.0
  0
SEQEND
  5
841
330
83E
100
AcDbEntity
  8
Ebene 1
370
    18
  0
POLYLINE
  5
842
330
1F
100
AcDbEntity
  8
Ebene 1
 62
   179
420
  1709851
370
    18
100
AcDb2dPolyline
 66
     1
 10
0.0
 20
0.0
 30
0.0
  0
VERTEX
  5
843
330
842
100
AcDbEntity
  8
Ebene 1
 62
   179
420
  1709851
370
    18
100
AcDbVertex
100
AcDb2dVertex
 10
81.32595755345324
 20
-106.6413804529404
 30
0.0
  0
VERTEX
  5
844
330
842
100
AcDbEntity
  8
Ebene 1
 62
   179
420
  1709851
370
    18
100
AcDbVertex
100
AcDb2dVertex
 10
81.32595755345324
 20
-145.7363240195555
 30
0.0
  0
SEQEND
  5
845
330
842
100
AcDbEntity
  8
Ebene 1
370
    18
  0
POLYLINE
  5
846
330
1F
100
AcDbEntity
  8
Ebene 1
 62
   179
420
  1709851
370
    25
100
AcDb2dPolyline
 66
     1
 10
0.0
 20
0.0
 30
0.0
  0
VERTEX
  5
847
330
846
100
AcDbEntity
  8
Ebene 1
 62
   179
420
  1709851
370
    25
100
AcDbVertex
100
AcDb2dVertex
 10
69.98056910142847
 20
-109.0967000052779
 30
0.0
  0
VERTEX
  5
848
330
846
100
AcDbEntity
  8
Ebene 1
 62
   179
420
  1709851
370
    25
100
AcDbVertex
100
AcDb2dVertex
 10
80.28881155761877
 20
-115.0446573605618
 30
0.0
  0
SEQEND
  5
849
330
846
100
AcDbEntity
  8
Ebene 1
370
    25
  0
POLYLINE
  5
84A
330
1F
100
AcDbEntity
  8
Ebene 1
 62
   179
420
  1709851
370
    25
100
AcDb2dPolyline
 66
     1
 10
0.0
 20
0.0
 30
0.0
  0
VERTEX
  5
84B
330
84A
100
AcDbEntity
  8
Ebene 1
 62
   179
420
  1709851
370
    25
100
AcDbVertex
100
AcDb2dVertex
 10
80.28881155761877
 20
-138.2642564215971
 30
0.0
  0
VERTEX
  5
84C
330
84A
100
AcDbEntity
  8
Ebene 1
 62
   179
420
  1709851
370
    25
100
AcDbVertex
100
AcDb2dVertex
 10
80.16168753421306
 20
-138.3490057705343
 30
0.0
  0
VERTEX
  5
84D
330
84A
100
AcDbEntity
  8
Ebene 1
 62
   179
420
  1709851
370
    25
100
AcDbVertex
100
AcDb2dVertex
 10
80.09829777728446
 20
-138.4971448764
 30
0.0
  0
VERTEX
  5
84E
330
84A
100
AcDbEntity
  8
Ebene 1
 62
   179
420
  1709851
370
    25
100
AcDbVertex
100
AcDb2dVertex
 10
80.09829777728446
 20
-138.5185044684086
 30
0.0
  0
SEQEND
  5
84F
330
84A
100
AcDbEntity
  8
Ebene 1
370
    25
  0
POLYLINE
  5
850
330
1F
100
AcDbEntity
  8
Ebene 1
 62
   179
420
  1709851
370
    25
100
AcDb2dPolyline
 66
     1
 10
0.0
 20
0.0
 30
0.0
  0
VERTEX
  5
851
330
850
100
AcDbEntity
  8
Ebene 1
 62
   179
420
  1709851
370
    25
100
AcDbVertex
100
AcDb2dVertex
 10
80.09829777728446
 20
-141.3548515814148
 30
0.0
  0
VERTEX
  5
852
330
850
100
AcDbEntity
  8
Ebene 1
 62
   179
420
  1709851
370
    25
100
AcDbVertex
100
AcDb2dVertex
 10
80.14050019697876
 20
-141.6297702011377
 30
0.0
  0
VERTEX
  5
853
330
850
100
AcDbEntity
  8
Ebene 1
 62
   179
420
  1709851
370
    25
100
AcDbVertex
100
AcDb2dVertex
 10
80.26762422038449
 20
-141.8626586559406
 30
0.0
  0
VERTEX
  5
854
330
850
100
AcDbEntity
  8
Ebene 1
 62
   179
420
  1709851
370
    25
100
AcDbVertex
100
AcDb2dVertex
 10
80.28881155761877
 20
-141.8840182479491
 30
0.0
  0
SEQEND
  5
855
330
850
100
AcDbEntity
  8
Ebene 1
370
    25
  0
POLYLINE
  5
856
330
1F
100
AcDbEntity
  8
Ebene 1
 62
   179
420
  1709851
370
    25
100
AcDb2dPolyline
 66
     1
 10
0.0
 20
0.0
 30
0.0
  0
VERTEX
  5
857
330
856
100
AcDbEntity
  8
Ebene 1
 62
   179
420
  1709851
370
    25
100
AcDbVertex
100
AcDb2dVertex
 10
80.28881155761877
 20
-145.2705471099497
 30
0.0
  0
VERTEX
  5
858
330
856
100
AcDbEntity
  8
Ebene 1
 62
   179
420
  1709851
370
    25
100
AcDbVertex
100
AcDb2dVertex
 10
80.16168753421306
 20
-145.3552964588869
 30
0.0
  0
VERTEX
  5
859
330
856
100
AcDbEntity
  8
Ebene 1
 62
   179
420
  1709851
370
    25
100
AcDbVertex
100
AcDb2dVertex
 10
80.09829777728446
 20
-145.5034355647526
 30
0.0
  0
VERTEX
  5
85A
330
856
100
AcDbEntity
  8
Ebene 1
 62
   179
420
  1709851
370
    25
100
AcDbVertex
100
AcDb2dVertex
 10
80.09829777728446
 20
-145.5458102392212
 30
0.0
  0
VERTEX
  5
85B
330
856
100
AcDbEntity
  8
Ebene 1
 62
   179
420
  1709851
370
    25
100
AcDbVertex
100
AcDb2dVertex
 10
80.14050019697876
 20
-145.7997137764841
 30
0.0
  0
VERTEX
  5
85C
330
856
100
AcDbEntity
  8
Ebene 1
 62
   179
420
  1709851
370
    25
100
AcDbVertex
100
AcDb2dVertex
 10
80.26762422038449
 20
-146.053617313747
 30
0.0
  0
VERTEX
  5
85D
330
856
100
AcDbEntity
  8
Ebene 1
 62
   179
420
  1709851
370
    25
100
AcDbVertex
100
AcDb2dVertex
 10
80.28881155761877
 20
-146.0749769057556
 30
0.0
  0
SEQEND
  5
85E
330
856
100
AcDbEntity
  8
Ebene 1
370
    25
  0
POLYLINE
  5
85F
330
1F
100
AcDbEntity
  8
Ebene 1
 62
   179
420
  1709851
370
    25
100
AcDb2dPolyline
 66
     1
 10
0.0
 20
0.0
 30
0.0
  0
VERTEX
  5
860
330
85F
100
AcDbEntity
  8
Ebene 1
 62
   179
420
  1709851
370
    25
100
AcDbVertex
100
AcDb2dVertex
 10
80.28881155761877
 20
-133.353617316922
 30
0.0
  0
VERTEX
  5
861
330
85F
100
AcDbEntity
  8
Ebene 1
 62
   179
420
  1709851
370
    25
100
AcDbVertex
100
AcDb2dVertex
 10
80.16168753421306
 20
-133.4593817483192
 30
0.0
  0
VERTEX
  5
862
330
85F
100
AcDbEntity
  8
Ebene 1
 62
   179
420
  1709851
370
    25
100
AcDbVertex
100
AcDb2dVertex
 10
80.09829777728446
 20
-133.5865057717249
 30
0.0
  0
VERTEX
  5
863
330
85F
100
AcDbEntity
  8
Ebene 1
 62
   179
420
  1709851
370
    25
100
AcDbVertex
100
AcDb2dVertex
 10
80.09829777728446
 20
-133.6288804461935
 30
0.0
  0
VERTEX
  5
864
330
85F
100
AcDbEntity
  8
Ebene 1
 62
   179
420
  1709851
370
    25
100
AcDbVertex
100
AcDb2dVertex
 10
80.14050019697876
 20
-133.8827839834564
 30
0.0
  0
VERTEX
  5
865
330
85F
100
AcDbEntity
  8
Ebene 1
 62
   179
420
  1709851
370
    25
100
AcDbVertex
100
AcDb2dVertex
 10
80.26762422038449
 20
-134.1366875207193
 30
0.0
  0
VERTEX
  5
866
330
85F
100
AcDbEntity
  8
Ebene 1
 62
   179
420
  1709851
370
    25
100
AcDbVertex
100
AcDb2dVertex
 10
80.28881155761877
 20
-134.1580471127278
 30
0.0
  0
SEQEND
  5
867
330
85F
100
AcDbEntity
  8
Ebene 1
370
    25
  0
POLYLINE
  5
868
330
1F
100
AcDbEntity
  8
Ebene 1
 62
   179
420
  1709851
370
    25
100
AcDb2dPolyline
 66
     1
 10
0.0
 20
0.0
 30
0.0
  0
VERTEX
  5
869
330
868
100
AcDbEntity
  8
Ebene 1
 62
   179
420
  1709851
370
    25
100
AcDbVertex
100
AcDb2dVertex
 10
80.28881155761877
 20
-130.8559230901159
 30
0.0
  0
VERTEX
  5
86A
330
868
100
AcDbEntity
  8
Ebene 1
 62
   179
420
  1709851
370
    25
100
AcDbVertex
100
AcDb2dVertex
 10
80.16168753421306
 20
-130.940672439053
 30
0.0
  0
VERTEX
  5
86B
330
868
100
AcDbEntity
  8
Ebene 1
 62
   179
420
  1709851
370
    25
100
AcDbVertex
100
AcDb2dVertex
 10
80.09829777728446
 20
-131.0888115449188
 30
0.0
  0
VERTEX
  5
86C
330
868
100
AcDbEntity
  8
Ebene 1
 62
   179
420
  1709851
370
    25
100
AcDbVertex
100
AcDb2dVertex
 10
80.09829777728446
 20
-131.1311862193874
 30
0.0
  0
VERTEX
  5
86D
330
868
100
AcDbEntity
  8
Ebene 1
 62
   179
420
  1709851
370
    25
100
AcDbVertex
100
AcDb2dVertex
 10
80.14050019697876
 20
-131.3850897566503
 30
0.0
  0
VERTEX
  5
86E
330
868
100
AcDbEntity
  8
Ebene 1
 62
   179
420
  1709851
370
    25
100
AcDbVertex
100
AcDb2dVertex
 10
80.26762422038449
 20
-131.6393378034617
 30
0.0
  0
VERTEX
  5
86F
330
868
100
AcDbEntity
  8
Ebene 1
 62
   179
420
  1709851
370
    25
100
AcDbVertex
100
AcDb2dVertex
 10
80.28881155761877
 20
-131.6603528859217
 30
0.0
  0
SEQEND
  5
870
330
868
100
AcDbEntity
  8
Ebene 1
370
    25
  0
POLYLINE
  5
871
330
1F
100
AcDbEntity
  8
Ebene 1
 62
   179
420
  1709851
370
    25
100
AcDb2dPolyline
 66
     1
 10
0.0
 20
0.0
 30
0.0
  0
VERTEX
  5
872
330
871
100
AcDbEntity
  8
Ebene 1
 62
   179
420
  1709851
370
    25
100
AcDbVertex
100
AcDb2dVertex
 10
80.28881155761877
 20
-128.3582288633098
 30
0.0
  0
VERTEX
  5
873
330
871
100
AcDbEntity
  8
Ebene 1
 62
   179
420
  1709851
370
    25
100
AcDbVertex
100
AcDb2dVertex
 10
80.16168753421306
 20
-128.4429782122469
 30
0.0
  0
VERTEX
  5
874
330
871
100
AcDbEntity
  8
Ebene 1
 62
   179
420
  1709851
370
    25
100
AcDbVertex
100
AcDb2dVertex
 10
80.09829777728446
 20
-128.5911173181127
 30
0.0
  0
VERTEX
  5
875
330
871
100
AcDbEntity
  8
Ebene 1
 62
   179
420
  1709851
370
    25
100
AcDbVertex
100
AcDb2dVertex
 10
80.09829777728446
 20
-128.6334919925812
 30
0.0
  0
VERTEX
  5
876
330
871
100
AcDbEntity
  8
Ebene 1
 62
   179
420
  1709851
370
    25
100
AcDbVertex
100
AcDb2dVertex
 10
80.14050019697876
 20
-128.8873955298441
 30
0.0
  0
VERTEX
  5
877
330
871
100
AcDbEntity
  8
Ebene 1
 62
   179
420
  1709851
370
    25
100
AcDbVertex
100
AcDb2dVertex
 10
80.26762422038449
 20
-129.1416435766556
 30
0.0
  0
VERTEX
  5
878
330
871
100
AcDbEntity
  8
Ebene 1
 62
   179
420
  1709851
370
    25
100
AcDbVertex
100
AcDb2dVertex
 10
80.28881155761877
 20
-129.1626586591156
 30
0.0
  0
SEQEND
  5
879
330
871
100
AcDbEntity
  8
Ebene 1
370
    25
  0
POLYLINE
  5
87A
330
1F
100
AcDbEntity
  8
Ebene 1
 62
   179
420
  1709851
370
    25
100
AcDb2dPolyline
 66
     1
 10
0.0
 20
0.0
 30
0.0
  0
VERTEX
  5
87B
330
87A
100
AcDbEntity
  8
Ebene 1
 62
   179
420
  1709851
370
    25
100
AcDbVertex
100
AcDb2dVertex
 10
80.09829777728446
 20
-125.3527275619778
 30
0.0
  0
VERTEX
  5
87C
330
87A
100
AcDbEntity
  8
Ebene 1
 62
   179
420
  1709851
370
    25
100
AcDbVertex
100
AcDb2dVertex
 10
80.14050019697876
 20
-125.6279906912493
 30
0.0
  0
VERTEX
  5
87D
330
87A
100
AcDbEntity
  8
Ebene 1
 62
   179
420
  1709851
370
    25
100
AcDbVertex
100
AcDb2dVertex
 10
80.26762422038449
 20
-125.8605346365036
 30
0.0
  0
VERTEX
  5
87E
330
87A
100
AcDbEntity
  8
Ebene 1
 62
   179
420
  1709851
370
    25
100
AcDbVertex
100
AcDb2dVertex
 10
80.28881155761877
 20
-125.8818942285122
 30
0.0
  0
SEQEND
  5
87F
330
87A
100
AcDbEntity
  8
Ebene 1
370
    25
  0
POLYLINE
  5
880
330
1F
100
AcDbEntity
  8
Ebene 1
 62
   179
420
  1709851
370
    25
100
AcDb2dPolyline
 66
     1
 10
0.0
 20
0.0
 30
0.0
  0
VERTEX
  5
881
330
880
100
AcDbEntity
  8
Ebene 1
 62
   179
420
  1709851
370
    25
100
AcDbVertex
100
AcDb2dVertex
 10
80.28881155761877
 20
-117.2670884580964
 30
0.0
  0
VERTEX
  5
882
330
880
100
AcDbEntity
  8
Ebene 1
 62
   179
420
  1709851
370
    25
100
AcDbVertex
100
AcDb2dVertex
 10
80.16168753421306
 20
-117.3728528894936
 30
0.0
  0
VERTEX
  5
883
330
880
100
AcDbEntity
  8
Ebene 1
 62
   179
420
  1709851
370
    25
100
AcDbVertex
100
AcDb2dVertex
 10
80.09829777728446
 20
-117.5209919953593
 30
0.0
  0
VERTEX
  5
884
330
880
100
AcDbEntity
  8
Ebene 1
 62
   179
420
  1709851
370
    25
100
AcDbVertex
100
AcDb2dVertex
 10
80.09829777728446
 20
-117.5423515873679
 30
0.0
  0
SEQEND
  5
885
330
880
100
AcDbEntity
  8
Ebene 1
370
    25
  0
POLYLINE
  5
886
330
1F
100
AcDbEntity
  8
Ebene 1
 62
   179
420
  1709851
370
    25
100
AcDb2dPolyline
 66
     1
 10
0.0
 20
0.0
 30
0.0
  0
VERTEX
  5
887
330
886
100
AcDbEntity
  8
Ebene 1
 62
   179
420
  1709851
370
    25
100
AcDbVertex
100
AcDb2dVertex
 10
80.09829777728446
 20
-117.5423515873679
 30
0.0
  0
VERTEX
  5
888
330
886
100
AcDbEntity
  8
Ebene 1
 62
   179
420
  1709851
370
    25
100
AcDbVertex
100
AcDb2dVertex
 10
80.14050019697876
 20
-117.8172702070908
 30
0.0
  0
VERTEX
  5
889
330
886
100
AcDbEntity
  8
Ebene 1
 62
   179
420
  1709851
370
    25
100
AcDbVertex
100
AcDb2dVertex
 10
80.26762422038449
 20
-118.0501586618937
 30
0.0
  0
VERTEX
  5
88A
330
886
100
AcDbEntity
  8
Ebene 1
 62
   179
420
  1709851
370
    25
100
AcDbVertex
100
AcDb2dVertex
 10
80.28881155761877
 20
-118.0715182539023
 30
0.0
  0
SEQEND
  5
88B
330
886
100
AcDbEntity
  8
Ebene 1
370
    25
  0
POLYLINE
  5
88C
330
1F
100
AcDbEntity
  8
Ebene 1
 62
   179
420
  1709851
370
    25
100
AcDb2dPolyline
 66
     1
 10
0.0
 20
0.0
 30
0.0
  0
VERTEX
  5
88D
330
88C
100
AcDbEntity
  8
Ebene 1
 62
   179
420
  1709851
370
    25
100
AcDbVertex
100
AcDb2dVertex
 10
80.28881155761877
 20
-122.2624769117087
 30
0.0
  0
VERTEX
  5
88E
330
88C
100
AcDbEntity
  8
Ebene 1
 62
   179
420
  1709851
370
    25
100
AcDbVertex
100
AcDb2dVertex
 10
80.16168753421306
 20
-122.3468817510973
 30
0.0
  0
VERTEX
  5
88F
330
88C
100
AcDbEntity
  8
Ebene 1
 62
   179
420
  1709851
370
    25
100
AcDbVertex
100
AcDb2dVertex
 10
80.09829777728446
 20
-122.4950208569631
 30
0.0
  0
VERTEX
  5
890
330
88C
100
AcDbEntity
  8
Ebene 1
 62
   179
420
  1709851
370
    25
100
AcDbVertex
100
AcDb2dVertex
 10
80.09829777728446
 20
-122.5163804489716
 30
0.0
  0
SEQEND
  5
891
330
88C
100
AcDbEntity
  8
Ebene 1
370
    25
  0
POLYLINE
  5
892
330
1F
100
AcDbEntity
  8
Ebene 1
 62
   179
420
  1709851
370
    25
100
AcDb2dPolyline
 66
     1
 10
0.0
 20
0.0
 30
0.0
  0
VERTEX
  5
893
330
892
100
AcDbEntity
  8
Ebene 1
 62
   179
420
  1709851
370
    25
100
AcDbVertex
100
AcDb2dVertex
 10
80.09829777728446
 20
-138.5185044684086
 30
0.0
  0
VERTEX
  5
894
330
892
100
AcDbEntity
  8
Ebene 1
 62
   179
420
  1709851
370
    25
100
AcDbVertex
100
AcDb2dVertex
 10
80.09829777728446
 20
-141.3548515814148
 30
0.0
  0
SEQEND
  5
895
330
892
100
AcDbEntity
  8
Ebene 1
370
    25
  0
POLYLINE
  5
896
330
1F
100
AcDbEntity
  8
Ebene 1
 62
   179
420
  1709851
370
    25
100
AcDb2dPolyline
 66
     1
 10
0.0
 20
0.0
 30
0.0
  0
VERTEX
  5
897
330
896
100
AcDbEntity
  8
Ebene 1
 62
   179
420
  1709851
370
    25
100
AcDbVertex
100
AcDb2dVertex
 10
80.09829777728446
 20
-122.5163804489716
 30
0.0
  0
VERTEX
  5
898
330
896
100
AcDbEntity
  8
Ebene 1
 62
   179
420
  1709851
370
    25
100
AcDbVertex
100
AcDb2dVertex
 10
80.09829777728446
 20
-125.3527275619778
 30
0.0
  0
SEQEND
  5
899
330
896
100
AcDbEntity
  8
Ebene 1
370
    25
  0
POLYLINE
  5
89A
330
1F
100
AcDbEntity
  8
Ebene 1
 62
   179
420
  1709851
370
    25
100
AcDb2dPolyline
 66
     1
 10
0.0
 20
0.0
 30
0.0
  0
VERTEX
  5
89B
330
89A
100
AcDbEntity
  8
Ebene 1
 62
   179
420
  1709851
370
    25
100
AcDbVertex
100
AcDb2dVertex
 10
96.56585419677867
 20
-107.2552964684119
 30
0.0
  0
VERTEX
  5
89C
330
89A
100
AcDbEntity
  8
Ebene 1
 62
   179
420
  1709851
370
    25
100
AcDbVertex
100
AcDb2dVertex
 10
96.56585419677867
 20
-136.9310044688054
 30
0.0
  0
SEQEND
  5
89D
330
89A
100
AcDbEntity
  8
Ebene 1
370
    25
  0
POLYLINE
  5
89E
330
1F
100
AcDbEntity
  8
Ebene 1
 62
   179
420
  1709851
370
    25
100
AcDb2dPolyline
 66
     1
 10
0.0
 20
0.0
 30
0.0
  0
VERTEX
  5
89F
330
89E
100
AcDbEntity
  8
Ebene 1
 62
   179
420
  1709851
370
    25
100
AcDbVertex
100
AcDb2dVertex
 10
82.70175643548775
 20
-115.2561862233561
 30
0.0
  0
VERTEX
  5
8A0
330
89E
100
AcDbEntity
  8
Ebene 1
 62
   179
420
  1709851
370
    25
100
AcDbVertex
100
AcDb2dVertex
 10
82.70175643548775
 20
-144.9318942237497
 30
0.0
  0
SEQEND
  5
8A1
330
89E
100
AcDbEntity
  8
Ebene 1
370
    25
  0
ENDSEC
  0
SECTION
  2
OBJECTS
  0
DICTIONARY
  5
C
330
0
100
AcDbDictionary
281
     1
  3
ACAD_GROUP
350
D
  3
ACAD_LAYOUT
350
1A
  3
ACAD_MLINESTYLE
350
17
  3
ACAD_PLOTSETTINGS
350
19
  3
ACAD_PLOTSTYLENAME
350
E
  3
ACAD_TABLESTYLE
350
8A2
  3
ACAD_VISUALSTYLE
350
2A
  0
DICTIONARY
  5
D
102
{ACAD_REACTORS
330
C
102
}
330
C
100
AcDbDictionary
281
     1
  0
DICTIONARY
  5
1A
102
{ACAD_REACTORS
330
C
102
}
330
C
100
AcDbDictionary
281
     1
  3
Layout1
350
1E
  3
Layout2
350
26
  3
Model
350
22
  0
DICTIONARY
  5
17
102
{ACAD_REACTORS
330
C
102
}
330
C
100
AcDbDictionary
281
     1
  3
Standard
350
18
  0
DICTIONARY
  5
19
102
{ACAD_REACTORS
330
C
102
}
330
C
100
AcDbDictionary
281
     1
  0
ACDBDICTIONARYWDFLT
  5
E
102
{ACAD_REACTORS
330
C
102
}
330
C
100
AcDbDictionary
281
     1
  3
Normal
350
F
100
AcDbDictionaryWithDefault
340
F
  0
DICTIONARY
  5
8A2
102
{ACAD_REACTORS
330
C
102
}
330
C
100
AcDbDictionary
281
     1
  0
DICTIONARY
  5
2A
102
{ACAD_REACTORS
330
C
102
}
330
C
100
AcDbDictionary
281
     1
  3
2dWireframe
350
2F
  3
3D Hidden
350
31
  3
3dWireframe
350
30
  3
Basic
350
32
  3
Brighten
350
36
  3
ColorChange
350
3A
  3
Conceptual
350
34
  3
Dim
350
35
  3
Facepattern
350
39
  3
Flat
350
2B
  3
FlatWithEdges
350
2C
  3
Gouraud
350
2D
  3
GouraudWithEdges
350
2E
  3
Linepattern
350
38
  3
Realistic
350
33
  3
Thicken
350
37
  0
LAYOUT
  5
1E
102
{ACAD_REACTORS
330
1A
102
}
330
1A
100
AcDbPlotSettings
  1

  2
none_device
  4

  6

 40
0.0
 41
0.0
 42
0.0
 43
0.0
 44
0.0
 45
0.0
 46
0.0
 47
0.0
 48
0.0
 49
0.0
140
0.0
141
0.0
142
1.0
143
1.0
 70
   688
 72
     0
 73
     0
 74
     5
  7

 75
    16
 76
     0
 77
     2
 78
   300
147
1.0
148
0.0
149
0.0
100
AcDbLayout
  1
Layout1
 70
     1
 71
     1
 10
0.0
 20
0.0
 11
12.0
 21
9.0
 12
0.0
 22
0.0
 32
0.0
 14
1.000000000000000E+20
 24
1.000000000000000E+20
 34
1.000000000000000E+20
 15
-1.000000000000000E+20
 25
-1.000000000000000E+20
 35
-1.000000000000000E+20
146
0.0
 13
0.0
 23
0.0
 33
0.0
 16
1.0
 26
0.0
 36
0.0
 17
0.0
 27
1.0
 37
0.0
 76
     0
330
1B
  0
LAYOUT
  5
26
102
{ACAD_REACTORS
330
1A
102
}
330
1A
100
AcDbPlotSettings
  1

  2
none_device
  4

  6

 40
0.0
 41
0.0
 42
0.0
 43
0.0
 44
0.0
 45
0.0
 46
0.0
 47
0.0
 48
0.0
 49
0.0
140
0.0
141
0.0
142
1.0
143
1.0
 70
   688
 72
     0
 73
     0
 74
     5
  7

 75
    16
 76
     0
 77
     2
 78
   300
147
1.0
148
0.0
149
0.0
100
AcDbLayout
  1
Layout2
 70
     1
 71
     2
 10
0.0
 20
0.0
 11
0.0
 21
0.0
 12
0.0
 22
0.0
 32
0.0
 14
0.0
 24
0.0
 34
0.0
 15
0.0
 25
0.0
 35
0.0
146
0.0
 13
0.0
 23
0.0
 33
0.0
 16
1.0
 26
0.0
 36
0.0
 17
0.0
 27
1.0
 37
0.0
 76
     0
330
23
  0
LAYOUT
  5
22
102
{ACAD_REACTORS
330
1A
102
}
330
1A
100
AcDbPlotSettings
  1

  2
none_device
  4

  6

 40
0.0
 41
0.0
 42
0.0
 43
0.0
 44
0.0
 45
0.0
 46
0.0
 47
0.0
 48
0.0
 49
0.0
140
0.0
141
0.0
142
1.0
143
1.0
 70
  1712
 72
     0
 73
     0
 74
     0
  7

 75
     0
 76
     0
 77
     2
 78
   300
147
1.0
148
0.0
149
0.0
100
AcDbLayout
  1
Model
 70
     1
 71
     0
 10
0.0
 20
0.0
 11
12.0
 21
9.0
 12
0.0
 22
0.0
 32
0.0
 14
1.000000000000000E+20
 24
1.000000000000000E+20
 34
1.000000000000000E+20
 15
-1.000000000000000E+20
 25
-1.000000000000000E+20
 35
-1.000000000000000E+20
146
0.0
 13
0.0
 23
0.0
 33
0.0
 16
1.0
 26
0.0
 36
0.0
 17
0.0
 27
1.0
 37
0.0
 76
     0
330
1F
331
29
  0
MLINESTYLE
  5
18
102
{ACAD_REACTORS
330
17
102
}
330
17
100
AcDbMlineStyle
  2
Standard
 70
     0
  3

 62
   256
 51
90.0
 52
90.0
 71
     2
 49
0.5
 62
   256
  6
BYLAYER
 49
-0.5
 62
   256
  6
BYLAYER
  0
ACDBPLACEHOLDER
  5
F
102
{ACAD_REACTORS
330
E
102
}
330
E
  0
VISUALSTYLE
  5
2F
102
{ACAD_REACTORS
330
2A
102
}
330
2A
100
AcDbVisualStyle
  2
2dWireframe
 70
     4
 71
     0
 72
     2
 73
     0
 90
        0
 40
-0.6
 41
-30.0
 62
     5
 63
     7
421
 16777215
 74
     1
 91
        4
 64
     7
 65
   257
 75
     1
175
     1
 42
1.0
 92
        0
 66
   257
 43
1.0
 76
     1
 77
     6
 78
     2
 67
     7
 79
     5
170
     0
171
     0
290
     0
174
     0
 93
        1
 44
0.0
173
     0
291
     0
 45
0.0
1001
ACAD
1000
AcDbSavedByObjectVersion
1070
     0
  0
VISUALSTYLE
  5
31
102
{ACAD_REACTORS
330
2A
102
}
330
2A
100
AcDbVisualStyle
  2
3D Hidden
 70
     6
 71
     1
 72
     2
 73
     2
 90
        0
 40
-0.6
 41
-30.0
 62
     5
 63
     7
421
 16777215
 74
     2
 91
        2
 64
     7
 65
   257
 75
     2
175
     1
 42
40.0
 92
        0
 66
   257
 43
1.0
 76
     1
 77
     6
 78
     2
 67
     7
 79
     3
170
     0
171
     0
290
     0
174
     0
 93
        1
 44
0.0
173
     0
291
     0
 45
0.0
1001
ACAD
1000
AcDbSavedByObjectVersion
1070
     0
  0
VISUALSTYLE
  5
30
102
{ACAD_REACTORS
330
2A
102
}
330
2A
100
AcDbVisualStyle
  2
3dWireframe
 70
     5
 71
     0
 72
     2
 73
     0
 90
        0
 40
-0.6
 41
-30.0
 62
     5
 63
     7
421
 16777215
 74
     1
 91
        4
 64
     7
 65
   257
 75
     1
175
     1
 42
1.0
 92
        0
 66
   257
 43
1.0
 76
     1
 77
     6
 78
     2
 67
     7
 79
     5
170
     0
171
     0
290
     0
174
     0
 93
        1
 44
0.0
173
     0
291
     0
 45
0.0
1001
ACAD
1000
AcDbSavedByObjectVersion
1070
     0
  0
VISUALSTYLE
  5
32
102
{ACAD_REACTORS
330
2A
102
}
330
2A
100
AcDbVisualStyle
  2
Basic
 70
     7
 71
     1
 72
     0
 73
     1
 90
        0
 40
-0.6
 41
-30.0
 62
     5
 63
     7
421
 16777215
 74
     0
 91
        4
 64
     7
 65
   257
 75
     1
175
     1
 42
1.0
 92
        8
 66
     7
 43
1.0
 76
     1
 77
     6
 78
     2
 67
     7
 79
     5
170
     0
171
     0
290
     0
174
     0
 93
        1
 44
0.0
173
     0
291
     1
 45
0.0
1001
ACAD
1000
AcDbSavedByObjectVersion
1070
     0
  0
VISUALSTYLE
  5
36
102
{ACAD_REACTORS
330
2A
102
}
330
2A
100
AcDbVisualStyle
  2
Brighten
 70
    12
 71
     2
 72
     2
 73
     0
 90
        0
 40
-0.6
 41
-30.0
 62
     5
 63
     7
421
 16777215
 74
     1
 91
        4
 64
     7
 65
   257
 75
     1
175
     1
 42
1.0
 92
        8
 66
     7
 43
1.0
 76
     1
 77
     6
 78
     2
 67
     7
 79
     5
170
     0
171
     0
290
     0
174
     0
 93
        1
 44
50.0
173
     0
291
     1
 45
0.0
1001
ACAD
1000
AcDbSavedByObjectVersion
1070
     0
  0
VISUALSTYLE
  5
3A
102
{ACAD_REACTORS
330
2A
102
}
330
2A
100
AcDbVisualStyle
  2
ColorChange
 70
    16
 71
     2
 72
     2
 73
     3
 90
        0
 40
-0.6
 41
-30.0
 62
     5
 63
     8
421
  8421504
 74
     1
 91
        4
 64
     7
 65
   257
 75
     1
175
     1
 42
1.0
 92
        8
 66
     8
424
  8421504
 43
1.0
 76
     1
 77
     6
 78
     2
 67
     7
 79
     5
170
     0
171
     0
290
     0
174
     0
 93
        1
 44
0.0
173
     0
291
     1
 45
0.0
1001
ACAD
1000
AcDbSavedByObjectVersion
1070
     0
  0
VISUALSTYLE
  5
34
102
{ACAD_REACTORS
330
2A
102
}
330
2A
100
AcDbVisualStyle
  2
Conceptual
 70
     9
 71
     3
 72
     2
 73
     0
 90
        0
 40
-0.6
 41
-30.0
 62
     5
 63
     7
421
 16777215
 74
     2
 91
        2
 64
     7
 65
   257
 75
     1
175
     1
 42
40.0
 92
        8
 66
     7
 43
1.0
 76
     1
 77
     6
 78
     2
 67
     7
 79
     3
170
     0
171
     0
290
     0
174
     0
 93
        1
 44
0.0
173
     0
291
     0
 45
0.0
1001
ACAD
1000
AcDbSavedByObjectVersion
1070
     0
  0
VISUALSTYLE
  5
35
102
{ACAD_REACTORS
330
2A
102
}
330
2A
100
AcDbVisualStyle
  2
Dim
 70
    11
 71
     2
 72
     2
 73
     0
 90
        0
 40
-0.6
 41
-30.0
 62
     5
 63
     7
421
 16777215
 74
     1
 91
        4
 64
     7
 65
   257
 75
     1
175
     1
 42
1.0
 92
        8
 66
     7
 43
1.0
 76
     1
 77
     6
 78
     2
 67
     7
 79
     5
170
     0
171
     0
290
     0
174
     0
 93
        1
 44
-50.0
173
     0
291
     1
 45
0.0
1001
ACAD
1000
AcDbSavedByObjectVersion
1070
     0
  0
VISUALSTYLE
  5
39
102
{ACAD_REACTORS
330
2A
102
}
330
2A
100
AcDbVisualStyle
  2
Facepattern
 70
    15
 71
     2
 72
     2
 73
     0
 90
        0
 40
-0.6
 41
-30.0
 62
     5
 63
     7
421
 16777215
 74
     1
 91
        4
 64
     7
 65
   257
 75
     1
175
     1
 42
1.0
 92
        8
 66
     7
 43
1.0
 76
     1
 77
     6
 78
     2
 67
     7
 79
     5
170
     0
171
     0
290
     0
174
     0
 93
        1
 44
0.0
173
     0
291
     1
 45
0.0
1001
ACAD
1000
AcDbSavedByObjectVersion
1070
     0
  0
VISUALSTYLE
  5
2B
102
{ACAD_REACTORS
330
2A
102
}
330
2A
100
AcDbVisualStyle
  2
Flat
 70
     0
 71
     2
 72
     1
 73
     1
 90
        2
 40
-0.6
 41
30.0
 62
     5
 63
     7
421
 16777215
 74
     0
 91
        4
 64
     7
 65
   257
 75
     1
175
     1
 42
1.0
 92
        8
 66
     7
 43
1.0
 76
     1
 77
     6
 78
     2
 67
     7
 79
     5
170
     0
171
     0
290
     0
174
     0
 93
       13
 44
0.0
173
     0
291
     1
 45
0.0
1001
ACAD
1000
AcDbSavedByObjectVersion
1070
     0
  0
VISUALSTYLE
  5
2C
102
{ACAD_REACTORS
330
2A
102
}
330
2A
100
AcDbVisualStyle
  2
FlatWithEdges
 70
     1
 71
     2
 72
     1
 73
     1
 90
        2
 40
-0.6
 41
30.0
 62
     5
 63
     7
421
 16777215
 74
     1
 91
        4
 64
     7
 65
   257
 75
     1
175
     1
 42
1.0
 92
        0
 66
   257
 43
1.0
 76
     1
 77
     6
 78
     2
 67
     7
 79
     5
170
     0
171
     0
290
     0
174
     0
 93
       13
 44
0.0
173
     0
291
     1
 45
0.0
1001
ACAD
1000
AcDbSavedByObjectVersion
1070
     0
  0
VISUALSTYLE
  5
2D
102
{ACAD_REACTORS
330
2A
102
}
330
2A
100
AcDbVisualStyle
  2
Gouraud
 70
     2
 71
     2
 72
     2
 73
     1
 90
        2
 40
-0.6
 41
30.0
 62
     5
 63
     7
421
 16777215
 74
     0
 91
        4
 64
     7
 65
   257
 75
     1
175
     1
 42
1.0
 92
        0
 66
     7
 43
1.0
 76
     1
 77
     6
 78
     2
 67
     7
 79
     5
170
     0
171
     0
290
     0
174
     0
 93
       13
 44
0.0
173
     0
291
     1
 45
0.0
1001
ACAD
1000
AcDbSavedByObjectVersion
1070
     0
  0
VISUALSTYLE
  5
2E
102
{ACAD_REACTORS
330
2A
102
}
330
2A
100
AcDbVisualStyle
  2
GouraudWithEdges
 70
     3
 71
     2
 72
     2
 73
     1
 90
        2
 40
-0.6
 41
30.0
 62
     5
 63
     7
421
 16777215
 74
     1
 91
        4
 64
     7
 65
   257
 75
     1
175
     1
 42
1.0
 92
        0
 66
   257
 43
1.0
 76
     1
 77
     6
 78
     2
 67
     7
 79
     5
170
     0
171
     0
290
     0
174
     0
 93
       13
 44
0.0
173
     0
291
     1
 45
0.0
1001
ACAD
1000
AcDbSavedByObjectVersion
1070
     0
  0
VISUALSTYLE
  5
38
102
{ACAD_REACTORS
330
2A
102
}
330
2A
100
AcDbVisualStyle
  2
Linepattern
 70
    14
 71
     2
 72
     2
 73
     0
 90
        0
 40
-0.6
 41
-30.0
 62
     5
 63
     7
421
 16777215
 74
     1
 91
        4
 64
     7
 65
   257
 75
     7
175
     7
 42
1.0
 92
        8
 66
     7
 43
1.0
 76
     1
 77
     6
 78
     2
 67
     7
 79
     5
170
     0
171
     0
290
     0
174
     0
 93
        1
 44
0.0
173
     0
291
     1
 45
0.0
1001
ACAD
1000
AcDbSavedByObjectVersion
1070
     0
  0
VISUALSTYLE
  5
33
102
{ACAD_REACTORS
330
2A
102
}
330
2A
100
AcDbVisualStyle
  2
Realistic
 70
     8
 71
     2
 72
     2
 73
     0
 90
        0
 40
-0.6
 41
-30.0
 62
     5
 63
     7
421
 16777215
 74
     1
 91
        0
 64
     7
 65
   257
 75
     1
175
     1
 42
1.0
 92
        8
 66
     8
424
  7895160
 43
1.0
 76
     1
 77
     6
 78
     2
 67
     7
 79
     5
170
     0
171
     0
290
     0
174
     0
 93
       13
 44
0.0
173
     0
291
     0
 45
0.0
1001
ACAD
1000
AcDbSavedByObjectVersion
1070
     0
  0
VISUALSTYLE
  5
37
102
{ACAD_REACTORS
330
2A
102
}
330
2A
100
AcDbVisualStyle
  2
Thicken
 70
    13
 71
     2
 72
     2
 73
     0
 90
        0
 40
-0.6
 41
-30.0
 62
     5
 63
     7
421
 16777215
 74
     1
 91
        4
 64
     7
 65
   257
 75
     1
175
     1
 42
1.0
 92
       12
 66
     7
 43
1.0
 76
     1
 77
     6
 78
     2
 67
     7
 79
     5
170
     0
171
     0
290
     0
174
     0
 93
        1
 44
0.0
173
     0
291
     1
 45
0.0
1001
ACAD
1000
AcDbSavedByObjectVersion
1070
     0
  0
ENDSEC
  0
EOF
