  0
SECTION
  2
HEADER
  9
$ACADVER
  1
AC1018
  9
$ACADMAINTVER
 70
     0
  9
$DWGCODEPAGE
  3
ANSI_932
  9
$INSBASE
 10
0.0
 20
0.0
 30
0.0
  9
$EXTMIN
 10
1.000000000000000E+20
 20
1.000000000000000E+20
 30
1.000000000000000E+20
  9
$EXTMAX
 10
-1.000000000000000E+20
 20
-1.000000000000000E+20
 30
-1.000000000000000E+20
  9
$LIMMIN
 10
0.0
 20
0.0
  9
$LIMMAX
 10
12.0
 20
9.0
  9
$ORTHOMODE
 70
     0
  9
$REGENMODE
 70
     1
  9
$FILLMODE
 70
     1
  9
$QTEXTMODE
 70
     0
  9
$MIRRTEXT
 70
     1
  9
$LTSCALE
 40
1.0
  9
$ATTMODE
 70
     1
  9
$TEXTSIZE
 40
0.2
  9
$TRACEWID
 40
0.05
  9
$TEXTSTYLE
  7
Standard
  9
$CLAYER
  8
0
  9
$CELTYPE
  6
ByLayer
  9
$CECOLOR
 62
   256
  9
$CELTSCALE
 40
1.0
  9
$DISPSILH
 70
     0
  9
$DIMSCALE
 40
1.0
  9
$DIMASZ
 40
0.18
  9
$DIMEXO
 40
0.0625
  9
$DIMDLI
 40
0.38
  9
$DIMRND
 40
0.0
  9
$DIMDLE
 40
0.0
  9
$DIMEXE
 40
0.18
  9
$DIMTP
 40
0.0
  9
$DIMTM
 40
0.0
  9
$DIMTXT
 40
0.18
  9
$DIMCEN
 40
0.09
  9
$DIMTSZ
 40
0.0
  9
$DIMTOL
 70
     0
  9
$DIMLIM
 70
     0
  9
$DIMTIH
 70
     1
  9
$DIMTOH
 70
     1
  9
$DIMSE1
 70
     0
  9
$DIMSE2
 70
     0
  9
$DIMTAD
 70
     0
  9
$DIMZIN
 70
     0
  9
$DIMBLK
  1

  9
$DIMASO
 70
     1
  9
$DIMSHO
 70
     1
  9
$DIMPOST
  1

  9
$DIMAPOST
  1

  9
$DIMALT
 70
     0
  9
$DIMALTD
 70
     2
  9
$DIMALTF
 40
25.4
  9
$DIMLFAC
 40
1.0
  9
$DIMTOFL
 70
     0
  9
$DIMTVP
 40
0.0
  9
$DIMTIX
 70
     0
  9
$DIMSOXD
 70
     0
  9
$DIMSAH
 70
     0
  9
$DIMBLK1
  1

  9
$DIMBLK2
  1

  9
$DIMSTYLE
  2
Standard
  9
$DIMCLRD
 70
     0
  9
$DIMCLRE
 70
     0
  9
$DIMCLRT
 70
     0
  9
$DIMTFAC
 40
1.0
  9
$DIMGAP
 40
0.09
  9
$DIMJUST
 70
     0
  9
$DIMSD1
 70
     0
  9
$DIMSD2
 70
     0
  9
$DIMTOLJ
 70
     1
  9
$DIMTZIN
 70
     0
  9
$DIMALTZ
 70
     0
  9
$DIMALTTZ
 70
     0
  9
$DIMUPT
 70
     0
  9
$DIMDEC
 70
     4
  9
$DIMTDEC
 70
     4
  9
$DIMALTU
 70
     2
  9
$DIMALTTD
 70
     2
  9
$DIMTXSTY
  7
Standard
  9
$DIMAUNIT
 70
     0
  9
$DIMADEC
 70
     0
  9
$DIMALTRND
 40
0.0
  9
$DIMAZIN
 70
     0
  9
$DIMDSEP
 70
    46
  9
$DIMATFIT
 70
     3
  9
$DIMFRAC
 70
     0
  9
$DIMLDRBLK
  1

  9
$DIMLUNIT
 70
     2
  9
$DIMLWD
 70
    -2
  9
$DIMLWE
 70
    -2
  9
$DIMTMOVE
 70
     0
  9
$LUNITS
 70
     2
  9
$LUPREC
 70
     4
  9
$SKETCHINC
 40
0.1
  9
$FILLETRAD
 40
0.5
  9
$AUNITS
 70
     0
  9
$AUPREC
 70
     0
  9
$MENU
  1
.
  9
$ELEVATION
 40
0.0
  9
$PELEVATION
 40
0.0
  9
$THICKNESS
 40
0.0
  9
$LIMCHECK
 70
     0
  9
$CHAMFERA
 40
0.5
  9
$CHAMFERB
 40
0.5
  9
$CHAMFERC
 40
1.0
  9
$CHAMFERD
 40
0.0
  9
$SKPOLY
 70
     0
  9
$TDCREATE
 40
2456077.602581019
  9
$TDUCREATE
 40
2456077.560914352
  9
$TDUPDATE
 40
2456077.60258103
  9
$TDUUPDATE
 40
2456077.560914363
  9
$TDINDWG
 40
0.0000000116
  9
$TDUSRTIMER
 40
0.0000000116
  9
$USRTIMER
 70
     1
  9
$ANGBASE
 50
0.0
  9
$ANGDIR
 70
     0
  9
$PDMODE
 70
     0
  9
$PDSIZE
 40
0.0
  9
$PLINEWID
 40
0.0
  9
$SPLFRAME
 70
     0
  9
$SPLINETYPE
 70
     6
  9
$SPLINESEGS
 70
     8
  9
$HANDSEED
  5
898
  9
$SURFTAB1
 70
     6
  9
$SURFTAB2
 70
     6
  9
$SURFTYPE
 70
     6
  9
$SURFU
 70
     6
  9
$SURFV
 70
     6
  9
$UCSBASE
  2

  9
$UCSNAME
  2

  9
$UCSORG
 10
0.0
 20
0.0
 30
0.0
  9
$UCSXDIR
 10
1.0
 20
0.0
 30
0.0
  9
$UCSYDIR
 10
0.0
 20
1.0
 30
0.0
  9
$UCSORTHOREF
  2

  9
$UCSORTHOVIEW
 70
     0
  9
$UCSORGTOP
 10
0.0
 20
0.0
 30
0.0
  9
$UCSORGBOTTOM
 10
0.0
 20
0.0
 30
0.0
  9
$UCSORGLEFT
 10
0.0
 20
0.0
 30
0.0
  9
$UCSORGRIGHT
 10
0.0
 20
0.0
 30
0.0
  9
$UCSORGFRONT
 10
0.0
 20
0.0
 30
0.0
  9
$UCSORGBACK
 10
0.0
 20
0.0
 30
0.0
  9
$PUCSBASE
  2

  9
$PUCSNAME
  2

  9
$PUCSORG
 10
0.0
 20
0.0
 30
0.0
  9
$PUCSXDIR
 10
1.0
 20
0.0
 30
0.0
  9
$PUCSYDIR
 10
0.0
 20
1.0
 30
0.0
  9
$PUCSORTHOREF
  2

  9
$PUCSORTHOVIEW
 70
     0
  9
$PUCSORGTOP
 10
0.0
 20
0.0
 30
0.0
  9
$PUCSORGBOTTOM
 10
0.0
 20
0.0
 30
0.0
  9
$PUCSORGLEFT
 10
0.0
 20
0.0
 30
0.0
  9
$PUCSORGRIGHT
 10
0.0
 20
0.0
 30
0.0
  9
$PUCSORGFRONT
 10
0.0
 20
0.0
 30
0.0
  9
$PUCSORGBACK
 10
0.0
 20
0.0
 30
0.0
  9
$USERI1
 70
     0
  9
$USERI2
 70
     0
  9
$USERI3
 70
     0
  9
$USERI4
 70
     0
  9
$USERI5
 70
     0
  9
$USERR1
 40
0.0
  9
$USERR2
 40
0.0
  9
$USERR3
 40
0.0
  9
$USERR4
 40
0.0
  9
$USERR5
 40
0.0
  9
$WORLDVIEW
 70
     1
  9
$SHADEDGE
 70
     3
  9
$SHADEDIF
 70
    70
  9
$TILEMODE
 70
     1
  9
$MAXACTVP
 70
    64
  9
$PINSBASE
 10
0.0
 20
0.0
 30
0.0
  9
$PLIMCHECK
 70
     0
  9
$PEXTMIN
 10
1.000000000000000E+20
 20
1.000000000000000E+20
 30
1.000000000000000E+20
  9
$PEXTMAX
 10
-1.000000000000000E+20
 20
-1.000000000000000E+20
 30
-1.000000000000000E+20
  9
$PLIMMIN
 10
0.0
 20
0.0
  9
$PLIMMAX
 10
12.0
 20
9.0
  9
$UNITMODE
 70
     0
  9
$VISRETAIN
 70
     1
  9
$PLINEGEN
 70
     0
  9
$PSLTSCALE
 70
     1
  9
$TREEDEPTH
 70
  3020
  9
$CMLSTYLE
  2
Standard
  9
$CMLJUST
 70
     0
  9
$CMLSCALE
 40
1.0
  9
$PROXYGRAPHICS
 70
     1
  9
$MEASUREMENT
 70
     0
  9
$CELWEIGHT
370
    -1
  9
$ENDCAPS
280
     0
  9
$JOINSTYLE
280
     0
  9
$LWDISPLAY
290
     1
  9
$INSUNITS
 70
     1
  9
$HYPERLINKBASE
  1

  9
$STYLESHEET
  1

  9
$XEDIT
290
     1
  9
$CEPSNTYPE
380
     0
  9
$PSTYLEMODE
290
     1
  9
$FINGERPRINTGUID
  2
{C45C8B0B-C3F2-9974-A065-5640FBA14347}
  9
$VERSIONGUID
  2
{FAEB1C32-E019-11D5-929B-00C0DF256EC4}
  9
$EXTNAMES
290
     1
  9
$PSVPSCALE
 40
0.0
  9
$OLESTARTUP
290
     0
  9
$SORTENTS
280
   127
  9
$INDEXCTL
280
     0
  9
$HIDETEXT
280
     1
  9
$XCLIPFRAME
290
     0
  9
$HALOGAP
280
     0
  9
$OBSCOLOR
 70
   257
  9
$OBSLTYPE
280
     0
  9
$INTERSECTIONDISPLAY
280
     0
  9
$INTERSECTIONCOLOR
 70
   257
  9
$DIMASSOC
280
     2
  9
$PROJECTNAME
  1

  0
ENDSEC
  0
SECTION
  2
CLASSES
  0
CLASS
  1
ACDBDICTIONARYWDFLT
  2
AcDbDictionaryWithDefault
  3
ObjectDBX Classes
 90
        0
 91
        3
280
     0
281
     0
  0
CLASS
  1
VISUALSTYLE
  2
AcDbVisualStyle
  3
ObjectDBX Classes
 90
     4095
 91
        3
280
     0
281
     0
  0
ENDSEC
  0
SECTION
  2
TABLES
  0
TABLE
  2
VPORT
  5
8
330
0
100
AcDbSymbolTable
 70
     1
  0
VPORT
  5
29
330
8
100
AcDbSymbolTableRecord
100
AcDbViewportTableRecord
  2
*Active
 70
     0
 10
0.0
 20
0.0
 11
1.0
 21
1.0
 12
0.0
 22
0.0
 13
0.0
 23
0.0
 14
0.5
 24
0.5
 15
0.5
 25
0.5
 16
0.0
 26
0.0
 36
1.0
 17
105.0008259828644
 27
-148.4999796178229
 37
0.0
 40
296.9999592356459
 41
0.7070763662937379
 42
50.0
 43
0.0
 44
0.0
 50
0.0
 51
0.0
 71
     0
 72
   100
 73
     1
 74
     3
 75
     0
 76
     0
 77
     0
 78
     0
281
     0
 65
     1
110
0.0
120
0.0
130
0.0
111
1.0
121
0.0
131
0.0
112
0.0
122
1.0
132
0.0
 79
     0
146
0.0
  0
ENDTAB
  0
TABLE
  2
LTYPE
  5
5
330
0
100
AcDbSymbolTable
 70
     1
  0
LTYPE
  5
14
330
5
100
AcDbSymbolTableRecord
100
AcDbLinetypeTableRecord
  2
ByBlock
 70
     0
  3

 72
    65
 73
     0
 40
0.0
  0
LTYPE
  5
15
330
5
100
AcDbSymbolTableRecord
100
AcDbLinetypeTableRecord
  2
ByLayer
 70
     0
  3

 72
    65
 73
     0
 40
0.0
  0
LTYPE
  5
16
330
5
100
AcDbSymbolTableRecord
100
AcDbLinetypeTableRecord
  2
Continuous
 70
     0
  3
Solid line
 72
    65
 73
     0
 40
0.0
  0
ENDTAB
  0
TABLE
  2
LAYER
  5
2
330
0
100
AcDbSymbolTable
 70
     2
  0
LAYER
  5
10
330
2
100
AcDbSymbolTableRecord
100
AcDbLayerTableRecord
  2
0
 70
     0
 62
     7
  6
Continuous
370
    -3
390
F
  0
LAYER
  5
3B
330
2
100
AcDbSymbolTableRecord
100
AcDbLayerTableRecord
  2
Ebene 1
 70
     0
 62
     7
  6
Continuous
370
    -3
390
F
  0
ENDTAB
  0
TABLE
  2
STYLE
  5
3
330
0
100
AcDbSymbolTable
 70
     1
  0
STYLE
  5
11
330
3
100
AcDbSymbolTableRecord
100
AcDbTextStyleTableRecord
  2
Standard
 70
     0
 40
0.0
 41
1.0
 50
0.0
 71
     0
 42
0.2
  3
txt
  4

  0
ENDTAB
  0
TABLE
  2
VIEW
  5
6
330
0
100
AcDbSymbolTable
 70
     0
  0
ENDTAB
  0
TABLE
  2
UCS
  5
7
330
0
100
AcDbSymbolTable
 70
     0
  0
ENDTAB
  0
TABLE
  2
APPID
  5
9
330
0
100
AcDbSymbolTable
 70
     1
  0
APPID
  5
12
330
9
100
AcDbSymbolTableRecord
100
AcDbRegAppTableRecord
  2
ACAD
 70
     0
  0
ENDTAB
  0
TABLE
  2
DIMSTYLE
  5
A
330
0
100
AcDbSymbolTable
 70
     1
100
AcDbDimStyleTable
  0
DIMSTYLE
105
27
330
A
100
AcDbSymbolTableRecord
100
AcDbDimStyleTableRecord
  2
Standard
 70
     0
340
11
  0
ENDTAB
  0
TABLE
  2
BLOCK_RECORD
  5
1
330
0
100
AcDbSymbolTable
 70
     3
  0
BLOCK_RECORD
  5
1F
330
1
100
AcDbSymbolTableRecord
100
AcDbBlockTableRecord
  2
*Model_Space
340
22
  0
BLOCK_RECORD
  5
1B
330
1
100
AcDbSymbolTableRecord
100
AcDbBlockTableRecord
  2
*Paper_Space
340
1E
  0
BLOCK_RECORD
  5
23
330
1
100
AcDbSymbolTableRecord
100
AcDbBlockTableRecord
  2
*Paper_Space0
340
26
  0
BLOCK_RECORD
  5
FC
330
1
100
AcDbSymbolTableRecord
100
AcDbBlockTableRecord
  2
block 2
340
0
102
{BLKREFS
331
FD
102
}
  0
BLOCK_RECORD
  5
82A
330
1
100
AcDbSymbolTableRecord
100
AcDbBlockTableRecord
  2
block 3
340
0
102
{BLKREFS
331
82B
102
}
  0
ENDTAB
  0
ENDSEC
  0
SECTION
  2
BLOCKS
  0
BLOCK
  5
20
330
1F
100
AcDbEntity
  8
0
100
AcDbBlockBegin
  2
*Model_Space
 70
     0
 71
     0
 10
0.0
 20
0.0
 30
0.0
  3
*Model_Space
  1

  0
ENDBLK
  5
21
330
1F
100
AcDbEntity
  8
0
100
AcDbBlockEnd
  0
BLOCK
  5
1C
330
1B
100
AcDbEntity
 67
     1
  8
0
100
AcDbBlockBegin
  2
*Paper_Space
 70
     0
 71
     0
 10
0.0
 20
0.0
 30
0.0
  3
*Paper_Space
  1

  0
ENDBLK
  5
1D
330
1B
100
AcDbEntity
 67
     1
  8
0
100
AcDbBlockEnd
  0
BLOCK
  5
24
330
23
100
AcDbEntity
  8
0
100
AcDbBlockBegin
  2
*Paper_Space0
 70
     0
 71
     0
 10
0.0
 20
0.0
 30
0.0
  3
*Paper_Space0
  1

  0
ENDBLK
  5
25
330
23
100
AcDbEntity
  8
0
100
AcDbBlockEnd
  0
BLOCK
  5
FE
330
FC
100
AcDbEntity
  8
0
100
AcDbBlockBegin
  2
block 2
 70
     0
 71
     0
 10
0.0
 20
0.0
 30
0.0
  3
block 2
  1

  0
POLYLINE
  5
100
330
FC
100
AcDbEntity
  8
Ebene 1
 62
   179
420
  1709851
370
    25
100
AcDb2dPolyline
 66
     1
 10
0.0
 20
0.0
 30
0.0
  0
VERTEX
  5
101
330
100
100
AcDbEntity
  8
Ebene 1
 62
   179
420
  1709851
370
    25
100
AcDbVertex
100
AcDb2dVertex
 10
107.6571668567663
 20
-129.7658948785828
 30
0.0
  0
VERTEX
  5
102
330
100
100
AcDbEntity
  8
Ebene 1
 62
   179
420
  1709851
370
    25
100
AcDbVertex
100
AcDb2dVertex
 10
154.4357068841341
 20
-102.7573798028697
 30
0.0
  0
SEQEND
  5
103
330
100
100
AcDbEntity
  8
Ebene 1
370
    25
  0
POLYLINE
  5
104
330
FC
100
AcDbEntity
  8
Ebene 1
 62
   179
420
  1709851
370
    25
100
AcDb2dPolyline
 66
     1
 10
0.0
 20
0.0
 30
0.0
  0
VERTEX
  5
105
330
104
100
AcDbEntity
  8
Ebene 1
 62
   179
420
  1709851
370
    25
100
AcDbVertex
100
AcDb2dVertex
 10
105.9215277512974
 20
-128.7709513024427
 30
0.0
  0
VERTEX
  5
106
330
104
100
AcDbEntity
  8
Ebene 1
 62
   179
420
  1709851
370
    25
100
AcDbVertex
100
AcDb2dVertex
 10
154.4357068841341
 20
-100.7674926505894
 30
0.0
  0
SEQEND
  5
107
330
104
100
AcDbEntity
  8
Ebene 1
370
    25
  0
POLYLINE
  5
108
330
FC
100
AcDbEntity
  8
Ebene 1
 62
   179
420
  1709851
370
    25
100
AcDb2dPolyline
 66
     1
 10
0.0
 20
0.0
 30
0.0
  0
VERTEX
  5
109
330
108
100
AcDbEntity
  8
Ebene 1
 62
   179
420
  1709851
370
    25
100
AcDbVertex
100
AcDb2dVertex
 10
105.9215277512974
 20
-128.7709513024427
 30
0.0
  0
VERTEX
  5
10A
330
108
100
AcDbEntity
  8
Ebene 1
 62
   179
420
  1709851
370
    25
100
AcDbVertex
100
AcDb2dVertex
 10
107.6571668567663
 20
-129.7658948785828
 30
0.0
  0
SEQEND
  5
10B
330
108
100
AcDbEntity
  8
Ebene 1
370
    25
  0
POLYLINE
  5
10C
330
FC
100
AcDbEntity
  8
Ebene 1
 62
   179
420
  1709851
370
    25
100
AcDb2dPolyline
 66
     1
 10
0.0
 20
0.0
 30
0.0
  0
VERTEX
  5
10D
330
10C
100
AcDbEntity
  8
Ebene 1
 62
   179
420
  1709851
370
    25
100
AcDbVertex
100
AcDb2dVertex
 10
105.9215277512974
 20
-128.7709513024427
 30
0.0
  0
VERTEX
  5
10E
330
10C
100
AcDbEntity
  8
Ebene 1
 62
   179
420
  1709851
370
    25
100
AcDbVertex
100
AcDb2dVertex
 10
105.9215277512974
 20
-200.9283039862263
 30
0.0
  0
SEQEND
  5
10F
330
10C
100
AcDbEntity
  8
Ebene 1
370
    25
  0
POLYLINE
  5
110
330
FC
100
AcDbEntity
  8
Ebene 1
 62
   179
420
  1709851
370
    25
100
AcDb2dPolyline
 66
     1
 10
0.0
 20
0.0
 30
0.0
  0
VERTEX
  5
111
330
110
100
AcDbEntity
  8
Ebene 1
 62
   179
420
  1709851
370
    25
100
AcDbVertex
100
AcDb2dVertex
 10
107.6571668567663
 20
-129.7658948785828
 30
0.0
  0
VERTEX
  5
112
330
110
100
AcDbEntity
  8
Ebene 1
 62
   179
420
  1709851
370
    25
100
AcDbVertex
100
AcDb2dVertex
 10
107.6571668567663
 20
-200.9283039862263
 30
0.0
  0
SEQEND
  5
113
330
110
100
AcDbEntity
  8
Ebene 1
370
    25
  0
POLYLINE
  5
114
330
FC
100
AcDbEntity
  8
Ebene 1
 62
   179
420
  1709851
370
    18
100
AcDb2dPolyline
 66
     1
 10
0.0
 20
0.0
 30
0.0
  0
VERTEX
  5
115
330
114
100
AcDbEntity
  8
Ebene 1
 62
   179
420
  1709851
370
    18
100
AcDbVertex
100
AcDb2dVertex
 10
88.0146104380658
 20
-113.7003811022173
 30
0.0
  0
VERTEX
  5
116
330
114
100
AcDbEntity
  8
Ebene 1
 62
   179
420
  1709851
370
    18
100
AcDbVertex
100
AcDb2dVertex
 10
88.438012673203
 20
-113.9542846394802
 30
0.0
  0
SEQEND
  5
117
330
114
100
AcDbEntity
  8
Ebene 1
370
    18
  0
POLYLINE
  5
118
330
FC
100
AcDbEntity
  8
Ebene 1
 62
   179
420
  1709851
370
    18
100
AcDb2dPolyline
 66
     1
 10
0.0
 20
0.0
 30
0.0
  0
VERTEX
  5
119
330
118
100
AcDbEntity
  8
Ebene 1
 62
   179
420
  1709851
370
    18
100
AcDbVertex
100
AcDb2dVertex
 10
64.62551267915613
 20
-105.4666028924702
 30
0.0
  0
VERTEX
  5
11A
330
118
100
AcDbEntity
  8
Ebene 1
 62
   179
420
  1709851
370
    18
100
AcDbVertex
100
AcDb2dVertex
 10
63.96922198921603
 20
-105.0855753318015
 30
0.0
  0
SEQEND
  5
11B
330
118
100
AcDbEntity
  8
Ebene 1
370
    18
  0
POLYLINE
  5
11C
330
FC
100
AcDbEntity
  8
Ebene 1
 62
   179
420
  1709851
370
    18
100
AcDb2dPolyline
 66
     1
 10
0.0
 20
0.0
 30
0.0
  0
VERTEX
  5
11D
330
11C
100
AcDbEntity
  8
Ebene 1
 62
   179
420
  1709851
370
    18
100
AcDbVertex
100
AcDb2dVertex
 10
63.96922198921603
 20
-105.0855753318015
 30
0.0
  0
VERTEX
  5
11E
330
11C
100
AcDbEntity
  8
Ebene 1
 62
   179
420
  1709851
370
    18
100
AcDbVertex
100
AcDb2dVertex
 10
72.64758977133464
 20
-100.0901868781893
 30
0.0
  0
SEQEND
  5
11F
330
11C
100
AcDbEntity
  8
Ebene 1
370
    18
  0
POLYLINE
  5
120
330
FC
100
AcDbEntity
  8
Ebene 1
 62
   179
420
  1709851
370
    18
100
AcDb2dPolyline
 66
     1
 10
0.0
 20
0.0
 30
0.0
  0
VERTEX
  5
121
330
120
100
AcDbEntity
  8
Ebene 1
 62
   179
420
  1709851
370
    18
100
AcDbVertex
100
AcDb2dVertex
 10
68.16018064702246
 20
-108.3239650879364
 30
0.0
  0
VERTEX
  5
122
330
120
100
AcDbEntity
  8
Ebene 1
 62
   179
420
  1709851
370
    18
100
AcDbVertex
100
AcDb2dVertex
 10
67.18659666289085
 20
-110.8216593147425
 30
0.0
  0
VERTEX
  5
123
330
120
100
AcDbEntity
  8
Ebene 1
 62
   179
420
  1709851
370
    18
100
AcDbVertex
100
AcDb2dVertex
 10
68.16018064702246
 20
-112.2186455340113
 30
0.0
  0
SEQEND
  5
124
330
120
100
AcDbEntity
  8
Ebene 1
370
    18
  0
POLYLINE
  5
125
330
FC
100
AcDbEntity
  8
Ebene 1
 62
   179
420
  1709851
370
    18
100
AcDb2dPolyline
 66
     1
 10
0.0
 20
0.0
 30
0.0
  0
VERTEX
  5
126
330
125
100
AcDbEntity
  8
Ebene 1
 62
   179
420
  1709851
370
    18
100
AcDbVertex
100
AcDb2dVertex
 10
68.16018064702246
 20
-108.3239650879364
 30
0.0
  0
VERTEX
  5
127
330
125
100
AcDbEntity
  8
Ebene 1
 62
   179
420
  1709851
370
    18
100
AcDbVertex
100
AcDb2dVertex
 10
70.10752087005993
 20
-107.202241997939
 30
0.0
  0
SEQEND
  5
128
330
125
100
AcDbEntity
  8
Ebene 1
370
    18
  0
POLYLINE
  5
129
330
FC
100
AcDbEntity
  8
Ebene 1
 62
   179
420
  1709851
370
    18
100
AcDb2dPolyline
 66
     1
 10
0.0
 20
0.0
 30
0.0
  0
VERTEX
  5
12A
330
129
100
AcDbEntity
  8
Ebene 1
 62
   179
420
  1709851
370
    18
100
AcDbVertex
100
AcDb2dVertex
 10
71.2929782265344
 20
-107.8585326878791
 30
0.0
  0
VERTEX
  5
12B
330
129
100
AcDbEntity
  8
Ebene 1
 62
   179
420
  1709851
370
    18
100
AcDbVertex
100
AcDb2dVertex
 10
70.10752087005993
 20
-107.202241997939
 30
0.0
  0
SEQEND
  5
12C
330
129
100
AcDbEntity
  8
Ebene 1
370
    18
  0
POLYLINE
  5
12D
330
FC
100
AcDbEntity
  8
Ebene 1
 62
   179
420
  1709851
370
    18
100
AcDb2dPolyline
 66
     1
 10
0.0
 20
0.0
 30
0.0
  0
VERTEX
  5
12E
330
12D
100
AcDbEntity
  8
Ebene 1
 62
   179
420
  1709851
370
    18
100
AcDbVertex
100
AcDb2dVertex
 10
69.34563800349693
 20
-109.0012708603365
 30
0.0
  0
VERTEX
  5
12F
330
12D
100
AcDbEntity
  8
Ebene 1
 62
   179
420
  1709851
370
    18
100
AcDbVertex
100
AcDb2dVertex
 10
68.16018064702246
 20
-108.3239650879364
 30
0.0
  0
SEQEND
  5
130
330
12D
100
AcDbEntity
  8
Ebene 1
370
    18
  0
POLYLINE
  5
131
330
FC
100
AcDbEntity
  8
Ebene 1
 62
   179
420
  1709851
370
    18
100
AcDb2dPolyline
 66
     1
 10
0.0
 20
0.0
 30
0.0
  0
VERTEX
  5
132
330
131
100
AcDbEntity
  8
Ebene 1
 62
   179
420
  1709851
370
    18
100
AcDbVertex
100
AcDb2dVertex
 10
68.35069442735677
 20
-111.4989650871426
 30
0.0
  0
VERTEX
  5
133
330
131
100
AcDbEntity
  8
Ebene 1
 62
   179
420
  1709851
370
    18
100
AcDbVertex
100
AcDb2dVertex
 10
67.18659666289085
 20
-110.8216593147425
 30
0.0
  0
SEQEND
  5
134
330
131
100
AcDbEntity
  8
Ebene 1
370
    18
  0
POLYLINE
  5
135
330
FC
100
AcDbEntity
  8
Ebene 1
 62
   179
420
  1709851
370
    18
100
AcDb2dPolyline
 66
     1
 10
0.0
 20
0.0
 30
0.0
  0
VERTEX
  5
136
330
135
100
AcDbEntity
  8
Ebene 1
 62
   179
420
  1709851
370
    18
100
AcDbVertex
100
AcDb2dVertex
 10
71.97028399893452
 20
-108.6202432996679
 30
0.0
  0
VERTEX
  5
137
330
135
100
AcDbEntity
  8
Ebene 1
 62
   179
420
  1709851
370
    18
100
AcDbVertex
100
AcDb2dVertex
 10
71.67400578720303
 20
-108.2395602485477
 30
0.0
  0
VERTEX
  5
138
330
135
100
AcDbEntity
  8
Ebene 1
 62
   179
420
  1709851
370
    18
100
AcDbVertex
100
AcDb2dVertex
 10
71.31416556376868
 20
-107.8795477703391
 30
0.0
  0
VERTEX
  5
139
330
135
100
AcDbEntity
  8
Ebene 1
 62
   179
420
  1709851
370
    18
100
AcDbVertex
100
AcDb2dVertex
 10
71.2929782265344
 20
-107.8585326878791
 30
0.0
  0
SEQEND
  5
13A
330
135
100
AcDbEntity
  8
Ebene 1
370
    18
  0
POLYLINE
  5
13B
330
FC
100
AcDbEntity
  8
Ebene 1
 62
   179
420
  1709851
370
    18
100
AcDb2dPolyline
 66
     1
 10
0.0
 20
0.0
 30
0.0
  0
VERTEX
  5
13C
330
13B
100
AcDbEntity
  8
Ebene 1
 62
   179
420
  1709851
370
    18
100
AcDbVertex
100
AcDb2dVertex
 10
69.34563800349693
 20
-112.8959513064114
 30
0.0
  0
VERTEX
  5
13D
330
13B
100
AcDbEntity
  8
Ebene 1
 62
   179
420
  1709851
370
    18
100
AcDbVertex
100
AcDb2dVertex
 10
69.13393688592832
 20
-112.4305189063542
 30
0.0
  0
VERTEX
  5
13E
330
13B
100
AcDbEntity
  8
Ebene 1
 62
   179
420
  1709851
370
    18
100
AcDbVertex
100
AcDb2dVertex
 10
68.87986109389115
 20
-112.028131753677
 30
0.0
  0
VERTEX
  5
13F
330
13B
100
AcDbEntity
  8
Ebene 1
 62
   179
420
  1709851
370
    18
100
AcDbVertex
100
AcDb2dVertex
 10
68.54120820769108
 20
-111.6471041930084
 30
0.0
  0
VERTEX
  5
140
330
13B
100
AcDbEntity
  8
Ebene 1
 62
   179
420
  1709851
370
    18
100
AcDbVertex
100
AcDb2dVertex
 10
68.35069442735677
 20
-111.4989650871426
 30
0.0
  0
VERTEX
  5
141
330
13B
100
AcDbEntity
  8
Ebene 1
 62
   179
420
  1709851
370
    18
100
AcDbVertex
100
AcDb2dVertex
 10
68.71053465079112
 20
-111.117937526474
 30
0.0
  0
VERTEX
  5
142
330
13B
100
AcDbEntity
  8
Ebene 1
 62
   179
420
  1709851
370
    18
100
AcDbVertex
100
AcDb2dVertex
 10
68.98579778006258
 20
-110.6735202088768
 30
0.0
  0
VERTEX
  5
143
330
13B
100
AcDbEntity
  8
Ebene 1
 62
   179
420
  1709851
370
    18
100
AcDbVertex
100
AcDb2dVertex
 10
69.1763115603969
 20
-110.186728216811
 30
0.0
  0
VERTEX
  5
144
330
13B
100
AcDbEntity
  8
Ebene 1
 62
   179
420
  1709851
370
    18
100
AcDbVertex
100
AcDb2dVertex
 10
69.30326332902835
 20
-109.6785766327366
 30
0.0
  0
VERTEX
  5
145
330
13B
100
AcDbEntity
  8
Ebene 1
 62
   179
420
  1709851
370
    18
100
AcDbVertex
100
AcDb2dVertex
 10
69.34563800349693
 20
-109.1707695582108
 30
0.0
  0
VERTEX
  5
146
330
13B
100
AcDbEntity
  8
Ebene 1
 62
   179
420
  1709851
370
    18
100
AcDbVertex
100
AcDb2dVertex
 10
69.34563800349693
 20
-109.0012708603365
 30
0.0
  0
VERTEX
  5
147
330
13B
100
AcDbEntity
  8
Ebene 1
 62
   179
420
  1709851
370
    18
100
AcDbVertex
100
AcDb2dVertex
 10
69.79005532109416
 20
-108.9168660209479
 30
0.0
  0
VERTEX
  5
148
330
13B
100
AcDbEntity
  8
Ebene 1
 62
   179
420
  1709851
370
    18
100
AcDbVertex
100
AcDb2dVertex
 10
70.23464489346564
 20
-108.7687269150821
 30
0.0
  0
VERTEX
  5
149
330
13B
100
AcDbEntity
  8
Ebene 1
 62
   179
420
  1709851
370
    18
100
AcDbVertex
100
AcDb2dVertex
 10
70.63668753659431
 20
-108.5358384602792
 30
0.0
  0
VERTEX
  5
14A
330
13B
100
AcDbEntity
  8
Ebene 1
 62
   179
420
  1709851
370
    18
100
AcDbVertex
100
AcDb2dVertex
 10
70.97551267756863
 20
-108.2395602485477
 30
0.0
  0
VERTEX
  5
14B
330
13B
100
AcDbEntity
  8
Ebene 1
 62
   179
420
  1709851
370
    18
100
AcDbVertex
100
AcDb2dVertex
 10
71.2717908893001
 20
-107.8795477703391
 30
0.0
  0
VERTEX
  5
14C
330
13B
100
AcDbEntity
  8
Ebene 1
 62
   179
420
  1709851
370
    18
100
AcDbVertex
100
AcDb2dVertex
 10
71.2929782265344
 20
-107.8585326878791
 30
0.0
  0
SEQEND
  5
14D
330
13B
100
AcDbEntity
  8
Ebene 1
370
    18
  0
POLYLINE
  5
14E
330
FC
100
AcDbEntity
  8
Ebene 1
 62
   179
420
  1709851
370
    18
100
AcDb2dPolyline
 66
     1
 10
0.0
 20
0.0
 30
0.0
  0
VERTEX
  5
14F
330
14E
100
AcDbEntity
  8
Ebene 1
 62
   179
420
  1709851
370
    18
100
AcDbVertex
100
AcDb2dVertex
 10
69.34563800349693
 20
-112.8959513064114
 30
0.0
  0
VERTEX
  5
150
330
14E
100
AcDbEntity
  8
Ebene 1
 62
   179
420
  1709851
370
    18
100
AcDbVertex
100
AcDb2dVertex
 10
69.79005532109416
 20
-112.8115464670228
 30
0.0
  0
VERTEX
  5
151
330
14E
100
AcDbEntity
  8
Ebene 1
 62
   179
420
  1709851
370
    18
100
AcDbVertex
100
AcDb2dVertex
 10
70.23464489346564
 20
-112.6630628516085
 30
0.0
  0
VERTEX
  5
152
330
14E
100
AcDbEntity
  8
Ebene 1
 62
   179
420
  1709851
370
    18
100
AcDbVertex
100
AcDb2dVertex
 10
70.50973576796285
 20
-112.5149237457428
 30
0.0
  0
SEQEND
  5
153
330
14E
100
AcDbEntity
  8
Ebene 1
370
    18
  0
POLYLINE
  5
154
330
FC
100
AcDbEntity
  8
Ebene 1
 62
   179
420
  1709851
370
    18
100
AcDb2dPolyline
 66
     1
 10
0.0
 20
0.0
 30
0.0
  0
VERTEX
  5
155
330
154
100
AcDbEntity
  8
Ebene 1
 62
   179
420
  1709851
370
    18
100
AcDbVertex
100
AcDb2dVertex
 10
69.34563800349693
 20
-112.8959513064114
 30
0.0
  0
VERTEX
  5
156
330
154
100
AcDbEntity
  8
Ebene 1
 62
   179
420
  1709851
370
    18
100
AcDbVertex
100
AcDb2dVertex
 10
68.16018064702246
 20
-112.2186455340113
 30
0.0
  0
SEQEND
  5
157
330
154
100
AcDbEntity
  8
Ebene 1
370
    18
  0
POLYLINE
  5
158
330
FC
100
AcDbEntity
  8
Ebene 1
 62
   179
420
  1709851
370
    18
100
AcDb2dPolyline
 66
     1
 10
0.0
 20
0.0
 30
0.0
  0
VERTEX
  5
159
330
158
100
AcDbEntity
  8
Ebene 1
 62
   179
420
  1709851
370
    18
100
AcDbVertex
100
AcDb2dVertex
 10
71.75858288136591
 20
-111.2240464674197
 30
0.0
  0
VERTEX
  5
15A
330
158
100
AcDbEntity
  8
Ebene 1
 62
   179
420
  1709851
370
    18
100
AcDbVertex
100
AcDb2dVertex
 10
72.0126586734031
 20
-110.6948798008853
 30
0.0
  0
VERTEX
  5
15B
330
158
100
AcDbEntity
  8
Ebene 1
 62
   179
420
  1709851
370
    18
100
AcDbVertex
100
AcDb2dVertex
 10
72.13961044203454
 20
-110.3348673226767
 30
0.0
  0
SEQEND
  5
15C
330
158
100
AcDbEntity
  8
Ebene 1
370
    18
  0
POLYLINE
  5
15D
330
FC
100
AcDbEntity
  8
Ebene 1
 62
   179
420
  1709851
370
    18
100
AcDb2dPolyline
 66
     1
 10
0.0
 20
0.0
 30
0.0
  0
VERTEX
  5
15E
330
15D
100
AcDbEntity
  8
Ebene 1
 62
   179
420
  1709851
370
    18
100
AcDbVertex
100
AcDb2dVertex
 10
72.13961044203454
 20
-110.3348673226767
 30
0.0
  0
VERTEX
  5
15F
330
15D
100
AcDbEntity
  8
Ebene 1
 62
   179
420
  1709851
370
    18
100
AcDbVertex
100
AcDb2dVertex
 10
72.24537487343171
 20
-109.8690904130709
 30
0.0
  0
VERTEX
  5
160
330
15D
100
AcDbEntity
  8
Ebene 1
 62
   179
420
  1709851
370
    18
100
AcDbVertex
100
AcDb2dVertex
 10
72.266562210666
 20
-109.5517971188794
 30
0.0
  0
SEQEND
  5
161
330
15D
100
AcDbEntity
  8
Ebene 1
370
    18
  0
POLYLINE
  5
162
330
FC
100
AcDbEntity
  8
Ebene 1
 62
   179
420
  1709851
370
    18
100
AcDb2dPolyline
 66
     1
 10
0.0
 20
0.0
 30
0.0
  0
VERTEX
  5
163
330
162
100
AcDbEntity
  8
Ebene 1
 62
   179
420
  1709851
370
    18
100
AcDbVertex
100
AcDb2dVertex
 10
72.266562210666
 20
-109.5517971188794
 30
0.0
  0
VERTEX
  5
164
330
162
100
AcDbEntity
  8
Ebene 1
 62
   179
420
  1709851
370
    18
100
AcDbVertex
100
AcDb2dVertex
 10
72.22418753619743
 20
-109.1707695582108
 30
0.0
  0
VERTEX
  5
165
330
162
100
AcDbEntity
  8
Ebene 1
 62
   179
420
  1709851
370
    18
100
AcDbVertex
100
AcDb2dVertex
 10
72.09723576756598
 20
-108.8321166720107
 30
0.0
  0
SEQEND
  5
166
330
162
100
AcDbEntity
  8
Ebene 1
370
    18
  0
POLYLINE
  5
167
330
FC
100
AcDbEntity
  8
Ebene 1
 62
   179
420
  1709851
370
    18
100
AcDb2dPolyline
 66
     1
 10
0.0
 20
0.0
 30
0.0
  0
VERTEX
  5
168
330
167
100
AcDbEntity
  8
Ebene 1
 62
   179
420
  1709851
370
    18
100
AcDbVertex
100
AcDb2dVertex
 10
72.09723576756598
 20
-108.8321166720107
 30
0.0
  0
VERTEX
  5
169
330
167
100
AcDbEntity
  8
Ebene 1
 62
   179
420
  1709851
370
    18
100
AcDbVertex
100
AcDb2dVertex
 10
71.94909666170022
 20
-108.6202432996679
 30
0.0
  0
VERTEX
  5
16A
330
167
100
AcDbEntity
  8
Ebene 1
 62
   179
420
  1709851
370
    18
100
AcDbVertex
100
AcDb2dVertex
 10
71.75858288136591
 20
-108.4721041938021
 30
0.0
  0
SEQEND
  5
16B
330
167
100
AcDbEntity
  8
Ebene 1
370
    18
  0
POLYLINE
  5
16C
330
FC
100
AcDbEntity
  8
Ebene 1
 62
   179
420
  1709851
370
    18
100
AcDb2dPolyline
 66
     1
 10
0.0
 20
0.0
 30
0.0
  0
VERTEX
  5
16D
330
16C
100
AcDbEntity
  8
Ebene 1
 62
   179
420
  1709851
370
    18
100
AcDbVertex
100
AcDb2dVertex
 10
71.75858288136591
 20
-108.4721041938021
 30
0.0
  0
VERTEX
  5
16E
330
16C
100
AcDbEntity
  8
Ebene 1
 62
   179
420
  1709851
370
    18
100
AcDbVertex
100
AcDb2dVertex
 10
71.52569442656302
 20
-108.3663397624049
 30
0.0
  0
VERTEX
  5
16F
330
16C
100
AcDbEntity
  8
Ebene 1
 62
   179
420
  1709851
370
    18
100
AcDbVertex
100
AcDb2dVertex
 10
71.2717908893001
 20
-108.3453246799449
 30
0.0
  0
SEQEND
  5
170
330
16C
100
AcDbEntity
  8
Ebene 1
370
    18
  0
POLYLINE
  5
171
330
FC
100
AcDbEntity
  8
Ebene 1
 62
   179
420
  1709851
370
    18
100
AcDb2dPolyline
 66
     1
 10
0.0
 20
0.0
 30
0.0
  0
VERTEX
  5
172
330
171
100
AcDbEntity
  8
Ebene 1
 62
   179
420
  1709851
370
    18
100
AcDbVertex
100
AcDb2dVertex
 10
71.2717908893001
 20
-108.3453246799449
 30
0.0
  0
VERTEX
  5
173
330
171
100
AcDbEntity
  8
Ebene 1
 62
   179
420
  1709851
370
    18
100
AcDbVertex
100
AcDb2dVertex
 10
70.89076332863148
 20
-108.4300740288821
 30
0.0
  0
VERTEX
  5
174
330
171
100
AcDbEntity
  8
Ebene 1
 62
   179
420
  1709851
370
    18
100
AcDbVertex
100
AcDb2dVertex
 10
70.57295327011718
 20
-108.5782131347478
 30
0.0
  0
SEQEND
  5
175
330
171
100
AcDbEntity
  8
Ebene 1
370
    18
  0
POLYLINE
  5
176
330
FC
100
AcDbEntity
  8
Ebene 1
 62
   179
420
  1709851
370
    18
100
AcDb2dPolyline
 66
     1
 10
0.0
 20
0.0
 30
0.0
  0
VERTEX
  5
177
330
176
100
AcDbEntity
  8
Ebene 1
 62
   179
420
  1709851
370
    18
100
AcDbVertex
100
AcDb2dVertex
 10
70.57329777966571
 20
-108.5782131347478
 30
0.0
  0
VERTEX
  5
178
330
176
100
AcDbEntity
  8
Ebene 1
 62
   179
420
  1709851
370
    18
100
AcDbVertex
100
AcDb2dVertex
 10
70.17108288176279
 20
-108.8531317544708
 30
0.0
  0
VERTEX
  5
179
330
176
100
AcDbEntity
  8
Ebene 1
 62
   179
420
  1709851
370
    18
100
AcDbVertex
100
AcDb2dVertex
 10
69.95938176419419
 20
-109.0650051268136
 30
0.0
  0
SEQEND
  5
17A
330
176
100
AcDbEntity
  8
Ebene 1
370
    18
  0
POLYLINE
  5
17B
330
FC
100
AcDbEntity
  8
Ebene 1
 62
   179
420
  1709851
370
    18
100
AcDb2dPolyline
 66
     1
 10
0.0
 20
0.0
 30
0.0
  0
VERTEX
  5
17C
330
17B
100
AcDbEntity
  8
Ebene 1
 62
   179
420
  1709851
370
    18
100
AcDbVertex
100
AcDb2dVertex
 10
69.95938176419419
 20
-109.0650051268136
 30
0.0
  0
VERTEX
  5
17D
330
17B
100
AcDbEntity
  8
Ebene 1
 62
   179
420
  1709851
370
    18
100
AcDbVertex
100
AcDb2dVertex
 10
69.57835420352555
 20
-109.5304375268709
 30
0.0
  0
VERTEX
  5
17E
330
17B
100
AcDbEntity
  8
Ebene 1
 62
   179
420
  1709851
370
    18
100
AcDbVertex
100
AcDb2dVertex
 10
69.36682534073121
 20
-109.8480753306109
 30
0.0
  0
SEQEND
  5
17F
330
17B
100
AcDbEntity
  8
Ebene 1
370
    18
  0
POLYLINE
  5
180
330
FC
100
AcDbEntity
  8
Ebene 1
 62
   179
420
  1709851
370
    18
100
AcDb2dPolyline
 66
     1
 10
0.0
 20
0.0
 30
0.0
  0
VERTEX
  5
181
330
180
100
AcDbEntity
  8
Ebene 1
 62
   179
420
  1709851
370
    18
100
AcDbVertex
100
AcDb2dVertex
 10
69.36682534073121
 20
-109.8480753306109
 30
0.0
  0
VERTEX
  5
182
330
180
100
AcDbEntity
  8
Ebene 1
 62
   179
420
  1709851
370
    18
100
AcDbVertex
100
AcDb2dVertex
 10
69.11274954869404
 20
-110.3772419971453
 30
0.0
  0
VERTEX
  5
183
330
180
100
AcDbEntity
  8
Ebene 1
 62
   179
420
  1709851
370
    18
100
AcDbVertex
100
AcDb2dVertex
 10
68.98579778006258
 20
-110.7369099658054
 30
0.0
  0
SEQEND
  5
184
330
180
100
AcDbEntity
  8
Ebene 1
370
    18
  0
POLYLINE
  5
185
330
FC
100
AcDbEntity
  8
Ebene 1
 62
   179
420
  1709851
370
    18
100
AcDb2dPolyline
 66
     1
 10
0.0
 20
0.0
 30
0.0
  0
VERTEX
  5
186
330
185
100
AcDbEntity
  8
Ebene 1
 62
   179
420
  1709851
370
    18
100
AcDbVertex
100
AcDb2dVertex
 10
68.98579778006258
 20
-110.7369099658054
 30
0.0
  0
VERTEX
  5
187
330
185
100
AcDbEntity
  8
Ebene 1
 62
   179
420
  1709851
370
    18
100
AcDbVertex
100
AcDb2dVertex
 10
68.90104843112543
 20
-111.2026868754111
 30
0.0
  0
VERTEX
  5
188
330
185
100
AcDbEntity
  8
Ebene 1
 62
   179
420
  1709851
370
    18
100
AcDbVertex
100
AcDb2dVertex
 10
68.87986109389115
 20
-111.4989650871426
 30
0.0
  0
SEQEND
  5
189
330
185
100
AcDbEntity
  8
Ebene 1
370
    18
  0
POLYLINE
  5
18A
330
FC
100
AcDbEntity
  8
Ebene 1
 62
   179
420
  1709851
370
    18
100
AcDb2dPolyline
 66
     1
 10
0.0
 20
0.0
 30
0.0
  0
VERTEX
  5
18B
330
18A
100
AcDbEntity
  8
Ebene 1
 62
   179
420
  1709851
370
    18
100
AcDbVertex
100
AcDb2dVertex
 10
68.87986109389115
 20
-111.4989650871426
 30
0.0
  0
VERTEX
  5
18C
330
18A
100
AcDbEntity
  8
Ebene 1
 62
   179
420
  1709851
370
    18
100
AcDbVertex
100
AcDb2dVertex
 10
68.92223576835973
 20
-111.8799926478113
 30
0.0
  0
VERTEX
  5
18D
330
18A
100
AcDbEntity
  8
Ebene 1
 62
   179
420
  1709851
370
    18
100
AcDbVertex
100
AcDb2dVertex
 10
69.02817245453116
 20
-112.2186455340113
 30
0.0
  0
SEQEND
  5
18E
330
18A
100
AcDbEntity
  8
Ebene 1
370
    18
  0
POLYLINE
  5
18F
330
FC
100
AcDbEntity
  8
Ebene 1
 62
   179
420
  1709851
370
    18
100
AcDb2dPolyline
 66
     1
 10
0.0
 20
0.0
 30
0.0
  0
VERTEX
  5
190
330
18F
100
AcDbEntity
  8
Ebene 1
 62
   179
420
  1709851
370
    18
100
AcDbVertex
100
AcDb2dVertex
 10
69.02817245453116
 20
-112.2186455340113
 30
0.0
  0
VERTEX
  5
191
330
18F
100
AcDbEntity
  8
Ebene 1
 62
   179
420
  1709851
370
    18
100
AcDbVertex
100
AcDb2dVertex
 10
69.1763115603969
 20
-112.4515339888142
 30
0.0
  0
VERTEX
  5
192
330
18F
100
AcDbEntity
  8
Ebene 1
 62
   179
420
  1709851
370
    18
100
AcDbVertex
100
AcDb2dVertex
 10
69.36682534073121
 20
-112.5996730946799
 30
0.0
  0
SEQEND
  5
193
330
18F
100
AcDbEntity
  8
Ebene 1
370
    18
  0
POLYLINE
  5
194
330
FC
100
AcDbEntity
  8
Ebene 1
 62
   179
420
  1709851
370
    18
100
AcDb2dPolyline
 66
     1
 10
0.0
 20
0.0
 30
0.0
  0
VERTEX
  5
195
330
194
100
AcDbEntity
  8
Ebene 1
 62
   179
420
  1709851
370
    18
100
AcDbVertex
100
AcDb2dVertex
 10
69.36682534073121
 20
-112.5996730946799
 30
0.0
  0
VERTEX
  5
196
330
194
100
AcDbEntity
  8
Ebene 1
 62
   179
420
  1709851
370
    18
100
AcDbVertex
100
AcDb2dVertex
 10
69.62072887799413
 20
-112.6844224436171
 30
0.0
  0
VERTEX
  5
197
330
194
100
AcDbEntity
  8
Ebene 1
 62
   179
420
  1709851
370
    18
100
AcDbVertex
100
AcDb2dVertex
 10
69.8748046700313
 20
-112.7054375260771
 30
0.0
  0
SEQEND
  5
198
330
194
100
AcDbEntity
  8
Ebene 1
370
    18
  0
POLYLINE
  5
199
330
FC
100
AcDbEntity
  8
Ebene 1
 62
   179
420
  1709851
370
    18
100
AcDb2dPolyline
 66
     1
 10
0.0
 20
0.0
 30
0.0
  0
VERTEX
  5
19A
330
199
100
AcDbEntity
  8
Ebene 1
 62
   179
420
  1709851
370
    18
100
AcDbVertex
100
AcDb2dVertex
 10
69.8748046700313
 20
-112.7054375260771
 30
0.0
  0
VERTEX
  5
19B
330
199
100
AcDbEntity
  8
Ebene 1
 62
   179
420
  1709851
370
    18
100
AcDbVertex
100
AcDb2dVertex
 10
70.25583223069994
 20
-112.6210326866885
 30
0.0
  0
VERTEX
  5
19C
330
199
100
AcDbEntity
  8
Ebene 1
 62
   179
420
  1709851
370
    18
100
AcDbVertex
100
AcDb2dVertex
 10
70.57329777966571
 20
-112.4728935808228
 30
0.0
  0
SEQEND
  5
19D
330
199
100
AcDbEntity
  8
Ebene 1
370
    18
  0
POLYLINE
  5
19E
330
FC
100
AcDbEntity
  8
Ebene 1
 62
   179
420
  1709851
370
    18
100
AcDb2dPolyline
 66
     1
 10
0.0
 20
0.0
 30
0.0
  0
VERTEX
  5
19F
330
19E
100
AcDbEntity
  8
Ebene 1
 62
   179
420
  1709851
370
    18
100
AcDbVertex
100
AcDb2dVertex
 10
70.57329777966571
 20
-112.4728935808228
 30
0.0
  0
VERTEX
  5
1A0
330
19E
100
AcDbEntity
  8
Ebene 1
 62
   179
420
  1709851
370
    18
100
AcDbVertex
100
AcDb2dVertex
 10
70.95432534033434
 20
-112.1976304515513
 30
0.0
  0
VERTEX
  5
1A1
330
19E
100
AcDbEntity
  8
Ebene 1
 62
   179
420
  1709851
370
    18
100
AcDbVertex
100
AcDb2dVertex
 10
71.18704154036297
 20
-111.9857570792084
 30
0.0
  0
SEQEND
  5
1A2
330
19E
100
AcDbEntity
  8
Ebene 1
370
    18
  0
POLYLINE
  5
1A3
330
FC
100
AcDbEntity
  8
Ebene 1
 62
   179
420
  1709851
370
    18
100
AcDb2dPolyline
 66
     1
 10
0.0
 20
0.0
 30
0.0
  0
VERTEX
  5
1A4
330
1A3
100
AcDbEntity
  8
Ebene 1
 62
   179
420
  1709851
370
    18
100
AcDbVertex
100
AcDb2dVertex
 10
71.18704154036297
 20
-111.9857570792084
 30
0.0
  0
VERTEX
  5
1A5
330
1A3
100
AcDbEntity
  8
Ebene 1
 62
   179
420
  1709851
370
    18
100
AcDbVertex
100
AcDb2dVertex
 10
71.5680691010316
 20
-111.5413397616112
 30
0.0
  0
VERTEX
  5
1A6
330
1A3
100
AcDbEntity
  8
Ebene 1
 62
   179
420
  1709851
370
    18
100
AcDbVertex
100
AcDb2dVertex
 10
71.75858288136591
 20
-111.2240464674197
 30
0.0
  0
SEQEND
  5
1A7
330
1A3
100
AcDbEntity
  8
Ebene 1
370
    18
  0
POLYLINE
  5
1A8
330
FC
100
AcDbEntity
  8
Ebene 1
 62
   179
420
  1709851
370
    18
100
AcDb2dPolyline
 66
     1
 10
0.0
 20
0.0
 30
0.0
  0
VERTEX
  5
1A9
330
1A8
100
AcDbEntity
  8
Ebene 1
 62
   179
420
  1709851
370
    18
100
AcDbVertex
100
AcDb2dVertex
 10
71.2929782265344
 20
-107.9219224448077
 30
0.0
  0
VERTEX
  5
1AA
330
1A8
100
AcDbEntity
  8
Ebene 1
 62
   179
420
  1709851
370
    18
100
AcDbVertex
100
AcDb2dVertex
 10
71.12365178343437
 20
-107.5832695586077
 30
0.0
  0
VERTEX
  5
1AB
330
1A8
100
AcDbEntity
  8
Ebene 1
 62
   179
420
  1709851
370
    18
100
AcDbVertex
100
AcDb2dVertex
 10
70.91195066586576
 20
-107.3080064293362
 30
0.0
  0
VERTEX
  5
1AC
330
1A8
100
AcDbEntity
  8
Ebene 1
 62
   179
420
  1709851
370
    18
100
AcDbVertex
100
AcDb2dVertex
 10
70.63668753659431
 20
-107.0964775665419
 30
0.0
  0
VERTEX
  5
1AD
330
1A8
100
AcDbEntity
  8
Ebene 1
 62
   179
420
  1709851
370
    18
100
AcDbVertex
100
AcDb2dVertex
 10
70.29803465039424
 20
-106.9483384606761
 30
0.0
  0
VERTEX
  5
1AE
330
1A8
100
AcDbEntity
  8
Ebene 1
 62
   179
420
  1709851
370
    18
100
AcDbVertex
100
AcDb2dVertex
 10
69.95938176419419
 20
-106.884604194199
 30
0.0
  0
VERTEX
  5
1AF
330
1A8
100
AcDbEntity
  8
Ebene 1
 62
   179
420
  1709851
370
    18
100
AcDbVertex
100
AcDb2dVertex
 10
69.59954154075984
 20
-106.9059637862075
 30
0.0
  0
VERTEX
  5
1B0
330
1A8
100
AcDbEntity
  8
Ebene 1
 62
   179
420
  1709851
370
    18
100
AcDbVertex
100
AcDb2dVertex
 10
69.26088865455978
 20
-107.0117282176047
 30
0.0
  0
VERTEX
  5
1B1
330
1A8
100
AcDbEntity
  8
Ebene 1
 62
   179
420
  1709851
370
    18
100
AcDbVertex
100
AcDb2dVertex
 10
69.11274954869404
 20
-107.0964775665419
 30
0.0
  0
SEQEND
  5
1B2
330
1A8
100
AcDbEntity
  8
Ebene 1
370
    18
  0
POLYLINE
  5
1B3
330
FC
100
AcDbEntity
  8
Ebene 1
 62
   179
420
  1709851
370
    18
100
AcDb2dPolyline
 66
     1
 10
0.0
 20
0.0
 30
0.0
  0
VERTEX
  5
1B4
330
1B3
100
AcDbEntity
  8
Ebene 1
 62
   179
420
  1709851
370
    18
100
AcDbVertex
100
AcDb2dVertex
 10
70.12870820729421
 20
-106.8212144372704
 30
0.0
  0
VERTEX
  5
1B5
330
1B3
100
AcDbEntity
  8
Ebene 1
 62
   179
420
  1709851
370
    18
100
AcDbVertex
100
AcDb2dVertex
 10
69.81124265832844
 20
-106.6730753314046
 30
0.0
  0
VERTEX
  5
1B6
330
1B3
100
AcDbEntity
  8
Ebene 1
 62
   179
420
  1709851
370
    18
100
AcDbVertex
100
AcDb2dVertex
 10
69.45140243489409
 20
-106.6096855744761
 30
0.0
  0
VERTEX
  5
1B7
330
1B3
100
AcDbEntity
  8
Ebene 1
 62
   179
420
  1709851
370
    18
100
AcDbVertex
100
AcDb2dVertex
 10
69.09156221145975
 20
-106.6307006569361
 30
0.0
  0
VERTEX
  5
1B8
330
1B3
100
AcDbEntity
  8
Ebene 1
 62
   179
420
  1709851
370
    18
100
AcDbVertex
100
AcDb2dVertex
 10
68.7529093252597
 20
-106.7364650883332
 30
0.0
  0
VERTEX
  5
1B9
330
1B3
100
AcDbEntity
  8
Ebene 1
 62
   179
420
  1709851
370
    18
100
AcDbVertex
100
AcDb2dVertex
 10
68.62595755662824
 20
-106.8212144372704
 30
0.0
  0
SEQEND
  5
1BA
330
1B3
100
AcDbEntity
  8
Ebene 1
370
    18
  0
POLYLINE
  5
1BB
330
FC
100
AcDbEntity
  8
Ebene 1
 62
   179
420
  1709851
370
    18
100
AcDb2dPolyline
 66
     1
 10
0.0
 20
0.0
 30
0.0
  0
VERTEX
  5
1BC
330
1BB
100
AcDbEntity
  8
Ebene 1
 62
   179
420
  1709851
370
    18
100
AcDbVertex
100
AcDb2dVertex
 10
67.14422198842229
 20
-111.9857570792084
 30
0.0
  0
VERTEX
  5
1BD
330
1BB
100
AcDbEntity
  8
Ebene 1
 62
   179
420
  1709851
370
    18
100
AcDbVertex
100
AcDb2dVertex
 10
67.63101398048808
 20
-112.2610202084799
 30
0.0
  0
VERTEX
  5
1BE
330
1BB
100
AcDbEntity
  8
Ebene 1
 62
   179
420
  1709851
370
    18
100
AcDbVertex
100
AcDb2dVertex
 10
67.94865178422812
 20
-112.4091593143456
 30
0.0
  0
VERTEX
  5
1BF
330
1BB
100
AcDbEntity
  8
Ebene 1
 62
   179
420
  1709851
370
    18
100
AcDbVertex
100
AcDb2dVertex
 10
68.30849200766247
 20
-112.4728935808228
 30
0.0
  0
VERTEX
  5
1C0
330
1BB
100
AcDbEntity
  8
Ebene 1
 62
   179
420
  1709851
370
    18
100
AcDbVertex
100
AcDb2dVertex
 10
68.58358288215966
 20
-112.4515339888142
 30
0.0
  0
SEQEND
  5
1C1
330
1BB
100
AcDbEntity
  8
Ebene 1
370
    18
  0
POLYLINE
  5
1C2
330
FC
100
AcDbEntity
  8
Ebene 1
 62
   179
420
  1709851
370
    18
100
AcDb2dPolyline
 66
     1
 10
0.0
 20
0.0
 30
0.0
  0
VERTEX
  5
1C3
330
1C2
100
AcDbEntity
  8
Ebene 1
 62
   179
420
  1709851
370
    18
100
AcDbVertex
100
AcDb2dVertex
 10
70.12870820729421
 20
-106.8212144372704
 30
0.0
  0
VERTEX
  5
1C4
330
1C2
100
AcDbEntity
  8
Ebene 1
 62
   179
420
  1709851
370
    18
100
AcDbVertex
100
AcDb2dVertex
 10
70.61567245413428
 20
-107.0964775665419
 30
0.0
  0
SEQEND
  5
1C5
330
1C2
100
AcDbEntity
  8
Ebene 1
370
    18
  0
POLYLINE
  5
1C6
330
FC
100
AcDbEntity
  8
Ebene 1
 62
   179
420
  1709851
370
    18
100
AcDb2dPolyline
 66
     1
 10
0.0
 20
0.0
 30
0.0
  0
VERTEX
  5
1C7
330
1C6
100
AcDbEntity
  8
Ebene 1
 62
   179
420
  1709851
370
    18
100
AcDbVertex
100
AcDb2dVertex
 10
68.62595755662824
 20
-106.8212144372704
 30
0.0
  0
VERTEX
  5
1C8
330
1C6
100
AcDbEntity
  8
Ebene 1
 62
   179
420
  1709851
370
    18
100
AcDbVertex
100
AcDb2dVertex
 10
68.11797822732815
 20
-107.1598673234705
 30
0.0
  0
VERTEX
  5
1C9
330
1C6
100
AcDbEntity
  8
Ebene 1
 62
   179
420
  1709851
370
    18
100
AcDbVertex
100
AcDb2dVertex
 10
67.67338865495665
 20
-107.5619099665991
 30
0.0
  0
VERTEX
  5
1CA
330
1C6
100
AcDbEntity
  8
Ebene 1
 62
   179
420
  1709851
370
    18
100
AcDbVertex
100
AcDb2dVertex
 10
67.271346011828
 20
-108.0276868762049
 30
0.0
  0
VERTEX
  5
1CB
330
1C6
100
AcDbEntity
  8
Ebene 1
 62
   179
420
  1709851
370
    18
100
AcDbVertex
100
AcDb2dVertex
 10
66.93252087085368
 20
-108.5568535427393
 30
0.0
  0
VERTEX
  5
1CC
330
1C6
100
AcDbEntity
  8
Ebene 1
 62
   179
420
  1709851
370
    18
100
AcDbVertex
100
AcDb2dVertex
 10
66.67861733359076
 20
-109.1073798012822
 30
0.0
  0
VERTEX
  5
1CD
330
1C6
100
AcDbEntity
  8
Ebene 1
 62
   179
420
  1709851
370
    18
100
AcDbVertex
100
AcDb2dVertex
 10
66.50929089049073
 20
-109.6999362247452
 30
0.0
  0
VERTEX
  5
1CE
330
1C6
100
AcDbEntity
  8
Ebene 1
 62
   179
420
  1709851
370
    18
100
AcDbVertex
100
AcDb2dVertex
 10
66.4033542043193
 20
-110.3138522402167
 30
0.0
  0
VERTEX
  5
1CF
330
1C6
100
AcDbEntity
  8
Ebene 1
 62
   179
420
  1709851
370
    18
100
AcDbVertex
100
AcDb2dVertex
 10
66.4033542043193
 20
-110.6948798008853
 30
0.0
  0
VERTEX
  5
1D0
330
1C6
100
AcDbEntity
  8
Ebene 1
 62
   179
420
  1709851
370
    18
100
AcDbVertex
100
AcDb2dVertex
 10
66.44572887878788
 20
-111.0545477695454
 30
0.0
  0
VERTEX
  5
1D1
330
1C6
100
AcDbEntity
  8
Ebene 1
 62
   179
420
  1709851
370
    18
100
AcDbVertex
100
AcDb2dVertex
 10
66.55166556495931
 20
-111.3721855732854
 30
0.0
  0
VERTEX
  5
1D2
330
1C6
100
AcDbEntity
  8
Ebene 1
 62
   179
420
  1709851
370
    18
100
AcDbVertex
100
AcDb2dVertex
 10
66.76319442775365
 20
-111.6684637850169
 30
0.0
  0
VERTEX
  5
1D3
330
1C6
100
AcDbEntity
  8
Ebene 1
 62
   179
420
  1709851
370
    18
100
AcDbVertex
100
AcDb2dVertex
 10
67.01727021979083
 20
-111.9013522398198
 30
0.0
  0
VERTEX
  5
1D4
330
1C6
100
AcDbEntity
  8
Ebene 1
 62
   179
420
  1709851
370
    18
100
AcDbVertex
100
AcDb2dVertex
 10
67.14422198842229
 20
-111.9857570792084
 30
0.0
  0
SEQEND
  5
1D5
330
1C6
100
AcDbEntity
  8
Ebene 1
370
    18
  0
POLYLINE
  5
1D6
330
FC
100
AcDbEntity
  8
Ebene 1
 62
   179
420
  1709851
370
    18
100
AcDb2dPolyline
 66
     1
 10
0.0
 20
0.0
 30
0.0
  0
VERTEX
  5
1D7
330
1D6
100
AcDbEntity
  8
Ebene 1
 62
   179
420
  1709851
370
    18
100
AcDbVertex
100
AcDb2dVertex
 10
69.11274954869404
 20
-107.0964775665419
 30
0.0
  0
VERTEX
  5
1D8
330
1D6
100
AcDbEntity
  8
Ebene 1
 62
   179
420
  1709851
370
    18
100
AcDbVertex
100
AcDb2dVertex
 10
68.60477021939396
 20
-107.4351304527419
 30
0.0
  0
VERTEX
  5
1D9
330
1D6
100
AcDbEntity
  8
Ebene 1
 62
   179
420
  1709851
370
    18
100
AcDbVertex
100
AcDb2dVertex
 10
68.16018064702246
 20
-107.8371730958706
 30
0.0
  0
VERTEX
  5
1DA
330
1D6
100
AcDbEntity
  8
Ebene 1
 62
   179
420
  1709851
370
    18
100
AcDbVertex
100
AcDb2dVertex
 10
67.7581380038938
 20
-108.3239650879364
 30
0.0
  0
VERTEX
  5
1DB
330
1D6
100
AcDbEntity
  8
Ebene 1
 62
   179
420
  1709851
370
    18
100
AcDbVertex
100
AcDb2dVertex
 10
67.41948511769374
 20
-108.8321166720107
 30
0.0
  0
VERTEX
  5
1DC
330
1D6
100
AcDbEntity
  8
Ebene 1
 62
   179
420
  1709851
370
    18
100
AcDbVertex
100
AcDb2dVertex
 10
67.16540932565657
 20
-109.4036580130137
 30
0.0
  0
VERTEX
  5
1DD
330
1D6
100
AcDbEntity
  8
Ebene 1
 62
   179
420
  1709851
370
    18
100
AcDbVertex
100
AcDb2dVertex
 10
66.99608288255654
 20
-109.9751993540166
 30
0.0
  0
VERTEX
  5
1DE
330
1D6
100
AcDbEntity
  8
Ebene 1
 62
   179
420
  1709851
370
    18
100
AcDbVertex
100
AcDb2dVertex
 10
66.89031845115937
 20
-110.5887708599396
 30
0.0
  0
VERTEX
  5
1DF
330
1D6
100
AcDbEntity
  8
Ebene 1
 62
   179
420
  1709851
370
    18
100
AcDbVertex
100
AcDb2dVertex
 10
66.89031845115937
 20
-110.9697984206083
 30
0.0
  0
VERTEX
  5
1E0
330
1D6
100
AcDbEntity
  8
Ebene 1
 62
   179
420
  1709851
370
    18
100
AcDbVertex
100
AcDb2dVertex
 10
66.93252087085368
 20
-111.3298108988169
 30
0.0
  0
VERTEX
  5
1E1
330
1D6
100
AcDbEntity
  8
Ebene 1
 62
   179
420
  1709851
370
    18
100
AcDbVertex
100
AcDb2dVertex
 10
67.03845755702511
 20
-111.6684637850169
 30
0.0
  0
VERTEX
  5
1E2
330
1D6
100
AcDbEntity
  8
Ebene 1
 62
   179
420
  1709851
370
    18
100
AcDbVertex
100
AcDb2dVertex
 10
67.25015867459372
 20
-111.9437269142884
 30
0.0
  0
VERTEX
  5
1E3
330
1D6
100
AcDbEntity
  8
Ebene 1
 62
   179
420
  1709851
370
    18
100
AcDbVertex
100
AcDb2dVertex
 10
67.50406221185662
 20
-112.1976304515513
 30
0.0
  0
VERTEX
  5
1E4
330
1D6
100
AcDbEntity
  8
Ebene 1
 62
   179
420
  1709851
370
    18
100
AcDbVertex
100
AcDb2dVertex
 10
67.63101398048808
 20
-112.2610202084799
 30
0.0
  0
SEQEND
  5
1E5
330
1D6
100
AcDbEntity
  8
Ebene 1
370
    18
  0
POLYLINE
  5
1E6
330
FC
100
AcDbEntity
  8
Ebene 1
 62
   179
420
  1709851
370
    18
100
AcDb2dPolyline
 66
     1
 10
0.0
 20
0.0
 30
0.0
  0
VERTEX
  5
1E7
330
1E6
100
AcDbEntity
  8
Ebene 1
 62
   179
420
  1709851
370
    18
100
AcDbVertex
100
AcDb2dVertex
 10
71.12365178343437
 20
-121.7860202060986
 30
0.0
  0
VERTEX
  5
1E8
330
1E6
100
AcDbEntity
  8
Ebene 1
 62
   179
420
  1709851
370
    18
100
AcDbVertex
100
AcDb2dVertex
 10
71.10246444620009
 20
-121.5107570768272
 30
0.0
  0
SEQEND
  5
1E9
330
1E6
100
AcDbEntity
  8
Ebene 1
370
    18
  0
POLYLINE
  5
1EA
330
FC
100
AcDbEntity
  8
Ebene 1
 62
   179
420
  1709851
370
    18
100
AcDb2dPolyline
 66
     1
 10
0.0
 20
0.0
 30
0.0
  0
VERTEX
  5
1EB
330
1EA
100
AcDbEntity
  8
Ebene 1
 62
   179
420
  1709851
370
    18
100
AcDbVertex
100
AcDb2dVertex
 10
71.10246444620009
 20
-121.976533986433
 30
0.0
  0
VERTEX
  5
1EC
330
1EA
100
AcDbEntity
  8
Ebene 1
 62
   179
420
  1709851
370
    18
100
AcDbVertex
100
AcDb2dVertex
 10
71.12365178343437
 20
-121.7860202060986
 30
0.0
  0
SEQEND
  5
1ED
330
1EA
100
AcDbEntity
  8
Ebene 1
370
    18
  0
POLYLINE
  5
1EE
330
FC
100
AcDbEntity
  8
Ebene 1
 62
   179
420
  1709851
370
    18
100
AcDb2dPolyline
 66
     1
 10
0.0
 20
0.0
 30
0.0
  0
VERTEX
  5
1EF
330
1EE
100
AcDbEntity
  8
Ebene 1
 62
   179
420
  1709851
370
    18
100
AcDbVertex
100
AcDb2dVertex
 10
70.19227021899708
 20
-122.4846855705073
 30
0.0
  0
VERTEX
  5
1F0
330
1EE
100
AcDbEntity
  8
Ebene 1
 62
   179
420
  1709851
370
    18
100
AcDbVertex
100
AcDb2dVertex
 10
70.34040932486282
 20
-122.1670477667673
 30
0.0
  0
VERTEX
  5
1F1
330
1EE
100
AcDbEntity
  8
Ebene 1
 62
   179
420
  1709851
370
    18
100
AcDbVertex
100
AcDb2dVertex
 10
70.42515867379997
 20
-121.8707695550358
 30
0.0
  0
SEQEND
  5
1F2
330
1EE
100
AcDbEntity
  8
Ebene 1
370
    18
  0
POLYLINE
  5
1F3
330
FC
100
AcDbEntity
  8
Ebene 1
 62
   179
420
  1709851
370
    18
100
AcDb2dPolyline
 66
     1
 10
0.0
 20
0.0
 30
0.0
  0
VERTEX
  5
1F4
330
1F3
100
AcDbEntity
  8
Ebene 1
 62
   179
420
  1709851
370
    18
100
AcDbVertex
100
AcDb2dVertex
 10
67.44067245492803
 20
-124.5799926446363
 30
0.0
  0
VERTEX
  5
1F5
330
1F3
100
AcDbEntity
  8
Ebene 1
 62
   179
420
  1709851
370
    18
100
AcDbVertex
100
AcDb2dVertex
 10
69.1763115603969
 20
-123.5853935780446
 30
0.0
  0
SEQEND
  5
1F6
330
1F3
100
AcDbEntity
  8
Ebene 1
370
    18
  0
POLYLINE
  5
1F7
330
FC
100
AcDbEntity
  8
Ebene 1
 62
   179
420
  1709851
370
    18
100
AcDb2dPolyline
 66
     1
 10
0.0
 20
0.0
 30
0.0
  0
VERTEX
  5
1F8
330
1F7
100
AcDbEntity
  8
Ebene 1
 62
   179
420
  1709851
370
    18
100
AcDbVertex
100
AcDb2dVertex
 10
68.09679089009386
 20
-124.9610202053049
 30
0.0
  0
VERTEX
  5
1F9
330
1F7
100
AcDbEntity
  8
Ebene 1
 62
   179
420
  1709851
370
    18
100
AcDbVertex
100
AcDb2dVertex
 10
69.83242999556273
 20
-123.9660766291647
 30
0.0
  0
SEQEND
  5
1FA
330
1F7
100
AcDbEntity
  8
Ebene 1
370
    18
  0
POLYLINE
  5
1FB
330
FC
100
AcDbEntity
  8
Ebene 1
 62
   179
420
  1709851
370
    18
100
AcDb2dPolyline
 66
     1
 10
0.0
 20
0.0
 30
0.0
  0
VERTEX
  5
1FC
330
1FB
100
AcDbEntity
  8
Ebene 1
 62
   179
420
  1709851
370
    18
100
AcDbVertex
100
AcDb2dVertex
 10
68.09679089009386
 20
-121.9555189039729
 30
0.0
  0
VERTEX
  5
1FD
330
1FB
100
AcDbEntity
  8
Ebene 1
 62
   179
420
  1709851
370
    18
100
AcDbVertex
100
AcDb2dVertex
 10
69.83242999556273
 20
-120.9605753278328
 30
0.0
  0
SEQEND
  5
1FE
330
1FB
100
AcDbEntity
  8
Ebene 1
370
    18
  0
POLYLINE
  5
1FF
330
FC
100
AcDbEntity
  8
Ebene 1
 62
   179
420
  1709851
370
    18
100
AcDb2dPolyline
 66
     1
 10
0.0
 20
0.0
 30
0.0
  0
VERTEX
  5
200
330
1FF
100
AcDbEntity
  8
Ebene 1
 62
   179
420
  1709851
370
    18
100
AcDbVertex
100
AcDb2dVertex
 10
66.95370820808796
 20
-124.707116668042
 30
0.0
  0
VERTEX
  5
201
330
1FF
100
AcDbEntity
  8
Ebene 1
 62
   179
420
  1709851
370
    18
100
AcDbVertex
100
AcDb2dVertex
 10
67.20778400012514
 20
-124.6857570760334
 30
0.0
  0
VERTEX
  5
202
330
1FF
100
AcDbEntity
  8
Ebene 1
 62
   179
420
  1709851
370
    18
100
AcDbVertex
100
AcDb2dVertex
 10
67.44067245492803
 20
-124.5799926446363
 30
0.0
  0
SEQEND
  5
203
330
1FF
100
AcDbEntity
  8
Ebene 1
370
    18
  0
POLYLINE
  5
204
330
FC
100
AcDbEntity
  8
Ebene 1
 62
   179
420
  1709851
370
    18
100
AcDb2dPolyline
 66
     1
 10
0.0
 20
0.0
 30
0.0
  0
VERTEX
  5
205
330
204
100
AcDbEntity
  8
Ebene 1
 62
   179
420
  1709851
370
    18
100
AcDbVertex
100
AcDb2dVertex
 10
70.42515867379997
 20
-121.8707695550358
 30
0.0
  0
VERTEX
  5
206
330
204
100
AcDbEntity
  8
Ebene 1
 62
   179
420
  1709851
370
    18
100
AcDbVertex
100
AcDb2dVertex
 10
70.46736109349428
 20
-121.40499264543
 30
0.0
  0
VERTEX
  5
207
330
204
100
AcDbEntity
  8
Ebene 1
 62
   179
420
  1709851
370
    18
100
AcDbVertex
100
AcDb2dVertex
 10
70.46736109349428
 20
-121.3416028885014
 30
0.0
  0
VERTEX
  5
208
330
204
100
AcDbEntity
  8
Ebene 1
 62
   179
420
  1709851
370
    18
100
AcDbVertex
100
AcDb2dVertex
 10
70.42515867379997
 20
-121.0663397592299
 30
0.0
  0
VERTEX
  5
209
330
204
100
AcDbEntity
  8
Ebene 1
 62
   179
420
  1709851
370
    18
100
AcDbVertex
100
AcDb2dVertex
 10
70.31922198762854
 20
-120.8548108964356
 30
0.0
  0
SEQEND
  5
20A
330
204
100
AcDbEntity
  8
Ebene 1
370
    18
  0
POLYLINE
  5
20B
330
FC
100
AcDbEntity
  8
Ebene 1
 62
   179
420
  1709851
370
    18
100
AcDb2dPolyline
 66
     1
 10
0.0
 20
0.0
 30
0.0
  0
VERTEX
  5
20C
330
20B
100
AcDbEntity
  8
Ebene 1
 62
   179
420
  1709851
370
    18
100
AcDbVertex
100
AcDb2dVertex
 10
69.1763115603969
 20
-123.5853935780446
 30
0.0
  0
VERTEX
  5
20D
330
20B
100
AcDbEntity
  8
Ebene 1
 62
   179
420
  1709851
370
    18
100
AcDbVertex
100
AcDb2dVertex
 10
69.55733912106552
 20
-123.3101304487732
 30
0.0
  0
VERTEX
  5
20E
330
20B
100
AcDbEntity
  8
Ebene 1
 62
   179
420
  1709851
370
    18
100
AcDbVertex
100
AcDb2dVertex
 10
69.89599200726559
 20
-122.9714775625731
 30
0.0
  0
VERTEX
  5
20F
330
20B
100
AcDbEntity
  8
Ebene 1
 62
   179
420
  1709851
370
    18
100
AcDbVertex
100
AcDb2dVertex
 10
70.1498955445285
 20
-122.5904500019045
 30
0.0
  0
VERTEX
  5
210
330
20B
100
AcDbEntity
  8
Ebene 1
 62
   179
420
  1709851
370
    18
100
AcDbVertex
100
AcDb2dVertex
 10
70.19227021899708
 20
-122.4846855705073
 30
0.0
  0
SEQEND
  5
211
330
20B
100
AcDbEntity
  8
Ebene 1
370
    18
  0
POLYLINE
  5
212
330
FC
100
AcDbEntity
  8
Ebene 1
 62
   179
420
  1709851
370
    18
100
AcDb2dPolyline
 66
     1
 10
0.0
 20
0.0
 30
0.0
  0
VERTEX
  5
213
330
212
100
AcDbEntity
  8
Ebene 1
 62
   179
420
  1709851
370
    18
100
AcDbVertex
100
AcDb2dVertex
 10
68.09679089009386
 20
-121.9555189039729
 30
0.0
  0
VERTEX
  5
214
330
212
100
AcDbEntity
  8
Ebene 1
 62
   179
420
  1709851
370
    18
100
AcDbVertex
100
AcDb2dVertex
 10
67.71576332942523
 20
-122.2304375236959
 30
0.0
  0
VERTEX
  5
215
330
212
100
AcDbEntity
  8
Ebene 1
 62
   179
420
  1709851
370
    18
100
AcDbVertex
100
AcDb2dVertex
 10
67.37711044322516
 20
-122.5690904098959
 30
0.0
  0
VERTEX
  5
216
330
212
100
AcDbEntity
  8
Ebene 1
 62
   179
420
  1709851
370
    18
100
AcDbVertex
100
AcDb2dVertex
 10
67.123034651188
 20
-122.9501179705646
 30
0.0
  0
VERTEX
  5
217
330
212
100
AcDbEntity
  8
Ebene 1
 62
   179
420
  1709851
370
    18
100
AcDbVertex
100
AcDb2dVertex
 10
66.93252087085368
 20
-123.3735202057018
 30
0.0
  0
VERTEX
  5
218
330
212
100
AcDbEntity
  8
Ebene 1
 62
   179
420
  1709851
370
    18
100
AcDbVertex
100
AcDb2dVertex
 10
66.8267564394565
 20
-123.8392971153075
 30
0.0
  0
VERTEX
  5
219
330
212
100
AcDbEntity
  8
Ebene 1
 62
   179
420
  1709851
370
    18
100
AcDbVertex
100
AcDb2dVertex
 10
66.78438176498794
 20
-124.1989650839676
 30
0.0
  0
VERTEX
  5
21A
330
212
100
AcDbEntity
  8
Ebene 1
 62
   179
420
  1709851
370
    18
100
AcDbVertex
100
AcDb2dVertex
 10
66.8267564394565
 20
-124.4742282132391
 30
0.0
  0
VERTEX
  5
21B
330
212
100
AcDbEntity
  8
Ebene 1
 62
   179
420
  1709851
370
    18
100
AcDbVertex
100
AcDb2dVertex
 10
66.95370820808796
 20
-124.707116668042
 30
0.0
  0
VERTEX
  5
21C
330
212
100
AcDbEntity
  8
Ebene 1
 62
   179
420
  1709851
370
    18
100
AcDbVertex
100
AcDb2dVertex
 10
67.14422198842229
 20
-124.9186455308363
 30
0.0
  0
VERTEX
  5
21D
330
212
100
AcDbEntity
  8
Ebene 1
 62
   179
420
  1709851
370
    18
100
AcDbVertex
100
AcDb2dVertex
 10
67.39829778045946
 20
-125.0244099622335
 30
0.0
  0
VERTEX
  5
21E
330
212
100
AcDbEntity
  8
Ebene 1
 62
   179
420
  1709851
370
    18
100
AcDbVertex
100
AcDb2dVertex
 10
67.65220131772237
 20
-125.0667846367021
 30
0.0
  0
VERTEX
  5
21F
330
212
100
AcDbEntity
  8
Ebene 1
 62
   179
420
  1709851
370
    18
100
AcDbVertex
100
AcDb2dVertex
 10
67.92746444699384
 20
-125.0244099622335
 30
0.0
  0
VERTEX
  5
220
330
212
100
AcDbEntity
  8
Ebene 1
 62
   179
420
  1709851
370
    18
100
AcDbVertex
100
AcDb2dVertex
 10
68.09679089009386
 20
-124.9610202053049
 30
0.0
  0
SEQEND
  5
221
330
212
100
AcDbEntity
  8
Ebene 1
370
    18
  0
POLYLINE
  5
222
330
FC
100
AcDbEntity
  8
Ebene 1
 62
   179
420
  1709851
370
    18
100
AcDb2dPolyline
 66
     1
 10
0.0
 20
0.0
 30
0.0
  0
VERTEX
  5
223
330
222
100
AcDbEntity
  8
Ebene 1
 62
   179
420
  1709851
370
    18
100
AcDbVertex
100
AcDb2dVertex
 10
71.10246444620009
 20
-121.5107570768272
 30
0.0
  0
VERTEX
  5
224
330
222
100
AcDbEntity
  8
Ebene 1
 62
   179
420
  1709851
370
    18
100
AcDbVertex
100
AcDb2dVertex
 10
70.99652776002866
 20
-121.2568535395643
 30
0.0
  0
VERTEX
  5
225
330
222
100
AcDbEntity
  8
Ebene 1
 62
   179
420
  1709851
370
    18
100
AcDbVertex
100
AcDb2dVertex
 10
70.80601397969433
 20
-121.0453246767699
 30
0.0
  0
VERTEX
  5
226
330
222
100
AcDbEntity
  8
Ebene 1
 62
   179
420
  1709851
370
    18
100
AcDbVertex
100
AcDb2dVertex
 10
70.59448511689999
 20
-120.9182006533642
 30
0.0
  0
VERTEX
  5
227
330
222
100
AcDbEntity
  8
Ebene 1
 62
   179
420
  1709851
370
    18
100
AcDbVertex
100
AcDb2dVertex
 10
70.31922198762854
 20
-120.8548108964356
 30
0.0
  0
VERTEX
  5
228
330
222
100
AcDbEntity
  8
Ebene 1
 62
   179
420
  1709851
370
    18
100
AcDbVertex
100
AcDb2dVertex
 10
70.04413111313133
 20
-120.8758259788956
 30
0.0
  0
VERTEX
  5
229
330
222
100
AcDbEntity
  8
Ebene 1
 62
   179
420
  1709851
370
    18
100
AcDbVertex
100
AcDb2dVertex
 10
69.83242999556273
 20
-120.9605753278328
 30
0.0
  0
SEQEND
  5
22A
330
222
100
AcDbEntity
  8
Ebene 1
370
    18
  0
POLYLINE
  5
22B
330
FC
100
AcDbEntity
  8
Ebene 1
 62
   179
420
  1709851
370
    18
100
AcDb2dPolyline
 66
     1
 10
0.0
 20
0.0
 30
0.0
  0
VERTEX
  5
22C
330
22B
100
AcDbEntity
  8
Ebene 1
 62
   179
420
  1709851
370
    18
100
AcDbVertex
100
AcDb2dVertex
 10
69.83242999556273
 20
-123.9660766291647
 30
0.0
  0
VERTEX
  5
22D
330
22B
100
AcDbEntity
  8
Ebene 1
 62
   179
420
  1709851
370
    18
100
AcDbVertex
100
AcDb2dVertex
 10
70.21345755623136
 20
-123.6911580094418
 30
0.0
  0
VERTEX
  5
22E
330
22B
100
AcDbEntity
  8
Ebene 1
 62
   179
420
  1709851
370
    18
100
AcDbVertex
100
AcDb2dVertex
 10
70.53092310519713
 20
-123.3525051232417
 30
0.0
  0
VERTEX
  5
22F
330
22B
100
AcDbEntity
  8
Ebene 1
 62
   179
420
  1709851
370
    18
100
AcDbVertex
100
AcDb2dVertex
 10
70.80601397969433
 20
-122.9714775625731
 30
0.0
  0
VERTEX
  5
230
330
22B
100
AcDbEntity
  8
Ebene 1
 62
   179
420
  1709851
370
    18
100
AcDbVertex
100
AcDb2dVertex
 10
70.99652776002866
 20
-122.5480753274359
 30
0.0
  0
VERTEX
  5
231
330
22B
100
AcDbEntity
  8
Ebene 1
 62
   179
420
  1709851
370
    18
100
AcDbVertex
100
AcDb2dVertex
 10
71.10246444620009
 20
-122.0822984178301
 30
0.0
  0
VERTEX
  5
232
330
22B
100
AcDbEntity
  8
Ebene 1
 62
   179
420
  1709851
370
    18
100
AcDbVertex
100
AcDb2dVertex
 10
71.10246444620009
 20
-121.976533986433
 30
0.0
  0
SEQEND
  5
233
330
22B
100
AcDbEntity
  8
Ebene 1
370
    18
  0
POLYLINE
  5
234
330
FC
100
AcDbEntity
  8
Ebene 1
 62
   179
420
  1709851
370
    18
100
AcDb2dPolyline
 66
     1
 10
0.0
 20
0.0
 30
0.0
  0
VERTEX
  5
235
330
234
100
AcDbEntity
  8
Ebene 1
 62
   179
420
  1709851
370
    18
100
AcDbVertex
100
AcDb2dVertex
 10
68.16018064702246
 20
-135.8196166652639
 30
0.0
  0
VERTEX
  5
236
330
234
100
AcDbEntity
  8
Ebene 1
 62
   179
420
  1709851
370
    18
100
AcDbVertex
100
AcDb2dVertex
 10
67.18659666289085
 20
-138.33832597453
 30
0.0
  0
VERTEX
  5
237
330
234
100
AcDbEntity
  8
Ebene 1
 62
   179
420
  1709851
370
    18
100
AcDbVertex
100
AcDb2dVertex
 10
68.16018064702246
 20
-139.7142971113388
 30
0.0
  0
SEQEND
  5
238
330
234
100
AcDbEntity
  8
Ebene 1
370
    18
  0
POLYLINE
  5
239
330
FC
100
AcDbEntity
  8
Ebene 1
 62
   179
420
  1709851
370
    18
100
AcDb2dPolyline
 66
     1
 10
0.0
 20
0.0
 30
0.0
  0
VERTEX
  5
23A
330
239
100
AcDbEntity
  8
Ebene 1
 62
   179
420
  1709851
370
    18
100
AcDbVertex
100
AcDb2dVertex
 10
68.16018064702246
 20
-135.8196166652639
 30
0.0
  0
VERTEX
  5
23B
330
239
100
AcDbEntity
  8
Ebene 1
 62
   179
420
  1709851
370
    18
100
AcDbVertex
100
AcDb2dVertex
 10
70.10752087005993
 20
-134.6978935752665
 30
0.0
  0
SEQEND
  5
23C
330
239
100
AcDbEntity
  8
Ebene 1
370
    18
  0
POLYLINE
  5
23D
330
FC
100
AcDbEntity
  8
Ebene 1
 62
   179
420
  1709851
370
    18
100
AcDb2dPolyline
 66
     1
 10
0.0
 20
0.0
 30
0.0
  0
VERTEX
  5
23E
330
23D
100
AcDbEntity
  8
Ebene 1
 62
   179
420
  1709851
370
    18
100
AcDbVertex
100
AcDb2dVertex
 10
71.2929782265344
 20
-135.3751993476666
 30
0.0
  0
VERTEX
  5
23F
330
23D
100
AcDbEntity
  8
Ebene 1
 62
   179
420
  1709851
370
    18
100
AcDbVertex
100
AcDb2dVertex
 10
70.10752087005993
 20
-134.6978935752665
 30
0.0
  0
SEQEND
  5
240
330
23D
100
AcDbEntity
  8
Ebene 1
370
    18
  0
POLYLINE
  5
241
330
FC
100
AcDbEntity
  8
Ebene 1
 62
   179
420
  1709851
370
    18
100
AcDb2dPolyline
 66
     1
 10
0.0
 20
0.0
 30
0.0
  0
VERTEX
  5
242
330
241
100
AcDbEntity
  8
Ebene 1
 62
   179
420
  1709851
370
    18
100
AcDbVertex
100
AcDb2dVertex
 10
69.34563800349693
 20
-136.496922437664
 30
0.0
  0
VERTEX
  5
243
330
241
100
AcDbEntity
  8
Ebene 1
 62
   179
420
  1709851
370
    18
100
AcDbVertex
100
AcDb2dVertex
 10
68.16018064702246
 20
-135.8196166652639
 30
0.0
  0
SEQEND
  5
244
330
241
100
AcDbEntity
  8
Ebene 1
370
    18
  0
POLYLINE
  5
245
330
FC
100
AcDbEntity
  8
Ebene 1
 62
   179
420
  1709851
370
    18
100
AcDb2dPolyline
 66
     1
 10
0.0
 20
0.0
 30
0.0
  0
VERTEX
  5
246
330
245
100
AcDbEntity
  8
Ebene 1
 62
   179
420
  1709851
370
    18
100
AcDbVertex
100
AcDb2dVertex
 10
68.35069442735677
 20
-138.9946166644701
 30
0.0
  0
VERTEX
  5
247
330
245
100
AcDbEntity
  8
Ebene 1
 62
   179
420
  1709851
370
    18
100
AcDbVertex
100
AcDb2dVertex
 10
67.18659666289085
 20
-138.33832597453
 30
0.0
  0
SEQEND
  5
248
330
245
100
AcDbEntity
  8
Ebene 1
370
    18
  0
POLYLINE
  5
249
330
FC
100
AcDbEntity
  8
Ebene 1
 62
   179
420
  1709851
370
    18
100
AcDb2dPolyline
 66
     1
 10
0.0
 20
0.0
 30
0.0
  0
VERTEX
  5
24A
330
249
100
AcDbEntity
  8
Ebene 1
 62
   179
420
  1709851
370
    18
100
AcDbVertex
100
AcDb2dVertex
 10
71.97028399893452
 20
-136.1369099594554
 30
0.0
  0
VERTEX
  5
24B
330
249
100
AcDbEntity
  8
Ebene 1
 62
   179
420
  1709851
370
    18
100
AcDbVertex
100
AcDb2dVertex
 10
71.67400578720303
 20
-135.7348673163267
 30
0.0
  0
VERTEX
  5
24C
330
249
100
AcDbEntity
  8
Ebene 1
 62
   179
420
  1709851
370
    18
100
AcDbVertex
100
AcDb2dVertex
 10
71.31416556376868
 20
-135.3962144301266
 30
0.0
  0
VERTEX
  5
24D
330
249
100
AcDbEntity
  8
Ebene 1
 62
   179
420
  1709851
370
    18
100
AcDbVertex
100
AcDb2dVertex
 10
71.2929782265344
 20
-135.3751993476666
 30
0.0
  0
SEQEND
  5
24E
330
249
100
AcDbEntity
  8
Ebene 1
370
    18
  0
POLYLINE
  5
24F
330
FC
100
AcDbEntity
  8
Ebene 1
 62
   179
420
  1709851
370
    18
100
AcDb2dPolyline
 66
     1
 10
0.0
 20
0.0
 30
0.0
  0
VERTEX
  5
250
330
24F
100
AcDbEntity
  8
Ebene 1
 62
   179
420
  1709851
370
    18
100
AcDbVertex
100
AcDb2dVertex
 10
69.34563800349693
 20
-140.3916028837389
 30
0.0
  0
VERTEX
  5
251
330
24F
100
AcDbEntity
  8
Ebene 1
 62
   179
420
  1709851
370
    18
100
AcDbVertex
100
AcDb2dVertex
 10
69.13393688592832
 20
-139.9258259741331
 30
0.0
  0
VERTEX
  5
252
330
24F
100
AcDbEntity
  8
Ebene 1
 62
   179
420
  1709851
370
    18
100
AcDbVertex
100
AcDb2dVertex
 10
68.87986109389115
 20
-139.5237833310045
 30
0.0
  0
VERTEX
  5
253
330
24F
100
AcDbEntity
  8
Ebene 1
 62
   179
420
  1709851
370
    18
100
AcDbVertex
100
AcDb2dVertex
 10
68.54120820769108
 20
-139.1427557703358
 30
0.0
  0
VERTEX
  5
254
330
24F
100
AcDbEntity
  8
Ebene 1
 62
   179
420
  1709851
370
    18
100
AcDbVertex
100
AcDb2dVertex
 10
68.35069442735677
 20
-138.9946166644701
 30
0.0
  0
VERTEX
  5
255
330
24F
100
AcDbEntity
  8
Ebene 1
 62
   179
420
  1709851
370
    18
100
AcDbVertex
100
AcDb2dVertex
 10
68.71053465079112
 20
-138.6135891038015
 30
0.0
  0
VERTEX
  5
256
330
24F
100
AcDbEntity
  8
Ebene 1
 62
   179
420
  1709851
370
    18
100
AcDbVertex
100
AcDb2dVertex
 10
68.98579778006258
 20
-138.1691717862042
 30
0.0
  0
VERTEX
  5
257
330
24F
100
AcDbEntity
  8
Ebene 1
 62
   179
420
  1709851
370
    18
100
AcDbVertex
100
AcDb2dVertex
 10
69.1763115603969
 20
-137.6823797941384
 30
0.0
  0
VERTEX
  5
258
330
24F
100
AcDbEntity
  8
Ebene 1
 62
   179
420
  1709851
370
    18
100
AcDbVertex
100
AcDb2dVertex
 10
69.30326332902835
 20
-137.1742282100641
 30
0.0
  0
VERTEX
  5
259
330
24F
100
AcDbEntity
  8
Ebene 1
 62
   179
420
  1709851
370
    18
100
AcDbVertex
100
AcDb2dVertex
 10
69.34563800349693
 20
-136.6660766259897
 30
0.0
  0
VERTEX
  5
25A
330
24F
100
AcDbEntity
  8
Ebene 1
 62
   179
420
  1709851
370
    18
100
AcDbVertex
100
AcDb2dVertex
 10
69.34563800349693
 20
-136.496922437664
 30
0.0
  0
VERTEX
  5
25B
330
24F
100
AcDbEntity
  8
Ebene 1
 62
   179
420
  1709851
370
    18
100
AcDbVertex
100
AcDb2dVertex
 10
69.79005532109416
 20
-136.4121730887268
 30
0.0
  0
VERTEX
  5
25C
330
24F
100
AcDbEntity
  8
Ebene 1
 62
   179
420
  1709851
370
    18
100
AcDbVertex
100
AcDb2dVertex
 10
70.23464489346564
 20
-136.2640339828611
 30
0.0
  0
VERTEX
  5
25D
330
24F
100
AcDbEntity
  8
Ebene 1
 62
   179
420
  1709851
370
    18
100
AcDbVertex
100
AcDb2dVertex
 10
70.63668753659431
 20
-136.0311455280582
 30
0.0
  0
VERTEX
  5
25E
330
24F
100
AcDbEntity
  8
Ebene 1
 62
   179
420
  1709851
370
    18
100
AcDbVertex
100
AcDb2dVertex
 10
70.97551267756863
 20
-135.7348673163267
 30
0.0
  0
VERTEX
  5
25F
330
24F
100
AcDbEntity
  8
Ebene 1
 62
   179
420
  1709851
370
    18
100
AcDbVertex
100
AcDb2dVertex
 10
71.2717908893001
 20
-135.3751993476666
 30
0.0
  0
VERTEX
  5
260
330
24F
100
AcDbEntity
  8
Ebene 1
 62
   179
420
  1709851
370
    18
100
AcDbVertex
100
AcDb2dVertex
 10
71.2929782265344
 20
-135.3751993476666
 30
0.0
  0
SEQEND
  5
261
330
24F
100
AcDbEntity
  8
Ebene 1
370
    18
  0
POLYLINE
  5
262
330
FC
100
AcDbEntity
  8
Ebene 1
 62
   179
420
  1709851
370
    18
100
AcDb2dPolyline
 66
     1
 10
0.0
 20
0.0
 30
0.0
  0
VERTEX
  5
263
330
262
100
AcDbEntity
  8
Ebene 1
 62
   179
420
  1709851
370
    18
100
AcDbVertex
100
AcDb2dVertex
 10
69.34563800349693
 20
-140.3916028837389
 30
0.0
  0
VERTEX
  5
264
330
262
100
AcDbEntity
  8
Ebene 1
 62
   179
420
  1709851
370
    18
100
AcDbVertex
100
AcDb2dVertex
 10
69.79005532109416
 20
-140.3068535348018
 30
0.0
  0
VERTEX
  5
265
330
262
100
AcDbEntity
  8
Ebene 1
 62
   179
420
  1709851
370
    18
100
AcDbVertex
100
AcDb2dVertex
 10
70.23464489346564
 20
-140.158714428936
 30
0.0
  0
VERTEX
  5
266
330
262
100
AcDbEntity
  8
Ebene 1
 62
   179
420
  1709851
370
    18
100
AcDbVertex
100
AcDb2dVertex
 10
70.50973576796285
 20
-140.0105753230703
 30
0.0
  0
SEQEND
  5
267
330
262
100
AcDbEntity
  8
Ebene 1
370
    18
  0
POLYLINE
  5
268
330
FC
100
AcDbEntity
  8
Ebene 1
 62
   179
420
  1709851
370
    18
100
AcDb2dPolyline
 66
     1
 10
0.0
 20
0.0
 30
0.0
  0
VERTEX
  5
269
330
268
100
AcDbEntity
  8
Ebene 1
 62
   179
420
  1709851
370
    18
100
AcDbVertex
100
AcDb2dVertex
 10
69.34563800349693
 20
-140.3916028837389
 30
0.0
  0
VERTEX
  5
26A
330
268
100
AcDbEntity
  8
Ebene 1
 62
   179
420
  1709851
370
    18
100
AcDbVertex
100
AcDb2dVertex
 10
68.16018064702246
 20
-139.7142971113388
 30
0.0
  0
SEQEND
  5
26B
330
268
100
AcDbEntity
  8
Ebene 1
370
    18
  0
POLYLINE
  5
26C
330
FC
100
AcDbEntity
  8
Ebene 1
 62
   179
420
  1709851
370
    18
100
AcDb2dPolyline
 66
     1
 10
0.0
 20
0.0
 30
0.0
  0
VERTEX
  5
26D
330
26C
100
AcDbEntity
  8
Ebene 1
 62
   179
420
  1709851
370
    18
100
AcDbVertex
100
AcDb2dVertex
 10
71.75858288136591
 20
-138.7193535351986
 30
0.0
  0
VERTEX
  5
26E
330
26C
100
AcDbEntity
  8
Ebene 1
 62
   179
420
  1709851
370
    18
100
AcDbVertex
100
AcDb2dVertex
 10
72.0126586734031
 20
-138.1901868686643
 30
0.0
  0
VERTEX
  5
26F
330
26C
100
AcDbEntity
  8
Ebene 1
 62
   179
420
  1709851
370
    18
100
AcDbVertex
100
AcDb2dVertex
 10
72.13961044203454
 20
-137.8305189000042
 30
0.0
  0
SEQEND
  5
270
330
26C
100
AcDbEntity
  8
Ebene 1
370
    18
  0
POLYLINE
  5
271
330
FC
100
AcDbEntity
  8
Ebene 1
 62
   179
420
  1709851
370
    18
100
AcDb2dPolyline
 66
     1
 10
0.0
 20
0.0
 30
0.0
  0
VERTEX
  5
272
330
271
100
AcDbEntity
  8
Ebene 1
 62
   179
420
  1709851
370
    18
100
AcDbVertex
100
AcDb2dVertex
 10
72.13961044203454
 20
-137.8305189000042
 30
0.0
  0
VERTEX
  5
273
330
271
100
AcDbEntity
  8
Ebene 1
 62
   179
420
  1709851
370
    18
100
AcDbVertex
100
AcDb2dVertex
 10
72.24537487343171
 20
-137.3647419903984
 30
0.0
  0
VERTEX
  5
274
330
271
100
AcDbEntity
  8
Ebene 1
 62
   179
420
  1709851
370
    18
100
AcDbVertex
100
AcDb2dVertex
 10
72.266562210666
 20
-137.0471041866584
 30
0.0
  0
SEQEND
  5
275
330
271
100
AcDbEntity
  8
Ebene 1
370
    18
  0
POLYLINE
  5
276
330
FC
100
AcDbEntity
  8
Ebene 1
 62
   179
420
  1709851
370
    18
100
AcDb2dPolyline
 66
     1
 10
0.0
 20
0.0
 30
0.0
  0
VERTEX
  5
277
330
276
100
AcDbEntity
  8
Ebene 1
 62
   179
420
  1709851
370
    18
100
AcDbVertex
100
AcDb2dVertex
 10
72.266562210666
 20
-137.0471041866584
 30
0.0
  0
VERTEX
  5
278
330
276
100
AcDbEntity
  8
Ebene 1
 62
   179
420
  1709851
370
    18
100
AcDbVertex
100
AcDb2dVertex
 10
72.22418753619743
 20
-136.6660766259897
 30
0.0
  0
VERTEX
  5
279
330
276
100
AcDbEntity
  8
Ebene 1
 62
   179
420
  1709851
370
    18
100
AcDbVertex
100
AcDb2dVertex
 10
72.09723576756598
 20
-136.3274237397897
 30
0.0
  0
SEQEND
  5
27A
330
276
100
AcDbEntity
  8
Ebene 1
370
    18
  0
POLYLINE
  5
27B
330
FC
100
AcDbEntity
  8
Ebene 1
 62
   179
420
  1709851
370
    18
100
AcDb2dPolyline
 66
     1
 10
0.0
 20
0.0
 30
0.0
  0
VERTEX
  5
27C
330
27B
100
AcDbEntity
  8
Ebene 1
 62
   179
420
  1709851
370
    18
100
AcDbVertex
100
AcDb2dVertex
 10
72.09723576756598
 20
-136.3274237397897
 30
0.0
  0
VERTEX
  5
27D
330
27B
100
AcDbEntity
  8
Ebene 1
 62
   179
420
  1709851
370
    18
100
AcDbVertex
100
AcDb2dVertex
 10
71.94909666170022
 20
-136.1158948769953
 30
0.0
  0
VERTEX
  5
27E
330
27B
100
AcDbEntity
  8
Ebene 1
 62
   179
420
  1709851
370
    18
100
AcDbVertex
100
AcDb2dVertex
 10
71.75858288136591
 20
-135.9677557711296
 30
0.0
  0
SEQEND
  5
27F
330
27B
100
AcDbEntity
  8
Ebene 1
370
    18
  0
POLYLINE
  5
280
330
FC
100
AcDbEntity
  8
Ebene 1
 62
   179
420
  1709851
370
    18
100
AcDb2dPolyline
 66
     1
 10
0.0
 20
0.0
 30
0.0
  0
VERTEX
  5
281
330
280
100
AcDbEntity
  8
Ebene 1
 62
   179
420
  1709851
370
    18
100
AcDbVertex
100
AcDb2dVertex
 10
71.75858288136591
 20
-135.9677557711296
 30
0.0
  0
VERTEX
  5
282
330
280
100
AcDbEntity
  8
Ebene 1
 62
   179
420
  1709851
370
    18
100
AcDbVertex
100
AcDb2dVertex
 10
71.52569442656302
 20
-135.8619913397324
 30
0.0
  0
VERTEX
  5
283
330
280
100
AcDbEntity
  8
Ebene 1
 62
   179
420
  1709851
370
    18
100
AcDbVertex
100
AcDb2dVertex
 10
71.2717908893001
 20
-135.8619913397324
 30
0.0
  0
SEQEND
  5
284
330
280
100
AcDbEntity
  8
Ebene 1
370
    18
  0
POLYLINE
  5
285
330
FC
100
AcDbEntity
  8
Ebene 1
 62
   179
420
  1709851
370
    18
100
AcDb2dPolyline
 66
     1
 10
0.0
 20
0.0
 30
0.0
  0
VERTEX
  5
286
330
285
100
AcDbEntity
  8
Ebene 1
 62
   179
420
  1709851
370
    18
100
AcDbVertex
100
AcDb2dVertex
 10
71.2717908893001
 20
-135.8619913397324
 30
0.0
  0
VERTEX
  5
287
330
285
100
AcDbEntity
  8
Ebene 1
 62
   179
420
  1709851
370
    18
100
AcDbVertex
100
AcDb2dVertex
 10
70.89076332863148
 20
-135.925381096661
 30
0.0
  0
VERTEX
  5
288
330
285
100
AcDbEntity
  8
Ebene 1
 62
   179
420
  1709851
370
    18
100
AcDbVertex
100
AcDb2dVertex
 10
70.57329777966571
 20
-136.0735202025268
 30
0.0
  0
SEQEND
  5
289
330
285
100
AcDbEntity
  8
Ebene 1
370
    18
  0
POLYLINE
  5
28A
330
FC
100
AcDbEntity
  8
Ebene 1
 62
   179
420
  1709851
370
    18
100
AcDb2dPolyline
 66
     1
 10
0.0
 20
0.0
 30
0.0
  0
VERTEX
  5
28B
330
28A
100
AcDbEntity
  8
Ebene 1
 62
   179
420
  1709851
370
    18
100
AcDbVertex
100
AcDb2dVertex
 10
70.57329777966571
 20
-136.0735202025268
 30
0.0
  0
VERTEX
  5
28C
330
28A
100
AcDbEntity
  8
Ebene 1
 62
   179
420
  1709851
370
    18
100
AcDbVertex
100
AcDb2dVertex
 10
70.17108288176279
 20
-136.3487833317982
 30
0.0
  0
VERTEX
  5
28D
330
28A
100
AcDbEntity
  8
Ebene 1
 62
   179
420
  1709851
370
    18
100
AcDbVertex
100
AcDb2dVertex
 10
69.95938176419419
 20
-136.5603121945926
 30
0.0
  0
SEQEND
  5
28E
330
28A
100
AcDbEntity
  8
Ebene 1
370
    18
  0
POLYLINE
  5
28F
330
FC
100
AcDbEntity
  8
Ebene 1
 62
   179
420
  1709851
370
    18
100
AcDb2dPolyline
 66
     1
 10
0.0
 20
0.0
 30
0.0
  0
VERTEX
  5
290
330
28F
100
AcDbEntity
  8
Ebene 1
 62
   179
420
  1709851
370
    18
100
AcDbVertex
100
AcDb2dVertex
 10
69.95938176419419
 20
-136.5603121945926
 30
0.0
  0
VERTEX
  5
291
330
28F
100
AcDbEntity
  8
Ebene 1
 62
   179
420
  1709851
370
    18
100
AcDbVertex
100
AcDb2dVertex
 10
69.57835420352555
 20
-137.0260891041983
 30
0.0
  0
VERTEX
  5
292
330
28F
100
AcDbEntity
  8
Ebene 1
 62
   179
420
  1709851
370
    18
100
AcDbVertex
100
AcDb2dVertex
 10
69.36682534073121
 20
-137.3437269079384
 30
0.0
  0
SEQEND
  5
293
330
28F
100
AcDbEntity
  8
Ebene 1
370
    18
  0
POLYLINE
  5
294
330
FC
100
AcDbEntity
  8
Ebene 1
 62
   179
420
  1709851
370
    18
100
AcDb2dPolyline
 66
     1
 10
0.0
 20
0.0
 30
0.0
  0
VERTEX
  5
295
330
294
100
AcDbEntity
  8
Ebene 1
 62
   179
420
  1709851
370
    18
100
AcDbVertex
100
AcDb2dVertex
 10
69.36682534073121
 20
-137.3437269079384
 30
0.0
  0
VERTEX
  5
296
330
294
100
AcDbEntity
  8
Ebene 1
 62
   179
420
  1709851
370
    18
100
AcDbVertex
100
AcDb2dVertex
 10
69.11274954869404
 20
-137.8728935744728
 30
0.0
  0
VERTEX
  5
297
330
294
100
AcDbEntity
  8
Ebene 1
 62
   179
420
  1709851
370
    18
100
AcDbVertex
100
AcDb2dVertex
 10
68.98579778006258
 20
-138.2325615431328
 30
0.0
  0
SEQEND
  5
298
330
294
100
AcDbEntity
  8
Ebene 1
370
    18
  0
POLYLINE
  5
299
330
FC
100
AcDbEntity
  8
Ebene 1
 62
   179
420
  1709851
370
    18
100
AcDb2dPolyline
 66
     1
 10
0.0
 20
0.0
 30
0.0
  0
VERTEX
  5
29A
330
299
100
AcDbEntity
  8
Ebene 1
 62
   179
420
  1709851
370
    18
100
AcDbVertex
100
AcDb2dVertex
 10
68.98579778006258
 20
-138.2325615431328
 30
0.0
  0
VERTEX
  5
29B
330
299
100
AcDbEntity
  8
Ebene 1
 62
   179
420
  1709851
370
    18
100
AcDbVertex
100
AcDb2dVertex
 10
68.90104843112543
 20
-138.6983384527386
 30
0.0
  0
VERTEX
  5
29C
330
299
100
AcDbEntity
  8
Ebene 1
 62
   179
420
  1709851
370
    18
100
AcDbVertex
100
AcDb2dVertex
 10
68.87986109389115
 20
-138.9946166644701
 30
0.0
  0
SEQEND
  5
29D
330
299
100
AcDbEntity
  8
Ebene 1
370
    18
  0
POLYLINE
  5
29E
330
FC
100
AcDbEntity
  8
Ebene 1
 62
   179
420
  1709851
370
    18
100
AcDb2dPolyline
 66
     1
 10
0.0
 20
0.0
 30
0.0
  0
VERTEX
  5
29F
330
29E
100
AcDbEntity
  8
Ebene 1
 62
   179
420
  1709851
370
    18
100
AcDbVertex
100
AcDb2dVertex
 10
68.87986109389115
 20
-138.9946166644701
 30
0.0
  0
VERTEX
  5
2A0
330
29E
100
AcDbEntity
  8
Ebene 1
 62
   179
420
  1709851
370
    18
100
AcDbVertex
100
AcDb2dVertex
 10
68.92223576835973
 20
-139.3756442251387
 30
0.0
  0
VERTEX
  5
2A1
330
29E
100
AcDbEntity
  8
Ebene 1
 62
   179
420
  1709851
370
    18
100
AcDbVertex
100
AcDb2dVertex
 10
69.02817245453116
 20
-139.7142971113388
 30
0.0
  0
SEQEND
  5
2A2
330
29E
100
AcDbEntity
  8
Ebene 1
370
    18
  0
POLYLINE
  5
2A3
330
FC
100
AcDbEntity
  8
Ebene 1
 62
   179
420
  1709851
370
    18
100
AcDb2dPolyline
 66
     1
 10
0.0
 20
0.0
 30
0.0
  0
VERTEX
  5
2A4
330
2A3
100
AcDbEntity
  8
Ebene 1
 62
   179
420
  1709851
370
    18
100
AcDbVertex
100
AcDb2dVertex
 10
69.02817245453116
 20
-139.7142971113388
 30
0.0
  0
VERTEX
  5
2A5
330
2A3
100
AcDbEntity
  8
Ebene 1
 62
   179
420
  1709851
370
    18
100
AcDbVertex
100
AcDb2dVertex
 10
69.1763115603969
 20
-139.9471855661417
 30
0.0
  0
VERTEX
  5
2A6
330
2A3
100
AcDbEntity
  8
Ebene 1
 62
   179
420
  1709851
370
    18
100
AcDbVertex
100
AcDb2dVertex
 10
69.36682534073121
 20
-140.0953246720074
 30
0.0
  0
SEQEND
  5
2A7
330
2A3
100
AcDbEntity
  8
Ebene 1
370
    18
  0
POLYLINE
  5
2A8
330
FC
100
AcDbEntity
  8
Ebene 1
 62
   179
420
  1709851
370
    18
100
AcDb2dPolyline
 66
     1
 10
0.0
 20
0.0
 30
0.0
  0
VERTEX
  5
2A9
330
2A8
100
AcDbEntity
  8
Ebene 1
 62
   179
420
  1709851
370
    18
100
AcDbVertex
100
AcDb2dVertex
 10
69.36682534073121
 20
-140.0953246720074
 30
0.0
  0
VERTEX
  5
2AA
330
2A8
100
AcDbEntity
  8
Ebene 1
 62
   179
420
  1709851
370
    18
100
AcDbVertex
100
AcDb2dVertex
 10
69.62072887799413
 20
-140.179729511396
 30
0.0
  0
VERTEX
  5
2AB
330
2A8
100
AcDbEntity
  8
Ebene 1
 62
   179
420
  1709851
370
    18
100
AcDbVertex
100
AcDb2dVertex
 10
69.8748046700313
 20
-140.2010891034046
 30
0.0
  0
SEQEND
  5
2AC
330
2A8
100
AcDbEntity
  8
Ebene 1
370
    18
  0
POLYLINE
  5
2AD
330
FC
100
AcDbEntity
  8
Ebene 1
 62
   179
420
  1709851
370
    18
100
AcDb2dPolyline
 66
     1
 10
0.0
 20
0.0
 30
0.0
  0
VERTEX
  5
2AE
330
2AD
100
AcDbEntity
  8
Ebene 1
 62
   179
420
  1709851
370
    18
100
AcDbVertex
100
AcDb2dVertex
 10
69.8748046700313
 20
-140.2010891034046
 30
0.0
  0
VERTEX
  5
2AF
330
2AD
100
AcDbEntity
  8
Ebene 1
 62
   179
420
  1709851
370
    18
100
AcDbVertex
100
AcDb2dVertex
 10
70.25583223069994
 20
-140.1163397544674
 30
0.0
  0
VERTEX
  5
2B0
330
2AD
100
AcDbEntity
  8
Ebene 1
 62
   179
420
  1709851
370
    18
100
AcDbVertex
100
AcDb2dVertex
 10
70.57329777966571
 20
-139.9682006486017
 30
0.0
  0
SEQEND
  5
2B1
330
2AD
100
AcDbEntity
  8
Ebene 1
370
    18
  0
POLYLINE
  5
2B2
330
FC
100
AcDbEntity
  8
Ebene 1
 62
   179
420
  1709851
370
    18
100
AcDb2dPolyline
 66
     1
 10
0.0
 20
0.0
 30
0.0
  0
VERTEX
  5
2B3
330
2B2
100
AcDbEntity
  8
Ebene 1
 62
   179
420
  1709851
370
    18
100
AcDbVertex
100
AcDb2dVertex
 10
70.57329777966571
 20
-139.9682006486017
 30
0.0
  0
VERTEX
  5
2B4
330
2B2
100
AcDbEntity
  8
Ebene 1
 62
   179
420
  1709851
370
    18
100
AcDbVertex
100
AcDb2dVertex
 10
70.95432534033434
 20
-139.6929375193303
 30
0.0
  0
VERTEX
  5
2B5
330
2B2
100
AcDbEntity
  8
Ebene 1
 62
   179
420
  1709851
370
    18
100
AcDbVertex
100
AcDb2dVertex
 10
71.18704154036297
 20
-139.4814086565359
 30
0.0
  0
SEQEND
  5
2B6
330
2B2
100
AcDbEntity
  8
Ebene 1
370
    18
  0
POLYLINE
  5
2B7
330
FC
100
AcDbEntity
  8
Ebene 1
 62
   179
420
  1709851
370
    18
100
AcDb2dPolyline
 66
     1
 10
0.0
 20
0.0
 30
0.0
  0
VERTEX
  5
2B8
330
2B7
100
AcDbEntity
  8
Ebene 1
 62
   179
420
  1709851
370
    18
100
AcDbVertex
100
AcDb2dVertex
 10
71.18704154036297
 20
-139.4814086565359
 30
0.0
  0
VERTEX
  5
2B9
330
2B7
100
AcDbEntity
  8
Ebene 1
 62
   179
420
  1709851
370
    18
100
AcDbVertex
100
AcDb2dVertex
 10
71.5680691010316
 20
-139.0369913389387
 30
0.0
  0
VERTEX
  5
2BA
330
2B7
100
AcDbEntity
  8
Ebene 1
 62
   179
420
  1709851
370
    18
100
AcDbVertex
100
AcDb2dVertex
 10
71.75858288136591
 20
-138.7193535351986
 30
0.0
  0
SEQEND
  5
2BB
330
2B7
100
AcDbEntity
  8
Ebene 1
370
    18
  0
POLYLINE
  5
2BC
330
FC
100
AcDbEntity
  8
Ebene 1
 62
   179
420
  1709851
370
    18
100
AcDb2dPolyline
 66
     1
 10
0.0
 20
0.0
 30
0.0
  0
VERTEX
  5
2BD
330
2BC
100
AcDbEntity
  8
Ebene 1
 62
   179
420
  1709851
370
    18
100
AcDbVertex
100
AcDb2dVertex
 10
71.2717908893001
 20
-135.3538397556581
 30
0.0
  0
VERTEX
  5
2BE
330
2BC
100
AcDbEntity
  8
Ebene 1
 62
   179
420
  1709851
370
    18
100
AcDbVertex
100
AcDb2dVertex
 10
71.10246444620009
 20
-135.0365464614666
 30
0.0
  0
VERTEX
  5
2BF
330
2BC
100
AcDbEntity
  8
Ebene 1
 62
   179
420
  1709851
370
    18
100
AcDbVertex
100
AcDb2dVertex
 10
70.8695759913972
 20
-134.7822984146551
 30
0.0
  0
VERTEX
  5
2C0
330
2BC
100
AcDbEntity
  8
Ebene 1
 62
   179
420
  1709851
370
    18
100
AcDbVertex
100
AcDb2dVertex
 10
70.57329777966571
 20
-134.5707695518608
 30
0.0
  0
VERTEX
  5
2C1
330
2BC
100
AcDbEntity
  8
Ebene 1
 62
   179
420
  1709851
370
    18
100
AcDbVertex
100
AcDb2dVertex
 10
70.23464489346564
 20
-134.4436455284551
 30
0.0
  0
VERTEX
  5
2C2
330
2BC
100
AcDbEntity
  8
Ebene 1
 62
   179
420
  1709851
370
    18
100
AcDbVertex
100
AcDb2dVertex
 10
69.89599200726559
 20
-134.3802557715265
 30
0.0
  0
VERTEX
  5
2C3
330
2BC
100
AcDbEntity
  8
Ebene 1
 62
   179
420
  1709851
370
    18
100
AcDbVertex
100
AcDb2dVertex
 10
69.53615178383124
 20
-134.4226304459951
 30
0.0
  0
VERTEX
  5
2C4
330
2BC
100
AcDbEntity
  8
Ebene 1
 62
   179
420
  1709851
370
    18
100
AcDbVertex
100
AcDb2dVertex
 10
69.19749889763118
 20
-134.5494099598522
 30
0.0
  0
VERTEX
  5
2C5
330
2BC
100
AcDbEntity
  8
Ebene 1
 62
   179
420
  1709851
370
    18
100
AcDbVertex
100
AcDb2dVertex
 10
69.11274954869404
 20
-134.5917846343208
 30
0.0
  0
SEQEND
  5
2C6
330
2BC
100
AcDbEntity
  8
Ebene 1
370
    18
  0
POLYLINE
  5
2C7
330
FC
100
AcDbEntity
  8
Ebene 1
 62
   179
420
  1709851
370
    18
100
AcDb2dPolyline
 66
     1
 10
0.0
 20
0.0
 30
0.0
  0
VERTEX
  5
2C8
330
2C7
100
AcDbEntity
  8
Ebene 1
 62
   179
420
  1709851
370
    18
100
AcDbVertex
100
AcDb2dVertex
 10
70.12870820729421
 20
-134.3168660145979
 30
0.0
  0
VERTEX
  5
2C9
330
2C7
100
AcDbEntity
  8
Ebene 1
 62
   179
420
  1709851
370
    18
100
AcDbVertex
100
AcDb2dVertex
 10
69.81124265832844
 20
-134.1687269087321
 30
0.0
  0
VERTEX
  5
2CA
330
2C7
100
AcDbEntity
  8
Ebene 1
 62
   179
420
  1709851
370
    18
100
AcDbVertex
100
AcDb2dVertex
 10
69.45140243489409
 20
-134.104992642255
 30
0.0
  0
VERTEX
  5
2CB
330
2C7
100
AcDbEntity
  8
Ebene 1
 62
   179
420
  1709851
370
    18
100
AcDbVertex
100
AcDb2dVertex
 10
69.09156221145975
 20
-134.1263522342635
 30
0.0
  0
VERTEX
  5
2CC
330
2C7
100
AcDbEntity
  8
Ebene 1
 62
   179
420
  1709851
370
    18
100
AcDbVertex
100
AcDb2dVertex
 10
68.7529093252597
 20
-134.2531317481208
 30
0.0
  0
VERTEX
  5
2CD
330
2C7
100
AcDbEntity
  8
Ebene 1
 62
   179
420
  1709851
370
    18
100
AcDbVertex
100
AcDb2dVertex
 10
68.62595755662824
 20
-134.3168660145979
 30
0.0
  0
SEQEND
  5
2CE
330
2C7
100
AcDbEntity
  8
Ebene 1
370
    18
  0
POLYLINE
  5
2CF
330
FC
100
AcDbEntity
  8
Ebene 1
 62
   179
420
  1709851
370
    18
100
AcDb2dPolyline
 66
     1
 10
0.0
 20
0.0
 30
0.0
  0
VERTEX
  5
2D0
330
2CF
100
AcDbEntity
  8
Ebene 1
 62
   179
420
  1709851
370
    18
100
AcDbVertex
100
AcDb2dVertex
 10
67.14422198842229
 20
-139.4814086565359
 30
0.0
  0
VERTEX
  5
2D1
330
2CF
100
AcDbEntity
  8
Ebene 1
 62
   179
420
  1709851
370
    18
100
AcDbVertex
100
AcDb2dVertex
 10
67.63101398048808
 20
-139.7566717858074
 30
0.0
  0
VERTEX
  5
2D2
330
2CF
100
AcDbEntity
  8
Ebene 1
 62
   179
420
  1709851
370
    18
100
AcDbVertex
100
AcDb2dVertex
 10
67.94865178422812
 20
-139.9048108916731
 30
0.0
  0
VERTEX
  5
2D3
330
2CF
100
AcDbEntity
  8
Ebene 1
 62
   179
420
  1709851
370
    18
100
AcDbVertex
100
AcDb2dVertex
 10
68.30849200766247
 20
-139.9682006486017
 30
0.0
  0
VERTEX
  5
2D4
330
2CF
100
AcDbEntity
  8
Ebene 1
 62
   179
420
  1709851
370
    18
100
AcDbVertex
100
AcDb2dVertex
 10
68.58358288215966
 20
-139.9471855661417
 30
0.0
  0
SEQEND
  5
2D5
330
2CF
100
AcDbEntity
  8
Ebene 1
370
    18
  0
POLYLINE
  5
2D6
330
FC
100
AcDbEntity
  8
Ebene 1
 62
   179
420
  1709851
370
    18
100
AcDb2dPolyline
 66
     1
 10
0.0
 20
0.0
 30
0.0
  0
VERTEX
  5
2D7
330
2D6
100
AcDbEntity
  8
Ebene 1
 62
   179
420
  1709851
370
    18
100
AcDbVertex
100
AcDb2dVertex
 10
70.12870820729421
 20
-134.3168660145979
 30
0.0
  0
VERTEX
  5
2D8
330
2D6
100
AcDbEntity
  8
Ebene 1
 62
   179
420
  1709851
370
    18
100
AcDbVertex
100
AcDb2dVertex
 10
70.61567245413428
 20
-134.5917846343208
 30
0.0
  0
SEQEND
  5
2D9
330
2D6
100
AcDbEntity
  8
Ebene 1
370
    18
  0
POLYLINE
  5
2DA
330
FC
100
AcDbEntity
  8
Ebene 1
 62
   179
420
  1709851
370
    18
100
AcDb2dPolyline
 66
     1
 10
0.0
 20
0.0
 30
0.0
  0
VERTEX
  5
2DB
330
2DA
100
AcDbEntity
  8
Ebene 1
 62
   179
420
  1709851
370
    18
100
AcDbVertex
100
AcDb2dVertex
 10
68.16018064702246
 20
-135.8196166652639
 30
0.0
  0
VERTEX
  5
2DC
330
2DA
100
AcDbEntity
  8
Ebene 1
 62
   179
420
  1709851
370
    18
100
AcDbVertex
100
AcDb2dVertex
 10
70.06531845036562
 20
-134.7189086577265
 30
0.0
  0
SEQEND
  5
2DD
330
2DA
100
AcDbEntity
  8
Ebene 1
370
    18
  0
POLYLINE
  5
2DE
330
FC
100
AcDbEntity
  8
Ebene 1
 62
   179
420
  1709851
370
    18
100
AcDb2dPolyline
 66
     1
 10
0.0
 20
0.0
 30
0.0
  0
VERTEX
  5
2DF
330
2DE
100
AcDbEntity
  8
Ebene 1
 62
   179
420
  1709851
370
    18
100
AcDbVertex
100
AcDb2dVertex
 10
68.62595755662824
 20
-134.3168660145979
 30
0.0
  0
VERTEX
  5
2E0
330
2DE
100
AcDbEntity
  8
Ebene 1
 62
   179
420
  1709851
370
    18
100
AcDbVertex
100
AcDb2dVertex
 10
68.11797822732815
 20
-134.6555189007979
 30
0.0
  0
VERTEX
  5
2E1
330
2DE
100
AcDbEntity
  8
Ebene 1
 62
   179
420
  1709851
370
    18
100
AcDbVertex
100
AcDb2dVertex
 10
67.67338865495665
 20
-135.0575615439266
 30
0.0
  0
VERTEX
  5
2E2
330
2DE
100
AcDbEntity
  8
Ebene 1
 62
   179
420
  1709851
370
    18
100
AcDbVertex
100
AcDb2dVertex
 10
67.271346011828
 20
-135.5233384535324
 30
0.0
  0
VERTEX
  5
2E3
330
2DE
100
AcDbEntity
  8
Ebene 1
 62
   179
420
  1709851
370
    18
100
AcDbVertex
100
AcDb2dVertex
 10
66.93252087085368
 20
-136.0525051200667
 30
0.0
  0
VERTEX
  5
2E4
330
2DE
100
AcDbEntity
  8
Ebene 1
 62
   179
420
  1709851
370
    18
100
AcDbVertex
100
AcDb2dVertex
 10
66.67861733359076
 20
-136.6026868690611
 30
0.0
  0
VERTEX
  5
2E5
330
2DE
100
AcDbEntity
  8
Ebene 1
 62
   179
420
  1709851
370
    18
100
AcDbVertex
100
AcDb2dVertex
 10
66.50929089049073
 20
-137.1952432925241
 30
0.0
  0
VERTEX
  5
2E6
330
2DE
100
AcDbEntity
  8
Ebene 1
 62
   179
420
  1709851
370
    18
100
AcDbVertex
100
AcDb2dVertex
 10
66.4033542043193
 20
-137.8091593079956
 30
0.0
  0
VERTEX
  5
2E7
330
2DE
100
AcDbEntity
  8
Ebene 1
 62
   179
420
  1709851
370
    18
100
AcDbVertex
100
AcDb2dVertex
 10
66.4033542043193
 20
-138.1901868686643
 30
0.0
  0
VERTEX
  5
2E8
330
2DE
100
AcDbEntity
  8
Ebene 1
 62
   179
420
  1709851
370
    18
100
AcDbVertex
100
AcDb2dVertex
 10
66.44572887878788
 20
-138.5501993468729
 30
0.0
  0
VERTEX
  5
2E9
330
2DE
100
AcDbEntity
  8
Ebene 1
 62
   179
420
  1709851
370
    18
100
AcDbVertex
100
AcDb2dVertex
 10
66.55166556495931
 20
-138.8674926410644
 30
0.0
  0
VERTEX
  5
2EA
330
2DE
100
AcDbEntity
  8
Ebene 1
 62
   179
420
  1709851
370
    18
100
AcDbVertex
100
AcDb2dVertex
 10
66.76319442775365
 20
-139.1637708527959
 30
0.0
  0
VERTEX
  5
2EB
330
2DE
100
AcDbEntity
  8
Ebene 1
 62
   179
420
  1709851
370
    18
100
AcDbVertex
100
AcDb2dVertex
 10
67.01727021979083
 20
-139.3966593075988
 30
0.0
  0
VERTEX
  5
2EC
330
2DE
100
AcDbEntity
  8
Ebene 1
 62
   179
420
  1709851
370
    18
100
AcDbVertex
100
AcDb2dVertex
 10
67.14422198842229
 20
-139.4814086565359
 30
0.0
  0
SEQEND
  5
2ED
330
2DE
100
AcDbEntity
  8
Ebene 1
370
    18
  0
POLYLINE
  5
2EE
330
FC
100
AcDbEntity
  8
Ebene 1
 62
   179
420
  1709851
370
    18
100
AcDb2dPolyline
 66
     1
 10
0.0
 20
0.0
 30
0.0
  0
VERTEX
  5
2EF
330
2EE
100
AcDbEntity
  8
Ebene 1
 62
   179
420
  1709851
370
    18
100
AcDbVertex
100
AcDb2dVertex
 10
69.11274954869404
 20
-134.5917846343208
 30
0.0
  0
VERTEX
  5
2F0
330
2EE
100
AcDbEntity
  8
Ebene 1
 62
   179
420
  1709851
370
    18
100
AcDbVertex
100
AcDb2dVertex
 10
68.60477021939396
 20
-134.9304375205209
 30
0.0
  0
VERTEX
  5
2F1
330
2EE
100
AcDbEntity
  8
Ebene 1
 62
   179
420
  1709851
370
    18
100
AcDbVertex
100
AcDb2dVertex
 10
68.16018064702246
 20
-135.3538397556581
 30
0.0
  0
VERTEX
  5
2F2
330
2EE
100
AcDbEntity
  8
Ebene 1
 62
   179
420
  1709851
370
    18
100
AcDbVertex
100
AcDb2dVertex
 10
67.7581380038938
 20
-135.8196166652639
 30
0.0
  0
VERTEX
  5
2F3
330
2EE
100
AcDbEntity
  8
Ebene 1
 62
   179
420
  1709851
370
    18
100
AcDbVertex
100
AcDb2dVertex
 10
67.41948511769374
 20
-136.3274237397897
 30
0.0
  0
VERTEX
  5
2F4
330
2EE
100
AcDbEntity
  8
Ebene 1
 62
   179
420
  1709851
370
    18
100
AcDbVertex
100
AcDb2dVertex
 10
67.16540932565657
 20
-136.8989650807926
 30
0.0
  0
VERTEX
  5
2F5
330
2EE
100
AcDbEntity
  8
Ebene 1
 62
   179
420
  1709851
370
    18
100
AcDbVertex
100
AcDb2dVertex
 10
66.99608288255654
 20
-137.4918660138041
 30
0.0
  0
VERTEX
  5
2F6
330
2EE
100
AcDbEntity
  8
Ebene 1
 62
   179
420
  1709851
370
    18
100
AcDbVertex
100
AcDb2dVertex
 10
66.89031845115937
 20
-138.0844224372671
 30
0.0
  0
VERTEX
  5
2F7
330
2EE
100
AcDbEntity
  8
Ebene 1
 62
   179
420
  1709851
370
    18
100
AcDbVertex
100
AcDb2dVertex
 10
66.89031845115937
 20
-138.4654499979357
 30
0.0
  0
VERTEX
  5
2F8
330
2EE
100
AcDbEntity
  8
Ebene 1
 62
   179
420
  1709851
370
    18
100
AcDbVertex
100
AcDb2dVertex
 10
66.93252087085368
 20
-138.8251179665958
 30
0.0
  0
VERTEX
  5
2F9
330
2EE
100
AcDbEntity
  8
Ebene 1
 62
   179
420
  1709851
370
    18
100
AcDbVertex
100
AcDb2dVertex
 10
67.03845755702511
 20
-139.1637708527959
 30
0.0
  0
VERTEX
  5
2FA
330
2EE
100
AcDbEntity
  8
Ebene 1
 62
   179
420
  1709851
370
    18
100
AcDbVertex
100
AcDb2dVertex
 10
67.25015867459372
 20
-139.4603935740759
 30
0.0
  0
VERTEX
  5
2FB
330
2EE
100
AcDbEntity
  8
Ebene 1
 62
   179
420
  1709851
370
    18
100
AcDbVertex
100
AcDb2dVertex
 10
67.50406221185662
 20
-139.6929375193303
 30
0.0
  0
VERTEX
  5
2FC
330
2EE
100
AcDbEntity
  8
Ebene 1
 62
   179
420
  1709851
370
    18
100
AcDbVertex
100
AcDb2dVertex
 10
67.63101398048808
 20
-139.7566717858074
 30
0.0
  0
SEQEND
  5
2FD
330
2EE
100
AcDbEntity
  8
Ebene 1
370
    18
  0
POLYLINE
  5
2FE
330
FC
100
AcDbEntity
  8
Ebene 1
 62
   179
420
  1709851
370
    18
100
AcDb2dPolyline
 66
     1
 10
0.0
 20
0.0
 30
0.0
  0
VERTEX
  5
2FF
330
2FE
100
AcDbEntity
  8
Ebene 1
 62
   179
420
  1709851
370
    18
100
AcDbVertex
100
AcDb2dVertex
 10
63.96922198921603
 20
-105.0855753318015
 30
0.0
  0
VERTEX
  5
300
330
2FE
100
AcDbEntity
  8
Ebene 1
 62
   179
420
  1709851
370
    18
100
AcDbVertex
100
AcDb2dVertex
 10
63.96922198921603
 20
-145.0907131256197
 30
0.0
  0
SEQEND
  5
301
330
2FE
100
AcDbEntity
  8
Ebene 1
370
    18
  0
POLYLINE
  5
302
330
FC
100
AcDbEntity
  8
Ebene 1
 62
   179
420
  1709851
370
    18
100
AcDb2dPolyline
 66
     1
 10
0.0
 20
0.0
 30
0.0
  0
VERTEX
  5
303
330
302
100
AcDbEntity
  8
Ebene 1
 62
   179
420
  1709851
370
    18
100
AcDbVertex
100
AcDb2dVertex
 10
63.96922198921603
 20
-145.0907131256197
 30
0.0
  0
VERTEX
  5
304
330
302
100
AcDbEntity
  8
Ebene 1
 62
   179
420
  1709851
370
    18
100
AcDbVertex
100
AcDb2dVertex
 10
64.62551267915613
 20
-145.4503810942798
 30
0.0
  0
SEQEND
  5
305
330
302
100
AcDbEntity
  8
Ebene 1
370
    18
  0
POLYLINE
  5
306
330
FC
100
AcDbEntity
  8
Ebene 1
 62
   179
420
  1709851
370
    18
100
AcDb2dPolyline
 66
     1
 10
0.0
 20
0.0
 30
0.0
  0
VERTEX
  5
307
330
306
100
AcDbEntity
  8
Ebene 1
 62
   179
420
  1709851
370
    18
100
AcDbVertex
100
AcDb2dVertex
 10
64.62551267915613
 20
-105.4666028924702
 30
0.0
  0
VERTEX
  5
308
330
306
100
AcDbEntity
  8
Ebene 1
 62
   179
420
  1709851
370
    18
100
AcDbVertex
100
AcDb2dVertex
 10
64.62551267915613
 20
-145.4503810942798
 30
0.0
  0
SEQEND
  5
309
330
306
100
AcDbEntity
  8
Ebene 1
370
    18
  0
POLYLINE
  5
30A
330
FC
100
AcDbEntity
  8
Ebene 1
 62
   179
420
  1709851
370
    18
100
AcDb2dPolyline
 66
     1
 10
0.0
 20
0.0
 30
0.0
  0
VERTEX
  5
30B
330
30A
100
AcDbEntity
  8
Ebene 1
 62
   179
420
  1709851
370
    18
100
AcDbVertex
100
AcDb2dVertex
 10
64.62551267915613
 20
-145.4503810942798
 30
0.0
  0
VERTEX
  5
30C
330
30A
100
AcDbEntity
  8
Ebene 1
 62
   179
420
  1709851
370
    18
100
AcDbVertex
100
AcDb2dVertex
 10
72.64758977133464
 20
-140.8360202013361
 30
0.0
  0
SEQEND
  5
30D
330
30A
100
AcDbEntity
  8
Ebene 1
370
    18
  0
POLYLINE
  5
30E
330
FC
100
AcDbEntity
  8
Ebene 1
 62
   179
420
  1709851
370
    18
100
AcDb2dPolyline
 66
     1
 10
0.0
 20
0.0
 30
0.0
  0
VERTEX
  5
30F
330
30E
100
AcDbEntity
  8
Ebene 1
 62
   179
420
  1709851
370
    18
100
AcDbVertex
100
AcDb2dVertex
 10
72.64758977133464
 20
-100.8312269170665
 30
0.0
  0
VERTEX
  5
310
330
30E
100
AcDbEntity
  8
Ebene 1
 62
   179
420
  1709851
370
    18
100
AcDbVertex
100
AcDb2dVertex
 10
64.62551267915613
 20
-105.4666028924702
 30
0.0
  0
SEQEND
  5
311
330
30E
100
AcDbEntity
  8
Ebene 1
370
    18
  0
POLYLINE
  5
312
330
FC
100
AcDbEntity
  8
Ebene 1
 62
   179
420
  1709851
370
    18
100
AcDb2dPolyline
 66
     1
 10
0.0
 20
0.0
 30
0.0
  0
VERTEX
  5
313
330
312
100
AcDbEntity
  8
Ebene 1
 62
   179
420
  1709851
370
    18
100
AcDbVertex
100
AcDb2dVertex
 10
72.64758977133464
 20
-100.8312269170665
 30
0.0
  0
VERTEX
  5
314
330
312
100
AcDbEntity
  8
Ebene 1
 62
   179
420
  1709851
370
    18
100
AcDbVertex
100
AcDb2dVertex
 10
72.64758977133464
 20
-140.8360202013361
 30
0.0
  0
SEQEND
  5
315
330
312
100
AcDbEntity
  8
Ebene 1
370
    18
  0
POLYLINE
  5
316
330
FC
100
AcDbEntity
  8
Ebene 1
 62
   179
420
  1709851
370
    18
100
AcDb2dPolyline
 66
     1
 10
0.0
 20
0.0
 30
0.0
  0
VERTEX
  5
317
330
316
100
AcDbEntity
  8
Ebene 1
 62
   179
420
  1709851
370
    18
100
AcDbVertex
100
AcDb2dVertex
 10
83.88704153718797
 20
-103.5828246811355
 30
0.0
  0
VERTEX
  5
318
330
316
100
AcDbEntity
  8
Ebene 1
 62
   179
420
  1709851
370
    18
100
AcDbVertex
100
AcDb2dVertex
 10
83.46381155682502
 20
-103.8367282183985
 30
0.0
  0
SEQEND
  5
319
330
316
100
AcDbEntity
  8
Ebene 1
370
    18
  0
POLYLINE
  5
31A
330
FC
100
AcDbEntity
  8
Ebene 1
 62
   179
420
  1709851
370
    18
100
AcDb2dPolyline
 66
     1
 10
0.0
 20
0.0
 30
0.0
  0
VERTEX
  5
31B
330
31A
100
AcDbEntity
  8
Ebene 1
 62
   179
420
  1709851
370
    18
100
AcDbVertex
100
AcDb2dVertex
 10
101.433946372211
 20
-106.4615464686103
 30
0.0
  0
VERTEX
  5
31C
330
31A
100
AcDbEntity
  8
Ebene 1
 62
   179
420
  1709851
370
    18
100
AcDbVertex
100
AcDb2dVertex
 10
100.989701309388
 20
-106.2072984217989
 30
0.0
  0
SEQEND
  5
31D
330
31A
100
AcDbEntity
  8
Ebene 1
370
    18
  0
POLYLINE
  5
31E
330
FC
100
AcDbEntity
  8
Ebene 1
 62
   179
420
  1709851
370
    18
100
AcDb2dPolyline
 66
     1
 10
0.0
 20
0.0
 30
0.0
  0
VERTEX
  5
31F
330
31E
100
AcDbEntity
  8
Ebene 1
 62
   179
420
  1709851
370
    18
100
AcDbVertex
100
AcDb2dVertex
 10
94.72445065991265
 20
-109.8270602481509
 30
0.0
  0
VERTEX
  5
320
330
31E
100
AcDbEntity
  8
Ebene 1
 62
   179
420
  1709851
370
    18
100
AcDbVertex
100
AcDb2dVertex
 10
100.989701309388
 20
-106.2072984217989
 30
0.0
  0
SEQEND
  5
321
330
31E
100
AcDbEntity
  8
Ebene 1
370
    18
  0
POLYLINE
  5
322
330
FC
100
AcDbEntity
  8
Ebene 1
 62
   179
420
  1709851
370
    18
100
AcDb2dPolyline
 66
     1
 10
0.0
 20
0.0
 30
0.0
  0
VERTEX
  5
323
330
322
100
AcDbEntity
  8
Ebene 1
 62
   179
420
  1709851
370
    18
100
AcDbVertex
100
AcDb2dVertex
 10
94.72445065991265
 20
-109.8270602481509
 30
0.0
  0
VERTEX
  5
324
330
322
100
AcDbEntity
  8
Ebene 1
 62
   179
420
  1709851
370
    18
100
AcDbVertex
100
AcDb2dVertex
 10
83.88704153718797
 20
-103.5828246811355
 30
0.0
  0
SEQEND
  5
325
330
322
100
AcDbEntity
  8
Ebene 1
370
    18
  0
POLYLINE
  5
326
330
FC
100
AcDbEntity
  8
Ebene 1
 62
   179
420
  1709851
370
    18
100
AcDb2dPolyline
 66
     1
 10
0.0
 20
0.0
 30
0.0
  0
VERTEX
  5
327
330
326
100
AcDbEntity
  8
Ebene 1
 62
   179
420
  1709851
370
    18
100
AcDbVertex
100
AcDb2dVertex
 10
83.46381155682502
 20
-103.8367282183985
 30
0.0
  0
VERTEX
  5
328
330
326
100
AcDbEntity
  8
Ebene 1
 62
   179
420
  1709851
370
    18
100
AcDbVertex
100
AcDb2dVertex
 10
94.27986108754115
 20
-110.0809637854138
 30
0.0
  0
SEQEND
  5
329
330
326
100
AcDbEntity
  8
Ebene 1
370
    18
  0
POLYLINE
  5
32A
330
FC
100
AcDbEntity
  8
Ebene 1
 62
   179
420
  1709851
370
    18
100
AcDb2dPolyline
 66
     1
 10
0.0
 20
0.0
 30
0.0
  0
VERTEX
  5
32B
330
32A
100
AcDbEntity
  8
Ebene 1
 62
   179
420
  1709851
370
    18
100
AcDbVertex
100
AcDb2dVertex
 10
101.433946372211
 20
-106.4615464686103
 30
0.0
  0
VERTEX
  5
32C
330
32A
100
AcDbEntity
  8
Ebene 1
 62
   179
420
  1709851
370
    18
100
AcDbVertex
100
AcDb2dVertex
 10
88.438012673203
 20
-113.9542846394802
 30
0.0
  0
SEQEND
  5
32D
330
32A
100
AcDbEntity
  8
Ebene 1
370
    18
  0
POLYLINE
  5
32E
330
FC
100
AcDbEntity
  8
Ebene 1
 62
   179
420
  1709851
370
    18
100
AcDb2dPolyline
 66
     1
 10
0.0
 20
0.0
 30
0.0
  0
VERTEX
  5
32F
330
32E
100
AcDbEntity
  8
Ebene 1
 62
   179
420
  1709851
370
    18
100
AcDbVertex
100
AcDb2dVertex
 10
88.0146104380658
 20
-113.7003811022173
 30
0.0
  0
VERTEX
  5
330
330
32E
100
AcDbEntity
  8
Ebene 1
 62
   179
420
  1709851
370
    18
100
AcDbVertex
100
AcDb2dVertex
 10
94.27986108754115
 20
-110.0809637854138
 30
0.0
  0
SEQEND
  5
331
330
32E
100
AcDbEntity
  8
Ebene 1
370
    18
  0
POLYLINE
  5
332
330
FC
100
AcDbEntity
  8
Ebene 1
 62
   179
420
  1709851
370
    18
100
AcDb2dPolyline
 66
     1
 10
0.0
 20
0.0
 30
0.0
  0
VERTEX
  5
333
330
332
100
AcDbEntity
  8
Ebene 1
 62
   179
420
  1709851
370
    18
100
AcDbVertex
100
AcDb2dVertex
 10
101.433946372211
 20
-106.4615464686103
 30
0.0
  0
VERTEX
  5
334
330
332
100
AcDbEntity
  8
Ebene 1
 62
   179
420
  1709851
370
    18
100
AcDbVertex
100
AcDb2dVertex
 10
101.433946372211
 20
-147.7575615407516
 30
0.0
  0
SEQEND
  5
335
330
332
100
AcDbEntity
  8
Ebene 1
370
    18
  0
POLYLINE
  5
336
330
FC
100
AcDbEntity
  8
Ebene 1
 62
   179
420
  1709851
370
    18
100
AcDb2dPolyline
 66
     1
 10
0.0
 20
0.0
 30
0.0
  0
VERTEX
  5
337
330
336
100
AcDbEntity
  8
Ebene 1
 62
   179
420
  1709851
370
    18
100
AcDbVertex
100
AcDb2dVertex
 10
88.438012673203
 20
-113.9542846394802
 30
0.0
  0
VERTEX
  5
338
330
336
100
AcDbEntity
  8
Ebene 1
 62
   179
420
  1709851
370
    18
100
AcDbVertex
100
AcDb2dVertex
 10
88.438012673203
 20
-155.2504719663957
 30
0.0
  0
SEQEND
  5
339
330
336
100
AcDbEntity
  8
Ebene 1
370
    18
  0
POLYLINE
  5
33A
330
FC
100
AcDbEntity
  8
Ebene 1
 62
   179
420
  1709851
370
    18
100
AcDb2dPolyline
 66
     1
 10
0.0
 20
0.0
 30
0.0
  0
VERTEX
  5
33B
330
33A
100
AcDbEntity
  8
Ebene 1
 62
   179
420
  1709851
370
    18
100
AcDbVertex
100
AcDb2dVertex
 10
88.0146104380658
 20
-113.7003811022173
 30
0.0
  0
VERTEX
  5
33C
330
33A
100
AcDbEntity
  8
Ebene 1
 62
   179
420
  1709851
370
    18
100
AcDbVertex
100
AcDb2dVertex
 10
88.0146104380658
 20
-155.5047200132072
 30
0.0
  0
SEQEND
  5
33D
330
33A
100
AcDbEntity
  8
Ebene 1
370
    18
  0
POLYLINE
  5
33E
330
FC
100
AcDbEntity
  8
Ebene 1
 62
   179
420
  1709851
370
    18
100
AcDb2dPolyline
 66
     1
 10
0.0
 20
0.0
 30
0.0
  0
VERTEX
  5
33F
330
33E
100
AcDbEntity
  8
Ebene 1
 62
   179
420
  1709851
370
    18
100
AcDbVertex
100
AcDb2dVertex
 10
71.01771509726294
 20
-186.3231661860581
 30
0.0
  0
VERTEX
  5
340
330
33E
100
AcDbEntity
  8
Ebene 1
 62
   179
420
  1709851
370
    18
100
AcDbVertex
100
AcDb2dVertex
 10
81.26239554175038
 20
-180.3962239132343
 30
0.0
  0
SEQEND
  5
341
330
33E
100
AcDbEntity
  8
Ebene 1
370
    18
  0
POLYLINE
  5
342
330
FC
100
AcDbEntity
  8
Ebene 1
 62
   179
420
  1709851
370
    18
100
AcDb2dPolyline
 66
     1
 10
0.0
 20
0.0
 30
0.0
  0
VERTEX
  5
343
330
342
100
AcDbEntity
  8
Ebene 1
 62
   179
420
  1709851
370
    18
100
AcDbVertex
100
AcDb2dVertex
 10
64.66771509885044
 20
-170.3847764330983
 30
0.0
  0
VERTEX
  5
344
330
342
100
AcDbEntity
  8
Ebene 1
 62
   179
420
  1709851
370
    18
100
AcDbVertex
100
AcDb2dVertex
 10
66.25521509845356
 20
-169.4745822058952
 30
0.0
  0
SEQEND
  5
345
330
342
100
AcDbEntity
  8
Ebene 1
370
    18
  0
POLYLINE
  5
346
330
FC
100
AcDbEntity
  8
Ebene 1
 62
   179
420
  1709851
370
    18
100
AcDb2dPolyline
 66
     1
 10
0.0
 20
0.0
 30
0.0
  0
VERTEX
  5
347
330
346
100
AcDbEntity
  8
Ebene 1
 62
   179
420
  1709851
370
    18
100
AcDbVertex
100
AcDb2dVertex
 10
66.25521509845356
 20
-168.0565809041664
 30
0.0
  0
VERTEX
  5
348
330
346
100
AcDbEntity
  8
Ebene 1
 62
   179
420
  1709851
370
    18
100
AcDbVertex
100
AcDb2dVertex
 10
68.11797822732815
 20
-166.9982475710977
 30
0.0
  0
SEQEND
  5
349
330
346
100
AcDbEntity
  8
Ebene 1
370
    18
  0
POLYLINE
  5
34A
330
FC
100
AcDbEntity
  8
Ebene 1
 62
   179
420
  1709851
370
    18
100
AcDb2dPolyline
 66
     1
 10
0.0
 20
0.0
 30
0.0
  0
VERTEX
  5
34B
330
34A
100
AcDbEntity
  8
Ebene 1
 62
   179
420
  1709851
370
    18
100
AcDbVertex
100
AcDb2dVertex
 10
64.66771509885044
 20
-170.3847764330983
 30
0.0
  0
VERTEX
  5
34C
330
34A
100
AcDbEntity
  8
Ebene 1
 62
   179
420
  1709851
370
    18
100
AcDbVertex
100
AcDb2dVertex
 10
66.25521509845356
 20
-171.3163302523098
 30
0.0
  0
VERTEX
  5
34D
330
34A
100
AcDbEntity
  8
Ebene 1
 62
   179
420
  1709851
370
    18
100
AcDbVertex
100
AcDb2dVertex
 10
66.25521509845356
 20
-168.0565809041664
 30
0.0
  0
VERTEX
  5
34E
330
34A
100
AcDbEntity
  8
Ebene 1
 62
   179
420
  1709851
370
    18
100
AcDbVertex
100
AcDb2dVertex
 10
70.91195066586576
 20
-170.7444444017583
 30
0.0
  0
SEQEND
  5
34F
330
34A
100
AcDbEntity
  8
Ebene 1
370
    18
  0
POLYLINE
  5
350
330
FC
100
AcDbEntity
  8
Ebene 1
 62
   179
420
  1709851
370
    18
100
AcDb2dPolyline
 66
     1
 10
0.0
 20
0.0
 30
0.0
  0
VERTEX
  5
351
330
350
100
AcDbEntity
  8
Ebene 1
 62
   179
420
  1709851
370
    18
100
AcDbVertex
100
AcDb2dVertex
 10
64.66771509885044
 20
-170.3847764330983
 30
0.0
  0
VERTEX
  5
352
330
350
100
AcDbEntity
  8
Ebene 1
 62
   179
420
  1709851
370
    18
100
AcDbVertex
100
AcDb2dVertex
 10
64.66771509885044
 20
-182.640359112326
 30
0.0
  0
VERTEX
  5
353
330
350
100
AcDbEntity
  8
Ebene 1
 62
   179
420
  1709851
370
    18
100
AcDbVertex
100
AcDb2dVertex
 10
71.01771509726294
 20
-186.3231661860581
 30
0.0
  0
VERTEX
  5
354
330
350
100
AcDbEntity
  8
Ebene 1
 62
   179
420
  1709851
370
    18
100
AcDbVertex
100
AcDb2dVertex
 10
71.01771509726294
 20
-182.5556097633889
 30
0.0
  0
VERTEX
  5
355
330
350
100
AcDbEntity
  8
Ebene 1
 62
   179
420
  1709851
370
    18
100
AcDbVertex
100
AcDb2dVertex
 10
69.72666556416556
 20
-181.8149142340602
 30
0.0
  0
VERTEX
  5
356
330
350
100
AcDbEntity
  8
Ebene 1
 62
   179
420
  1709851
370
    18
100
AcDbVertex
100
AcDb2dVertex
 10
69.72666556416556
 20
-182.4495008224432
 30
0.0
  0
VERTEX
  5
357
330
350
100
AcDbEntity
  8
Ebene 1
 62
   179
420
  1709851
370
    18
100
AcDbVertex
100
AcDb2dVertex
 10
70.59448511689999
 20
-182.9366373240575
 30
0.0
  0
VERTEX
  5
358
330
350
100
AcDbEntity
  8
Ebene 1
 62
   179
420
  1709851
370
    18
100
AcDbVertex
100
AcDb2dVertex
 10
70.59448511689999
 20
-185.4343315508636
 30
0.0
  0
VERTEX
  5
359
330
350
100
AcDbEntity
  8
Ebene 1
 62
   179
420
  1709851
370
    18
100
AcDbVertex
100
AcDb2dVertex
 10
65.09111733398764
 20
-182.2593315516574
 30
0.0
  0
VERTEX
  5
35A
330
350
100
AcDbEntity
  8
Ebene 1
 62
   179
420
  1709851
370
    18
100
AcDbVertex
100
AcDb2dVertex
 10
65.09111733398764
 20
-171.1468315544355
 30
0.0
  0
VERTEX
  5
35B
330
350
100
AcDbEntity
  8
Ebene 1
 62
   179
420
  1709851
370
    18
100
AcDbVertex
100
AcDb2dVertex
 10
66.69980467082505
 20
-172.0570257816385
 30
0.0
  0
VERTEX
  5
35C
330
350
100
AcDbEntity
  8
Ebene 1
 62
   179
420
  1709851
370
    18
100
AcDbVertex
100
AcDb2dVertex
 10
66.69980467082505
 20
-168.8186360255037
 30
0.0
  0
VERTEX
  5
35D
330
350
100
AcDbEntity
  8
Ebene 1
 62
   179
420
  1709851
370
    18
100
AcDbVertex
100
AcDb2dVertex
 10
69.9381944269599
 20
-170.6810546448297
 30
0.0
  0
VERTEX
  5
35E
330
350
100
AcDbEntity
  8
Ebene 1
 62
   179
420
  1709851
370
    18
100
AcDbVertex
100
AcDb2dVertex
 10
69.9381944269599
 20
-171.5698892800242
 30
0.0
  0
VERTEX
  5
35F
330
350
100
AcDbEntity
  8
Ebene 1
 62
   179
420
  1709851
370
    18
100
AcDbVertex
100
AcDb2dVertex
 10
70.91195066586576
 20
-172.1204155385671
 30
0.0
  0
VERTEX
  5
360
330
350
100
AcDbEntity
  8
Ebene 1
 62
   179
420
  1709851
370
    18
100
AcDbVertex
100
AcDb2dVertex
 10
70.91195066586576
 20
-170.7444444017583
 30
0.0
  0
SEQEND
  5
361
330
350
100
AcDbEntity
  8
Ebene 1
370
    18
  0
POLYLINE
  5
362
330
FC
100
AcDbEntity
  8
Ebene 1
 62
   179
420
  1709851
370
    18
100
AcDb2dPolyline
 66
     1
 10
0.0
 20
0.0
 30
0.0
  0
VERTEX
  5
363
330
362
100
AcDbEntity
  8
Ebene 1
 62
   179
420
  1709851
370
    18
100
AcDbVertex
100
AcDb2dVertex
 10
71.01771509726294
 20
-182.5556097633889
 30
0.0
  0
VERTEX
  5
364
330
362
100
AcDbEntity
  8
Ebene 1
 62
   179
420
  1709851
370
    18
100
AcDbVertex
100
AcDb2dVertex
 10
81.26239554175038
 20
-176.6500270825736
 30
0.0
  0
VERTEX
  5
365
330
362
100
AcDbEntity
  8
Ebene 1
 62
   179
420
  1709851
370
    18
100
AcDbVertex
100
AcDb2dVertex
 10
104.4611517751
 20
-163.2513617213399
 30
0.0
  0
SEQEND
  5
366
330
362
100
AcDbEntity
  8
Ebene 1
370
    18
  0
POLYLINE
  5
367
330
FC
100
AcDbEntity
  8
Ebene 1
 62
   179
420
  1709851
370
    18
100
AcDb2dPolyline
 66
     1
 10
0.0
 20
0.0
 30
0.0
  0
VERTEX
  5
368
330
367
100
AcDbEntity
  8
Ebene 1
 62
   179
420
  1709851
370
    18
100
AcDbVertex
100
AcDb2dVertex
 10
69.72666556416556
 20
-181.8149142340602
 30
0.0
  0
VERTEX
  5
369
330
367
100
AcDbEntity
  8
Ebene 1
 62
   179
420
  1709851
370
    18
100
AcDbVertex
100
AcDb2dVertex
 10
81.26239554175038
 20
-175.1472764319076
 30
0.0
  0
SEQEND
  5
36A
330
367
100
AcDbEntity
  8
Ebene 1
370
    18
  0
POLYLINE
  5
36B
330
FC
100
AcDbEntity
  8
Ebene 1
 62
   179
420
  1709851
370
    18
100
AcDb2dPolyline
 66
     1
 10
0.0
 20
0.0
 30
0.0
  0
VERTEX
  5
36C
330
36B
100
AcDbEntity
  8
Ebene 1
 62
   179
420
  1709851
370
    18
100
AcDbVertex
100
AcDb2dVertex
 10
65.09111733398764
 20
-182.2593315516574
 30
0.0
  0
VERTEX
  5
36D
330
36B
100
AcDbEntity
  8
Ebene 1
 62
   179
420
  1709851
370
    18
100
AcDbVertex
100
AcDb2dVertex
 10
81.26239554175038
 20
-172.9245008248244
 30
0.0
  0
SEQEND
  5
36E
330
36B
100
AcDbEntity
  8
Ebene 1
370
    18
  0
POLYLINE
  5
36F
330
FC
100
AcDbEntity
  8
Ebene 1
 62
   179
420
  1709851
370
    18
100
AcDb2dPolyline
 66
     1
 10
0.0
 20
0.0
 30
0.0
  0
VERTEX
  5
370
330
36F
100
AcDbEntity
  8
Ebene 1
 62
   179
420
  1709851
370
    18
100
AcDbVertex
100
AcDb2dVertex
 10
70.91195066586576
 20
-172.1204155385671
 30
0.0
  0
VERTEX
  5
371
330
36F
100
AcDbEntity
  8
Ebene 1
 62
   179
420
  1709851
370
    18
100
AcDbVertex
100
AcDb2dVertex
 10
81.26239554175038
 20
-166.1514431008233
 30
0.0
  0
SEQEND
  5
372
330
36F
100
AcDbEntity
  8
Ebene 1
370
    18
  0
POLYLINE
  5
373
330
FC
100
AcDbEntity
  8
Ebene 1
 62
   179
420
  1709851
370
    18
100
AcDb2dPolyline
 66
     1
 10
0.0
 20
0.0
 30
0.0
  0
VERTEX
  5
374
330
373
100
AcDbEntity
  8
Ebene 1
 62
   179
420
  1709851
370
    18
100
AcDbVertex
100
AcDb2dVertex
 10
70.91195066586576
 20
-170.7444444017583
 30
0.0
  0
VERTEX
  5
375
330
373
100
AcDbEntity
  8
Ebene 1
 62
   179
420
  1709851
370
    18
100
AcDbVertex
100
AcDb2dVertex
 10
81.26239554175038
 20
-164.7754719640145
 30
0.0
  0
SEQEND
  5
376
330
373
100
AcDbEntity
  8
Ebene 1
370
    18
  0
POLYLINE
  5
377
330
FC
100
AcDbEntity
  8
Ebene 1
 62
   179
420
  1709851
370
    18
100
AcDb2dPolyline
 66
     1
 10
0.0
 20
0.0
 30
0.0
  0
VERTEX
  5
378
330
377
100
AcDbEntity
  8
Ebene 1
 62
   179
420
  1709851
370
    18
100
AcDbVertex
100
AcDb2dVertex
 10
68.11797822732815
 20
-166.9982475710977
 30
0.0
  0
VERTEX
  5
379
330
377
100
AcDbEntity
  8
Ebene 1
 62
   179
420
  1709851
370
    18
100
AcDbVertex
100
AcDb2dVertex
 10
105.9215277512974
 20
-145.1751179650083
 30
0.0
  0
SEQEND
  5
37A
330
377
100
AcDbEntity
  8
Ebene 1
370
    18
  0
POLYLINE
  5
37B
330
FC
100
AcDbEntity
  8
Ebene 1
 62
   179
420
  1709851
370
    18
100
AcDb2dPolyline
 66
     1
 10
0.0
 20
0.0
 30
0.0
  0
VERTEX
  5
37C
330
37B
100
AcDbEntity
  8
Ebene 1
 62
   179
420
  1709851
370
    18
100
AcDbVertex
100
AcDb2dVertex
 10
81.26239554175038
 20
-164.7754719640145
 30
0.0
  0
VERTEX
  5
37D
330
37B
100
AcDbEntity
  8
Ebene 1
 62
   179
420
  1709851
370
    18
100
AcDbVertex
100
AcDb2dVertex
 10
105.9215277512974
 20
-150.5513617245149
 30
0.0
  0
SEQEND
  5
37E
330
37B
100
AcDbEntity
  8
Ebene 1
370
    18
  0
POLYLINE
  5
37F
330
FC
100
AcDbEntity
  8
Ebene 1
 62
   179
420
  1709851
370
    18
100
AcDb2dPolyline
 66
     1
 10
0.0
 20
0.0
 30
0.0
  0
VERTEX
  5
380
330
37F
100
AcDbEntity
  8
Ebene 1
 62
   179
420
  1709851
370
    18
100
AcDbVertex
100
AcDb2dVertex
 10
81.26239554175038
 20
-166.1514431008233
 30
0.0
  0
VERTEX
  5
381
330
37F
100
AcDbEntity
  8
Ebene 1
 62
   179
420
  1709851
370
    18
100
AcDbVertex
100
AcDb2dVertex
 10
105.9215277512974
 20
-151.9273328613237
 30
0.0
  0
SEQEND
  5
382
330
37F
100
AcDbEntity
  8
Ebene 1
370
    18
  0
POLYLINE
  5
383
330
FC
100
AcDbEntity
  8
Ebene 1
 62
   179
420
  1709851
370
    18
100
AcDb2dPolyline
 66
     1
 10
0.0
 20
0.0
 30
0.0
  0
VERTEX
  5
384
330
383
100
AcDbEntity
  8
Ebene 1
 62
   179
420
  1709851
370
    18
100
AcDbVertex
100
AcDb2dVertex
 10
81.26239554175038
 20
-172.9245008248244
 30
0.0
  0
VERTEX
  5
385
330
383
100
AcDbEntity
  8
Ebene 1
 62
   179
420
  1709851
370
    18
100
AcDbVertex
100
AcDb2dVertex
 10
104.0374050304143
 20
-159.7800835104022
 30
0.0
  0
SEQEND
  5
386
330
383
100
AcDbEntity
  8
Ebene 1
370
    18
  0
POLYLINE
  5
387
330
FC
100
AcDbEntity
  8
Ebene 1
 62
   179
420
  1709851
370
    18
100
AcDb2dPolyline
 66
     1
 10
0.0
 20
0.0
 30
0.0
  0
VERTEX
  5
388
330
387
100
AcDbEntity
  8
Ebene 1
 62
   179
420
  1709851
370
    18
100
AcDbVertex
100
AcDb2dVertex
 10
81.26239554175038
 20
-175.1472764319076
 30
0.0
  0
VERTEX
  5
389
330
387
100
AcDbEntity
  8
Ebene 1
 62
   179
420
  1709851
370
    18
100
AcDbVertex
100
AcDb2dVertex
 10
104.4611517751
 20
-161.7699706626825
 30
0.0
  0
SEQEND
  5
38A
330
387
100
AcDbEntity
  8
Ebene 1
370
    18
  0
POLYLINE
  5
38B
330
FC
100
AcDbEntity
  8
Ebene 1
 62
   179
420
  1709851
370
    18
100
AcDb2dPolyline
 66
     1
 10
0.0
 20
0.0
 30
0.0
  0
VERTEX
  5
38C
330
38B
100
AcDbEntity
  8
Ebene 1
 62
   179
420
  1709851
370
    18
100
AcDbVertex
100
AcDb2dVertex
 10
81.26239554175038
 20
-180.3962239132343
 30
0.0
  0
VERTEX
  5
38D
330
38B
100
AcDbEntity
  8
Ebene 1
 62
   179
420
  1709851
370
    18
100
AcDbVertex
100
AcDb2dVertex
 10
105.9215277512974
 20
-166.1728026928318
 30
0.0
  0
SEQEND
  5
38E
330
38B
100
AcDbEntity
  8
Ebene 1
370
    18
  0
POLYLINE
  5
38F
330
FC
100
AcDbEntity
  8
Ebene 1
 62
   179
420
  1709851
370
    18
100
AcDb2dPolyline
 66
     1
 10
0.0
 20
0.0
 30
0.0
  0
VERTEX
  5
390
330
38F
100
AcDbEntity
  8
Ebene 1
 62
   179
420
  1709851
370
    18
100
AcDbVertex
100
AcDb2dVertex
 10
101.433946372211
 20
-168.754557249478
 30
0.0
  0
VERTEX
  5
391
330
38F
100
AcDbEntity
  8
Ebene 1
 62
   179
420
  1709851
370
    18
100
AcDbVertex
100
AcDb2dVertex
 10
101.433946372211
 20
-200.9283039862263
 30
0.0
  0
SEQEND
  5
392
330
38F
100
AcDbEntity
  8
Ebene 1
370
    18
  0
POLYLINE
  5
393
330
FC
100
AcDbEntity
  8
Ebene 1
 62
   179
420
  1709851
370
    18
100
AcDb2dPolyline
 66
     1
 10
0.0
 20
0.0
 30
0.0
  0
VERTEX
  5
394
330
393
100
AcDbEntity
  8
Ebene 1
 62
   179
420
  1709851
370
    18
100
AcDbVertex
100
AcDb2dVertex
 10
83.46381155682502
 20
-200.9283039862263
 30
0.0
  0
VERTEX
  5
395
330
393
100
AcDbEntity
  8
Ebene 1
 62
   179
420
  1709851
370
    18
100
AcDbVertex
100
AcDb2dVertex
 10
83.46381155682502
 20
-179.1263617173712
 30
0.0
  0
SEQEND
  5
396
330
393
100
AcDbEntity
  8
Ebene 1
370
    18
  0
POLYLINE
  5
397
330
FC
100
AcDbEntity
  8
Ebene 1
 62
   179
420
  1709851
370
    18
100
AcDb2dPolyline
 66
     1
 10
0.0
 20
0.0
 30
0.0
  0
VERTEX
  5
398
330
397
100
AcDbEntity
  8
Ebene 1
 62
   179
420
  1709851
370
    18
100
AcDbVertex
100
AcDb2dVertex
 10
88.438012673203
 20
-176.2476399298964
 30
0.0
  0
VERTEX
  5
399
330
397
100
AcDbEntity
  8
Ebene 1
 62
   179
420
  1709851
370
    18
100
AcDbVertex
100
AcDb2dVertex
 10
88.438012673203
 20
-200.9283039862263
 30
0.0
  0
SEQEND
  5
39A
330
397
100
AcDbEntity
  8
Ebene 1
370
    18
  0
POLYLINE
  5
39B
330
FC
100
AcDbEntity
  8
Ebene 1
 62
   179
420
  1709851
370
    18
100
AcDb2dPolyline
 66
     1
 10
0.0
 20
0.0
 30
0.0
  0
VERTEX
  5
39C
330
39B
100
AcDbEntity
  8
Ebene 1
 62
   179
420
  1709851
370
    18
100
AcDbVertex
100
AcDb2dVertex
 10
88.0146104380658
 20
-176.5018879767079
 30
0.0
  0
VERTEX
  5
39D
330
39B
100
AcDbEntity
  8
Ebene 1
 62
   179
420
  1709851
370
    18
100
AcDbVertex
100
AcDb2dVertex
 10
88.0146104380658
 20
-200.9283039862263
 30
0.0
  0
SEQEND
  5
39E
330
39B
100
AcDbEntity
  8
Ebene 1
370
    18
  0
POLYLINE
  5
39F
330
FC
100
AcDbEntity
  8
Ebene 1
 62
   179
420
  1709851
370
    25
100
AcDb2dPolyline
 66
     1
 10
0.0
 20
0.0
 30
0.0
  0
VERTEX
  5
3A0
330
39F
100
AcDbEntity
  8
Ebene 1
 62
   179
420
  1709851
370
    25
100
AcDbVertex
100
AcDb2dVertex
 10
154.4353623745856
 20
-200.9283039862263
 30
0.0
  0
VERTEX
  5
3A1
330
39F
100
AcDbEntity
  8
Ebene 1
 62
   179
420
  1709851
370
    25
100
AcDbVertex
100
AcDb2dVertex
 10
154.4353623745856
 20
-90.94621444123915
 30
0.0
  0
SEQEND
  5
3A2
330
39F
100
AcDbEntity
  8
Ebene 1
370
    25
  0
POLYLINE
  5
3A3
330
FC
100
AcDbEntity
  8
Ebene 1
 62
   179
420
  1709851
370
    25
100
AcDb2dPolyline
 66
     1
 10
0.0
 20
0.0
 30
0.0
  0
VERTEX
  5
3A4
330
3A3
100
AcDbEntity
  8
Ebene 1
 62
   179
420
  1709851
370
    25
100
AcDbVertex
100
AcDb2dVertex
 10
154.4353623745856
 20
-90.94621444123915
 30
0.0
  0
VERTEX
  5
3A5
330
3A3
100
AcDbEntity
  8
Ebene 1
 62
   179
420
  1709851
370
    25
100
AcDbVertex
100
AcDb2dVertex
 10
54.44422199159728
 20
-90.94621444123915
 30
0.0
  0
SEQEND
  5
3A6
330
3A3
100
AcDbEntity
  8
Ebene 1
370
    25
  0
POLYLINE
  5
3A7
330
FC
100
AcDbEntity
  8
Ebene 1
 62
   179
420
  1709851
370
    25
100
AcDb2dPolyline
 66
     1
 10
0.0
 20
0.0
 30
0.0
  0
VERTEX
  5
3A8
330
3A7
100
AcDbEntity
  8
Ebene 1
 62
   179
420
  1709851
370
    25
100
AcDbVertex
100
AcDb2dVertex
 10
54.44422199159728
 20
-90.94621444123915
 30
0.0
  0
VERTEX
  5
3A9
330
3A7
100
AcDbEntity
  8
Ebene 1
 62
   179
420
  1709851
370
    25
100
AcDbVertex
100
AcDb2dVertex
 10
54.44422199159728
 20
-200.9283039862263
 30
0.0
  0
SEQEND
  5
3AA
330
3A7
100
AcDbEntity
  8
Ebene 1
370
    25
  0
POLYLINE
  5
3AB
330
FC
100
AcDbEntity
  8
Ebene 1
 62
   179
420
  1709851
370
    25
100
AcDb2dPolyline
 66
     1
 10
0.0
 20
0.0
 30
0.0
  0
VERTEX
  5
3AC
330
3AB
100
AcDbEntity
  8
Ebene 1
 62
   179
420
  1709851
370
    25
100
AcDbVertex
100
AcDb2dVertex
 10
54.44422199159728
 20
-200.9283039862263
 30
0.0
  0
VERTEX
  5
3AD
330
3AB
100
AcDbEntity
  8
Ebene 1
 62
   179
420
  1709851
370
    25
100
AcDbVertex
100
AcDb2dVertex
 10
154.4353623745856
 20
-200.9283039862263
 30
0.0
  0
SEQEND
  5
3AE
330
3AB
100
AcDbEntity
  8
Ebene 1
370
    25
  0
MTEXT
  5
3AF
330
FC
100
AcDbEntity
  8
Ebene 1
 62
   179
420
  1709851
100
AcDbMText
 10
136.4436957124169
 20
-184.6088866725978
 30
0.0
 40
3.323900430802021
 41
0.0
 71
     7
 72
     1
  1
\fArial|b0|i0|c0|p34;\W1.00063;1
 73
     1
 44
1.0
  0
MTEXT
  5
3B0
330
FC
100
AcDbEntity
  8
Ebene 1
 62
   179
420
  1709851
100
AcDbMText
 10
67.31234264810247
 20
-177.3059732629652
 30
0.0
 40
3.323900430802021
 41
0.0
 71
     7
 72
     1
  1
\fArial|b0|i0|c0|p34;\W1.00063;3
 73
     1
 44
1.0
  0
MTEXT
  5
3B1
330
FC
100
AcDbEntity
  8
Ebene 1
 62
   179
420
  1709851
100
AcDbMText
 10
79.67231172053332
 20
-126.7190524314279
 30
0.0
 40
3.323900430802021
 41
0.0
 71
     7
 72
     1
  1
\fArial|b0|i0|c0|p34;\W1.00063;5
 73
     1
 44
1.0
  0
POLYLINE
  5
3B2
330
FC
100
AcDbEntity
  8
Ebene 1
370
     0
100
AcDb2dPolyline
 66
     1
 10
0.0
 20
0.0
 30
0.0
  0
VERTEX
  5
3B3
330
3B2
100
AcDbEntity
  8
Ebene 1
370
     0
100
AcDbVertex
100
AcDb2dVertex
 10
54.32777776419584
 20
-201.0447482136277
 30
0.0
  0
VERTEX
  5
3B4
330
3B2
100
AcDbEntity
  8
Ebene 1
370
     0
100
AcDbVertex
100
AcDb2dVertex
 10
154.5518066019871
 20
-201.0447482136277
 30
0.0
  0
VERTEX
  5
3B5
330
3B2
100
AcDbEntity
  8
Ebene 1
370
     0
100
AcDbVertex
100
AcDb2dVertex
 10
154.5518066019871
 20
-90.8297702138377
 30
0.0
  0
VERTEX
  5
3B6
330
3B2
100
AcDbEntity
  8
Ebene 1
370
     0
100
AcDbVertex
100
AcDb2dVertex
 10
54.32777776419584
 20
-90.8297702138377
 30
0.0
  0
VERTEX
  5
3B7
330
3B2
100
AcDbEntity
  8
Ebene 1
370
     0
100
AcDbVertex
100
AcDb2dVertex
 10
54.32777776419584
 20
-201.0447482136277
 30
0.0
  0
SEQEND
  5
3B8
330
3B2
100
AcDbEntity
  8
Ebene 1
370
     0
  0
ENDBLK
  5
FF
330
FC
100
AcDbEntity
  8
0
100
AcDbBlockEnd
  0
BLOCK
  5
82C
330
82A
100
AcDbEntity
  8
0
100
AcDbBlockBegin
  2
block 3
 70
     0
 71
     0
 10
0.0
 20
0.0
 30
0.0
  3
block 3
  1

  0
MTEXT
  5
82E
330
82A
100
AcDbEntity
  8
Ebene 1
 62
   179
420
  1709851
100
AcDbMText
 10
129.3743597766842
 20
-137.0894788611269
 30
0.0
 40
3.323900430802021
 41
0.0
 71
     7
 72
     1
  1
\fArial|b0|i0|c0|p34;\W1.00063;2
 73
     1
 44
1.0
  0
MTEXT
  5
82F
330
82A
100
AcDbEntity
  8
Ebene 1
 62
   179
420
  1709851
100
AcDbMText
 10
93.72744002648133
 20
-136.263344963764
 30
0.0
 40
3.323900430802021
 41
0.0
 71
     7
 72
     1
  1
\fArial|b0|i0|c0|p34;\W1.00063;4
 73
     1
 44
1.0
  0
POLYLINE
  5
830
330
82A
100
AcDbEntity
  8
Ebene 1
370
     0
100
AcDb2dPolyline
 66
     1
 10
0.0
 20
0.0
 30
0.0
  0
VERTEX
  5
831
330
830
100
AcDbEntity
  8
Ebene 1
370
     0
100
AcDbVertex
100
AcDb2dVertex
 10
54.32777776419584
 20
-201.0447482136277
 30
0.0
  0
VERTEX
  5
832
330
830
100
AcDbEntity
  8
Ebene 1
370
     0
100
AcDbVertex
100
AcDb2dVertex
 10
154.5518066019871
 20
-201.0447482136277
 30
0.0
  0
VERTEX
  5
833
330
830
100
AcDbEntity
  8
Ebene 1
370
     0
100
AcDbVertex
100
AcDb2dVertex
 10
154.5518066019871
 20
-90.8297702138377
 30
0.0
  0
VERTEX
  5
834
330
830
100
AcDbEntity
  8
Ebene 1
370
     0
100
AcDbVertex
100
AcDb2dVertex
 10
54.32777776419584
 20
-90.8297702138377
 30
0.0
  0
VERTEX
  5
835
330
830
100
AcDbEntity
  8
Ebene 1
370
     0
100
AcDbVertex
100
AcDb2dVertex
 10
54.32777776419584
 20
-201.0447482136277
 30
0.0
  0
SEQEND
  5
836
330
830
100
AcDbEntity
  8
Ebene 1
370
     0
  0
ENDBLK
  5
82D
330
82A
100
AcDbEntity
  8
0
100
AcDbBlockEnd
  0
ENDSEC
  0
SECTION
  2
ENTITIES
  0
POLYLINE
  5
3C
330
1F
100
AcDbEntity
  8
Ebene 1
370
     0
100
AcDb2dPolyline
 66
     1
 10
0.0
 20
0.0
 30
0.0
  0
VERTEX
  5
3D
330
3C
100
AcDbEntity
  8
Ebene 1
370
     0
100
AcDbVertex
100
AcDb2dVertex
 10
105.9215277512974
 20
-200.9283039862263
 30
0.0
  0
VERTEX
  5
3E
330
3C
100
AcDbEntity
  8
Ebene 1
370
     0
100
AcDbVertex
100
AcDb2dVertex
 10
154.4353623745856
 20
-200.9283039862263
 30
0.0
  0
VERTEX
  5
3F
330
3C
100
AcDbEntity
  8
Ebene 1
370
     0
100
AcDbVertex
100
AcDb2dVertex
 10
105.9215277512974
 20
-128.7712958119912
 30
0.0
  0
VERTEX
  5
40
330
3C
100
AcDbEntity
  8
Ebene 1
370
     0
100
AcDbVertex
100
AcDb2dVertex
 10
105.9215277512974
 20
-200.9283039862263
 30
0.0
  0
SEQEND
  5
41
330
3C
100
AcDbEntity
  8
Ebene 1
370
     0
  0
HATCH
  5
42
330
1F
100
AcDbEntity
  8
Ebene 1
 62
   254
420
 14803683
100
AcDbHatch
 10
0.0
 20
0.0
 30
0.0
210
0.0
220
0.0
230
1.0
  2
SOLID
 70
     1
 71
     0
 91
        1
 92
        1
 93
        3
 72
     1
 10
105.9215277512974
 20
-200.9283039862263
 11
154.4353623745856
 21
-200.9283039862263
 72
     1
 10
154.4353623745856
 20
-200.9283039862263
 11
105.9215277512974
 21
-128.7712958119912
 72
     1
 10
105.9215277512974
 20
-128.7712958119912
 11
105.9215277512974
 21
-200.9283039862263
 97
        0
 75
     2
 76
     1
 98
        0
  0
POLYLINE
  5
43
330
1F
100
AcDbEntity
  8
Ebene 1
370
     0
100
AcDb2dPolyline
 66
     1
 10
0.0
 20
0.0
 30
0.0
  0
VERTEX
  5
44
330
43
100
AcDbEntity
  8
Ebene 1
370
     0
100
AcDbVertex
100
AcDb2dVertex
 10
105.9215277512974
 20
-128.7709513024427
 30
0.0
  0
VERTEX
  5
45
330
43
100
AcDbEntity
  8
Ebene 1
370
     0
100
AcDbVertex
100
AcDb2dVertex
 10
154.4353623745856
 20
-200.9276149671292
 30
0.0
  0
VERTEX
  5
46
330
43
100
AcDbEntity
  8
Ebene 1
370
     0
100
AcDbVertex
100
AcDb2dVertex
 10
154.4353623745856
 20
-100.7674926505894
 30
0.0
  0
VERTEX
  5
47
330
43
100
AcDbEntity
  8
Ebene 1
370
     0
100
AcDbVertex
100
AcDb2dVertex
 10
105.9215277512974
 20
-128.7709513024427
 30
0.0
  0
SEQEND
  5
48
330
43
100
AcDbEntity
  8
Ebene 1
370
     0
  0
HATCH
  5
49
330
1F
100
AcDbEntity
  8
Ebene 1
 62
   254
420
 14803683
100
AcDbHatch
 10
0.0
 20
0.0
 30
0.0
210
0.0
220
0.0
230
1.0
  2
SOLID
 70
     1
 71
     0
 91
        1
 92
        1
 93
        3
 72
     1
 10
105.9215277512974
 20
-128.7709513024427
 11
154.4353623745856
 21
-200.9276149671292
 72
     1
 10
154.4353623745856
 20
-200.9276149671292
 11
154.4353623745856
 21
-100.7674926505894
 72
     1
 10
154.4353623745856
 20
-100.7674926505894
 11
105.9215277512974
 21
-128.7709513024427
 97
        0
 75
     2
 76
     1
 98
        0
  0
POLYLINE
  5
4A
330
1F
100
AcDbEntity
  8
Ebene 1
 62
   179
420
  1709851
370
    18
100
AcDb2dPolyline
 66
     1
 10
0.0
 20
0.0
 30
0.0
  0
VERTEX
  5
4B
330
4A
100
AcDbEntity
  8
Ebene 1
 62
   179
420
  1709851
370
    18
100
AcDbVertex
100
AcDb2dVertex
 10
85.9613335288569
 20
-111.9013522398198
 30
0.0
  0
VERTEX
  5
4C
330
4A
100
AcDbEntity
  8
Ebene 1
 62
   179
420
  1709851
370
    18
100
AcDbVertex
100
AcDb2dVertex
 10
85.81319442299115
 20
-111.8803371573598
 30
0.0
  0
VERTEX
  5
4D
330
4A
100
AcDbEntity
  8
Ebene 1
 62
   179
420
  1709851
370
    18
100
AcDbVertex
100
AcDb2dVertex
 10
85.70725773681971
 20
-111.9227118318284
 30
0.0
  0
VERTEX
  5
4E
330
4A
100
AcDbEntity
  8
Ebene 1
 62
   179
420
  1709851
370
    18
100
AcDbVertex
100
AcDb2dVertex
 10
85.62268064265683
 20
-112.0494913456856
 30
0.0
  0
VERTEX
  5
4F
330
4A
100
AcDbEntity
  8
Ebene 1
 62
   179
420
  1709851
370
    18
100
AcDbVertex
100
AcDb2dVertex
 10
85.62268064265683
 20
-112.0918660201541
 30
0.0
  0
SEQEND
  5
50
330
4A
100
AcDbEntity
  8
Ebene 1
370
    18
  0
POLYLINE
  5
51
330
1F
100
AcDbEntity
  8
Ebene 1
 62
   179
420
  1709851
370
    18
100
AcDb2dPolyline
 66
     1
 10
0.0
 20
0.0
 30
0.0
  0
VERTEX
  5
52
330
51
100
AcDbEntity
  8
Ebene 1
 62
   179
420
  1709851
370
    18
100
AcDbVertex
100
AcDb2dVertex
 10
85.62268064265683
 20
-112.0918660201541
 30
0.0
  0
VERTEX
  5
53
330
51
100
AcDbEntity
  8
Ebene 1
 62
   179
420
  1709851
370
    18
100
AcDbVertex
100
AcDb2dVertex
 10
85.66505531712541
 20
-112.324754474957
 30
0.0
  0
VERTEX
  5
54
330
51
100
AcDbEntity
  8
Ebene 1
 62
   179
420
  1709851
370
    18
100
AcDbVertex
100
AcDb2dVertex
 10
85.79200708575686
 20
-112.5152682552913
 30
0.0
  0
VERTEX
  5
55
330
51
100
AcDbEntity
  8
Ebene 1
 62
   179
420
  1709851
370
    18
100
AcDbVertex
100
AcDb2dVertex
 10
85.9613335288569
 20
-112.6420477691485
 30
0.0
  0
VERTEX
  5
56
330
51
100
AcDbEntity
  8
Ebene 1
 62
   179
420
  1709851
370
    18
100
AcDbVertex
100
AcDb2dVertex
 10
86.08828529748835
 20
-112.6844224436171
 30
0.0
  0
VERTEX
  5
57
330
51
100
AcDbEntity
  8
Ebene 1
 62
   179
420
  1709851
370
    18
100
AcDbVertex
100
AcDb2dVertex
 10
86.21523706611981
 20
-112.6210326866885
 30
0.0
  0
VERTEX
  5
58
330
51
100
AcDbEntity
  8
Ebene 1
 62
   179
420
  1709851
370
    18
100
AcDbVertex
100
AcDb2dVertex
 10
86.27879907782267
 20
-112.5152682552913
 30
0.0
  0
VERTEX
  5
59
330
51
100
AcDbEntity
  8
Ebene 1
 62
   179
420
  1709851
370
    18
100
AcDbVertex
100
AcDb2dVertex
 10
86.27879907782267
 20
-112.4518784983627
 30
0.0
  0
SEQEND
  5
5A
330
51
100
AcDbEntity
  8
Ebene 1
370
    18
  0
POLYLINE
  5
5B
330
1F
100
AcDbEntity
  8
Ebene 1
 62
   179
420
  1709851
370
    18
100
AcDb2dPolyline
 66
     1
 10
0.0
 20
0.0
 30
0.0
  0
VERTEX
  5
5C
330
5B
100
AcDbEntity
  8
Ebene 1
 62
   179
420
  1709851
370
    18
100
AcDbVertex
100
AcDb2dVertex
 10
86.27879907782267
 20
-112.4518784983627
 30
0.0
  0
VERTEX
  5
5D
330
5B
100
AcDbEntity
  8
Ebene 1
 62
   179
420
  1709851
370
    18
100
AcDbVertex
100
AcDb2dVertex
 10
86.23642440335409
 20
-112.2400051260199
 30
0.0
  0
VERTEX
  5
5E
330
5B
100
AcDbEntity
  8
Ebene 1
 62
   179
420
  1709851
370
    18
100
AcDbVertex
100
AcDb2dVertex
 10
86.10947263472264
 20
-112.0284762632255
 30
0.0
  0
VERTEX
  5
5F
330
5B
100
AcDbEntity
  8
Ebene 1
 62
   179
420
  1709851
370
    18
100
AcDbVertex
100
AcDb2dVertex
 10
85.9613335288569
 20
-111.9013522398198
 30
0.0
  0
SEQEND
  5
60
330
5B
100
AcDbEntity
  8
Ebene 1
370
    18
  0
POLYLINE
  5
61
330
1F
100
AcDbEntity
  8
Ebene 1
 62
   179
420
  1709851
370
    18
100
AcDb2dPolyline
 66
     1
 10
0.0
 20
0.0
 30
0.0
  0
VERTEX
  5
62
330
61
100
AcDbEntity
  8
Ebene 1
 62
   179
420
  1709851
370
    18
100
AcDbVertex
100
AcDb2dVertex
 10
85.9613335288569
 20
-111.0335326870854
 30
0.0
  0
VERTEX
  5
63
330
61
100
AcDbEntity
  8
Ebene 1
 62
   179
420
  1709851
370
    18
100
AcDbVertex
100
AcDb2dVertex
 10
85.72844507405401
 20
-110.9487833381482
 30
0.0
  0
VERTEX
  5
64
330
61
100
AcDbEntity
  8
Ebene 1
 62
   179
420
  1709851
370
    18
100
AcDbVertex
100
AcDb2dVertex
 10
85.4745415367911
 20
-110.9277682556882
 30
0.0
  0
VERTEX
  5
65
330
61
100
AcDbEntity
  8
Ebene 1
 62
   179
420
  1709851
370
    18
100
AcDbVertex
100
AcDb2dVertex
 10
85.2416530819882
 20
-111.0125176046253
 30
0.0
  0
VERTEX
  5
66
330
61
100
AcDbEntity
  8
Ebene 1
 62
   179
420
  1709851
370
    18
100
AcDbVertex
100
AcDb2dVertex
 10
85.05113930165389
 20
-111.1606567104911
 30
0.0
  0
VERTEX
  5
67
330
61
100
AcDbEntity
  8
Ebene 1
 62
   179
420
  1709851
370
    18
100
AcDbVertex
100
AcDb2dVertex
 10
84.92418753302243
 20
-111.3721855732854
 30
0.0
  0
VERTEX
  5
68
330
61
100
AcDbEntity
  8
Ebene 1
 62
   179
420
  1709851
370
    18
100
AcDbVertex
100
AcDb2dVertex
 10
84.86062552131958
 20
-111.6260891105483
 30
0.0
  0
VERTEX
  5
69
330
61
100
AcDbEntity
  8
Ebene 1
 62
   179
420
  1709851
370
    18
100
AcDbVertex
100
AcDb2dVertex
 10
84.86062552131958
 20
-111.6474487025569
 30
0.0
  0
SEQEND
  5
6A
330
61
100
AcDbEntity
  8
Ebene 1
370
    18
  0
POLYLINE
  5
6B
330
1F
100
AcDbEntity
  8
Ebene 1
 62
   179
420
  1709851
370
    18
100
AcDb2dPolyline
 66
     1
 10
0.0
 20
0.0
 30
0.0
  0
VERTEX
  5
6C
330
6B
100
AcDbEntity
  8
Ebene 1
 62
   179
420
  1709851
370
    18
100
AcDbVertex
100
AcDb2dVertex
 10
84.86062552131958
 20
-111.6474487025569
 30
0.0
  0
VERTEX
  5
6D
330
6B
100
AcDbEntity
  8
Ebene 1
 62
   179
420
  1709851
370
    18
100
AcDbVertex
100
AcDb2dVertex
 10
84.90300019578814
 20
-112.0708509376941
 30
0.0
  0
VERTEX
  5
6E
330
6B
100
AcDbEntity
  8
Ebene 1
 62
   179
420
  1709851
370
    18
100
AcDbVertex
100
AcDb2dVertex
 10
85.0299519644196
 20
-112.4728935808228
 30
0.0
  0
VERTEX
  5
6F
330
6B
100
AcDbEntity
  8
Ebene 1
 62
   179
420
  1709851
370
    18
100
AcDbVertex
100
AcDb2dVertex
 10
85.2416530819882
 20
-112.8539211414914
 30
0.0
  0
VERTEX
  5
70
330
6B
100
AcDbEntity
  8
Ebene 1
 62
   179
420
  1709851
370
    18
100
AcDbVertex
100
AcDb2dVertex
 10
85.5167439564854
 20
-113.1925740276914
 30
0.0
  0
VERTEX
  5
71
330
6B
100
AcDbEntity
  8
Ebene 1
 62
   179
420
  1709851
370
    18
100
AcDbVertex
100
AcDb2dVertex
 10
85.85556909745972
 20
-113.4678371569629
 30
0.0
  0
VERTEX
  5
72
330
6B
100
AcDbEntity
  8
Ebene 1
 62
   179
420
  1709851
370
    18
100
AcDbVertex
100
AcDb2dVertex
 10
85.9613335288569
 20
-113.5312269138915
 30
0.0
  0
VERTEX
  5
73
330
6B
100
AcDbEntity
  8
Ebene 1
 62
   179
420
  1709851
370
    18
100
AcDbVertex
100
AcDb2dVertex
 10
86.19422198365979
 20
-113.6159762628287
 30
0.0
  0
VERTEX
  5
74
330
6B
100
AcDbEntity
  8
Ebene 1
 62
   179
420
  1709851
370
    18
100
AcDbVertex
100
AcDb2dVertex
 10
86.4269381836884
 20
-113.6159762628287
 30
0.0
  0
VERTEX
  5
75
330
6B
100
AcDbEntity
  8
Ebene 1
 62
   179
420
  1709851
370
    18
100
AcDbVertex
100
AcDb2dVertex
 10
86.6598266384913
 20
-113.5312269138915
 30
0.0
  0
VERTEX
  5
76
330
6B
100
AcDbEntity
  8
Ebene 1
 62
   179
420
  1709851
370
    18
100
AcDbVertex
100
AcDb2dVertex
 10
86.85034041882561
 20
-113.3830878080258
 30
0.0
  0
VERTEX
  5
77
330
6B
100
AcDbEntity
  8
Ebene 1
 62
   179
420
  1709851
370
    18
100
AcDbVertex
100
AcDb2dVertex
 10
86.97729218745707
 20
-113.1712144356829
 30
0.0
  0
VERTEX
  5
78
330
6B
100
AcDbEntity
  8
Ebene 1
 62
   179
420
  1709851
370
    18
100
AcDbVertex
100
AcDb2dVertex
 10
87.04085419915992
 20
-112.91731089842
 30
0.0
  0
VERTEX
  5
79
330
6B
100
AcDbEntity
  8
Ebene 1
 62
   179
420
  1709851
370
    18
100
AcDbVertex
100
AcDb2dVertex
 10
87.04085419915992
 20
-112.89629581596
 30
0.0
  0
SEQEND
  5
7A
330
6B
100
AcDbEntity
  8
Ebene 1
370
    18
  0
POLYLINE
  5
7B
330
1F
100
AcDbEntity
  8
Ebene 1
 62
   179
420
  1709851
370
    18
100
AcDb2dPolyline
 66
     1
 10
0.0
 20
0.0
 30
0.0
  0
VERTEX
  5
7C
330
7B
100
AcDbEntity
  8
Ebene 1
 62
   179
420
  1709851
370
    18
100
AcDbVertex
100
AcDb2dVertex
 10
87.04085419915992
 20
-112.89629581596
 30
0.0
  0
VERTEX
  5
7D
330
7B
100
AcDbEntity
  8
Ebene 1
 62
   179
420
  1709851
370
    18
100
AcDbVertex
100
AcDb2dVertex
 10
86.99847952469136
 20
-112.4728935808228
 30
0.0
  0
VERTEX
  5
7E
330
7B
100
AcDbEntity
  8
Ebene 1
 62
   179
420
  1709851
370
    18
100
AcDbVertex
100
AcDb2dVertex
 10
86.8715277560599
 20
-112.0708509376941
 30
0.0
  0
VERTEX
  5
7F
330
7B
100
AcDbEntity
  8
Ebene 1
 62
   179
420
  1709851
370
    18
100
AcDbVertex
100
AcDb2dVertex
 10
86.6598266384913
 20
-111.6898233770255
 30
0.0
  0
VERTEX
  5
80
330
7B
100
AcDbEntity
  8
Ebene 1
 62
   179
420
  1709851
370
    18
100
AcDbVertex
100
AcDb2dVertex
 10
86.3847357639941
 20
-111.3511704908254
 30
0.0
  0
VERTEX
  5
81
330
7B
100
AcDbEntity
  8
Ebene 1
 62
   179
420
  1709851
370
    18
100
AcDbVertex
100
AcDb2dVertex
 10
86.06709796025406
 20
-111.096922444014
 30
0.0
  0
VERTEX
  5
82
330
7B
100
AcDbEntity
  8
Ebene 1
 62
   179
420
  1709851
370
    18
100
AcDbVertex
100
AcDb2dVertex
 10
85.9613335288569
 20
-111.0335326870854
 30
0.0
  0
SEQEND
  5
83
330
7B
100
AcDbEntity
  8
Ebene 1
370
    18
  0
POLYLINE
  5
84
330
1F
100
AcDbEntity
  8
Ebene 1
 62
   179
420
  1709851
370
    18
100
AcDb2dPolyline
 66
     1
 10
0.0
 20
0.0
 30
0.0
  0
VERTEX
  5
85
330
84
100
AcDbEntity
  8
Ebene 1
 62
   179
420
  1709851
370
    18
100
AcDbVertex
100
AcDb2dVertex
 10
85.9613335288569
 20
-144.392047761211
 30
0.0
  0
VERTEX
  5
86
330
84
100
AcDbEntity
  8
Ebene 1
 62
   179
420
  1709851
370
    18
100
AcDbVertex
100
AcDb2dVertex
 10
85.81319442299115
 20
-144.371032678751
 30
0.0
  0
VERTEX
  5
87
330
84
100
AcDbEntity
  8
Ebene 1
 62
   179
420
  1709851
370
    18
100
AcDbVertex
100
AcDb2dVertex
 10
85.70725773681971
 20
-144.4134073532196
 30
0.0
  0
VERTEX
  5
88
330
84
100
AcDbEntity
  8
Ebene 1
 62
   179
420
  1709851
370
    18
100
AcDbVertex
100
AcDb2dVertex
 10
85.62268064265683
 20
-144.5405313766253
 30
0.0
  0
VERTEX
  5
89
330
84
100
AcDbEntity
  8
Ebene 1
 62
   179
420
  1709851
370
    18
100
AcDbVertex
100
AcDb2dVertex
 10
85.62268064265683
 20
-144.5825615415453
 30
0.0
  0
SEQEND
  5
8A
330
84
100
AcDbEntity
  8
Ebene 1
370
    18
  0
POLYLINE
  5
8B
330
1F
100
AcDbEntity
  8
Ebene 1
 62
   179
420
  1709851
370
    18
100
AcDb2dPolyline
 66
     1
 10
0.0
 20
0.0
 30
0.0
  0
VERTEX
  5
8C
330
8B
100
AcDbEntity
  8
Ebene 1
 62
   179
420
  1709851
370
    18
100
AcDbVertex
100
AcDb2dVertex
 10
85.62268064265683
 20
-144.5825615415453
 30
0.0
  0
VERTEX
  5
8D
330
8B
100
AcDbEntity
  8
Ebene 1
 62
   179
420
  1709851
370
    18
100
AcDbVertex
100
AcDb2dVertex
 10
85.66505531712541
 20
-144.8154499963482
 30
0.0
  0
VERTEX
  5
8E
330
8B
100
AcDbEntity
  8
Ebene 1
 62
   179
420
  1709851
370
    18
100
AcDbVertex
100
AcDb2dVertex
 10
85.79200708575686
 20
-145.0059637766825
 30
0.0
  0
VERTEX
  5
8F
330
8B
100
AcDbEntity
  8
Ebene 1
 62
   179
420
  1709851
370
    18
100
AcDbVertex
100
AcDb2dVertex
 10
85.9613335288569
 20
-145.1541028825483
 30
0.0
  0
VERTEX
  5
90
330
8B
100
AcDbEntity
  8
Ebene 1
 62
   179
420
  1709851
370
    18
100
AcDbVertex
100
AcDb2dVertex
 10
86.08828529748835
 20
-145.1754624745568
 30
0.0
  0
VERTEX
  5
91
330
8B
100
AcDbEntity
  8
Ebene 1
 62
   179
420
  1709851
370
    18
100
AcDbVertex
100
AcDb2dVertex
 10
86.21523706611981
 20
-145.1117282080797
 30
0.0
  0
VERTEX
  5
92
330
8B
100
AcDbEntity
  8
Ebene 1
 62
   179
420
  1709851
370
    18
100
AcDbVertex
100
AcDb2dVertex
 10
86.27879907782267
 20
-145.0059637766825
 30
0.0
  0
VERTEX
  5
93
330
8B
100
AcDbEntity
  8
Ebene 1
 62
   179
420
  1709851
370
    18
100
AcDbVertex
100
AcDb2dVertex
 10
86.27879907782267
 20
-144.963589102214
 30
0.0
  0
SEQEND
  5
94
330
8B
100
AcDbEntity
  8
Ebene 1
370
    18
  0
POLYLINE
  5
95
330
1F
100
AcDbEntity
  8
Ebene 1
 62
   179
420
  1709851
370
    18
100
AcDb2dPolyline
 66
     1
 10
0.0
 20
0.0
 30
0.0
  0
VERTEX
  5
96
330
95
100
AcDbEntity
  8
Ebene 1
 62
   179
420
  1709851
370
    18
100
AcDbVertex
100
AcDb2dVertex
 10
86.27879907782267
 20
-144.963589102214
 30
0.0
  0
VERTEX
  5
97
330
95
100
AcDbEntity
  8
Ebene 1
 62
   179
420
  1709851
370
    18
100
AcDbVertex
100
AcDb2dVertex
 10
86.23642440335409
 20
-144.7310451569596
 30
0.0
  0
VERTEX
  5
98
330
95
100
AcDbEntity
  8
Ebene 1
 62
   179
420
  1709851
370
    18
100
AcDbVertex
100
AcDb2dVertex
 10
86.10947263472264
 20
-144.5191717846167
 30
0.0
  0
VERTEX
  5
99
330
95
100
AcDbEntity
  8
Ebene 1
 62
   179
420
  1709851
370
    18
100
AcDbVertex
100
AcDb2dVertex
 10
85.9613335288569
 20
-144.392047761211
 30
0.0
  0
SEQEND
  5
9A
330
95
100
AcDbEntity
  8
Ebene 1
370
    18
  0
POLYLINE
  5
9B
330
1F
100
AcDbEntity
  8
Ebene 1
 62
   179
420
  1709851
370
    18
100
AcDb2dPolyline
 66
     1
 10
0.0
 20
0.0
 30
0.0
  0
VERTEX
  5
9C
330
9B
100
AcDbEntity
  8
Ebene 1
 62
   179
420
  1709851
370
    18
100
AcDbVertex
100
AcDb2dVertex
 10
85.9613335288569
 20
-143.5242282084766
 30
0.0
  0
VERTEX
  5
9D
330
9B
100
AcDbEntity
  8
Ebene 1
 62
   179
420
  1709851
370
    18
100
AcDbVertex
100
AcDb2dVertex
 10
85.72844507405401
 20
-143.439823369088
 30
0.0
  0
VERTEX
  5
9E
330
9B
100
AcDbEntity
  8
Ebene 1
 62
   179
420
  1709851
370
    18
100
AcDbVertex
100
AcDb2dVertex
 10
85.4745415367911
 20
-143.439823369088
 30
0.0
  0
VERTEX
  5
9F
330
9B
100
AcDbEntity
  8
Ebene 1
 62
   179
420
  1709851
370
    18
100
AcDbVertex
100
AcDb2dVertex
 10
85.2416530819882
 20
-143.5242282084766
 30
0.0
  0
VERTEX
  5
A0
330
9B
100
AcDbEntity
  8
Ebene 1
 62
   179
420
  1709851
370
    18
100
AcDbVertex
100
AcDb2dVertex
 10
85.05113930165389
 20
-143.6727118238909
 30
0.0
  0
VERTEX
  5
A1
330
9B
100
AcDbEntity
  8
Ebene 1
 62
   179
420
  1709851
370
    18
100
AcDbVertex
100
AcDb2dVertex
 10
84.92418753302243
 20
-143.8842406866852
 30
0.0
  0
VERTEX
  5
A2
330
9B
100
AcDbEntity
  8
Ebene 1
 62
   179
420
  1709851
370
    18
100
AcDbVertex
100
AcDb2dVertex
 10
84.86062552131958
 20
-144.1171291414881
 30
0.0
  0
VERTEX
  5
A3
330
9B
100
AcDbEntity
  8
Ebene 1
 62
   179
420
  1709851
370
    18
100
AcDbVertex
100
AcDb2dVertex
 10
84.86062552131958
 20
-144.1381442239481
 30
0.0
  0
SEQEND
  5
A4
330
9B
100
AcDbEntity
  8
Ebene 1
370
    18
  0
POLYLINE
  5
A5
330
1F
100
AcDbEntity
  8
Ebene 1
 62
   179
420
  1709851
370
    18
100
AcDb2dPolyline
 66
     1
 10
0.0
 20
0.0
 30
0.0
  0
VERTEX
  5
A6
330
A5
100
AcDbEntity
  8
Ebene 1
 62
   179
420
  1709851
370
    18
100
AcDbVertex
100
AcDb2dVertex
 10
84.86062552131958
 20
-144.1381442239481
 30
0.0
  0
VERTEX
  5
A7
330
A5
100
AcDbEntity
  8
Ebene 1
 62
   179
420
  1709851
370
    18
100
AcDbVertex
100
AcDb2dVertex
 10
84.90300019578814
 20
-144.5615464590853
 30
0.0
  0
VERTEX
  5
A8
330
A5
100
AcDbEntity
  8
Ebene 1
 62
   179
420
  1709851
370
    18
100
AcDbVertex
100
AcDb2dVertex
 10
85.0299519644196
 20
-144.9849486942225
 30
0.0
  0
VERTEX
  5
A9
330
A5
100
AcDbEntity
  8
Ebene 1
 62
   179
420
  1709851
370
    18
100
AcDbVertex
100
AcDb2dVertex
 10
85.2416530819882
 20
-145.3659762548911
 30
0.0
  0
VERTEX
  5
AA
330
A5
100
AcDbEntity
  8
Ebene 1
 62
   179
420
  1709851
370
    18
100
AcDbVertex
100
AcDb2dVertex
 10
85.5167439564854
 20
-145.6832695490827
 30
0.0
  0
VERTEX
  5
AB
330
A5
100
AcDbEntity
  8
Ebene 1
 62
   179
420
  1709851
370
    18
100
AcDbVertex
100
AcDb2dVertex
 10
85.85556909745972
 20
-145.9585326783541
 30
0.0
  0
VERTEX
  5
AC
330
A5
100
AcDbEntity
  8
Ebene 1
 62
   179
420
  1709851
370
    18
100
AcDbVertex
100
AcDb2dVertex
 10
85.9613335288569
 20
-146.0219224352827
 30
0.0
  0
VERTEX
  5
AD
330
A5
100
AcDbEntity
  8
Ebene 1
 62
   179
420
  1709851
370
    18
100
AcDbVertex
100
AcDb2dVertex
 10
86.19422198365979
 20
-146.1066717842199
 30
0.0
  0
VERTEX
  5
AE
330
A5
100
AcDbEntity
  8
Ebene 1
 62
   179
420
  1709851
370
    18
100
AcDbVertex
100
AcDb2dVertex
 10
86.4269381836884
 20
-146.1066717842199
 30
0.0
  0
VERTEX
  5
AF
330
A5
100
AcDbEntity
  8
Ebene 1
 62
   179
420
  1709851
370
    18
100
AcDbVertex
100
AcDb2dVertex
 10
86.6598266384913
 20
-146.0219224352827
 30
0.0
  0
VERTEX
  5
B0
330
A5
100
AcDbEntity
  8
Ebene 1
 62
   179
420
  1709851
370
    18
100
AcDbVertex
100
AcDb2dVertex
 10
86.85034041882561
 20
-145.873783329417
 30
0.0
  0
VERTEX
  5
B1
330
A5
100
AcDbEntity
  8
Ebene 1
 62
   179
420
  1709851
370
    18
100
AcDbVertex
100
AcDb2dVertex
 10
86.97729218745707
 20
-145.6622544666226
 30
0.0
  0
VERTEX
  5
B2
330
A5
100
AcDbEntity
  8
Ebene 1
 62
   179
420
  1709851
370
    18
100
AcDbVertex
100
AcDb2dVertex
 10
87.04085419915992
 20
-145.4293660118198
 30
0.0
  0
VERTEX
  5
B3
330
A5
100
AcDbEntity
  8
Ebene 1
 62
   179
420
  1709851
370
    18
100
AcDbVertex
100
AcDb2dVertex
 10
87.04085419915992
 20
-145.3869913373512
 30
0.0
  0
SEQEND
  5
B4
330
A5
100
AcDbEntity
  8
Ebene 1
370
    18
  0
POLYLINE
  5
B5
330
1F
100
AcDbEntity
  8
Ebene 1
 62
   179
420
  1709851
370
    18
100
AcDb2dPolyline
 66
     1
 10
0.0
 20
0.0
 30
0.0
  0
VERTEX
  5
B6
330
B5
100
AcDbEntity
  8
Ebene 1
 62
   179
420
  1709851
370
    18
100
AcDbVertex
100
AcDb2dVertex
 10
87.04085419915992
 20
-145.3869913373512
 30
0.0
  0
VERTEX
  5
B7
330
B5
100
AcDbEntity
  8
Ebene 1
 62
   179
420
  1709851
370
    18
100
AcDbVertex
100
AcDb2dVertex
 10
86.99847952469136
 20
-144.963589102214
 30
0.0
  0
VERTEX
  5
B8
330
B5
100
AcDbEntity
  8
Ebene 1
 62
   179
420
  1709851
370
    18
100
AcDbVertex
100
AcDb2dVertex
 10
86.8715277560599
 20
-144.5615464590853
 30
0.0
  0
VERTEX
  5
B9
330
B5
100
AcDbEntity
  8
Ebene 1
 62
   179
420
  1709851
370
    18
100
AcDbVertex
100
AcDb2dVertex
 10
86.6598266384913
 20
-144.1805188984167
 30
0.0
  0
VERTEX
  5
BA
330
B5
100
AcDbEntity
  8
Ebene 1
 62
   179
420
  1709851
370
    18
100
AcDbVertex
100
AcDb2dVertex
 10
86.3847357639941
 20
-143.8628810946767
 30
0.0
  0
VERTEX
  5
BB
330
B5
100
AcDbEntity
  8
Ebene 1
 62
   179
420
  1709851
370
    18
100
AcDbVertex
100
AcDb2dVertex
 10
86.06709796025406
 20
-143.5879624749537
 30
0.0
  0
VERTEX
  5
BC
330
B5
100
AcDbEntity
  8
Ebene 1
 62
   179
420
  1709851
370
    18
100
AcDbVertex
100
AcDb2dVertex
 10
85.9613335288569
 20
-143.5242282084766
 30
0.0
  0
SEQEND
  5
BD
330
B5
100
AcDbEntity
  8
Ebene 1
370
    18
  0
POLYLINE
  5
BE
330
1F
100
AcDbEntity
  8
Ebene 1
 62
   179
420
  1709851
370
    25
100
AcDb2dPolyline
 66
     1
 10
0.0
 20
0.0
 30
0.0
  0
VERTEX
  5
BF
330
BE
100
AcDbEntity
  8
Ebene 1
 62
   179
420
  1709851
370
    25
100
AcDbVertex
100
AcDb2dVertex
 10
104.0375772851885
 20
-159.7800835104022
 30
0.0
  0
VERTEX
  5
C0
330
BE
100
AcDbEntity
  8
Ebene 1
 62
   179
420
  1709851
370
    25
100
AcDbVertex
100
AcDb2dVertex
 10
104.3126681596857
 20
-159.611273831625
 30
0.0
  0
SEQEND
  5
C1
330
BE
100
AcDbEntity
  8
Ebene 1
370
    25
  0
POLYLINE
  5
C2
330
1F
100
AcDbEntity
  8
Ebene 1
 62
   179
420
  1709851
370
    18
100
AcDb2dPolyline
 66
     1
 10
0.0
 20
0.0
 30
0.0
  0
VERTEX
  5
C3
330
C2
100
AcDbEntity
  8
Ebene 1
 62
   179
420
  1709851
370
    18
100
AcDbVertex
100
AcDb2dVertex
 10
96.20601397334434
 20
-159.4838052986707
 30
0.0
  0
VERTEX
  5
C4
330
C2
100
AcDbEntity
  8
Ebene 1
 62
   179
420
  1709851
370
    18
100
AcDbVertex
100
AcDb2dVertex
 10
96.16363929887576
 20
-159.3570257848135
 30
0.0
  0
VERTEX
  5
C5
330
C2
100
AcDbEntity
  8
Ebene 1
 62
   179
420
  1709851
370
    18
100
AcDbVertex
100
AcDb2dVertex
 10
96.05787486747859
 20
-159.2722764358764
 30
0.0
  0
VERTEX
  5
C6
330
C2
100
AcDbEntity
  8
Ebene 1
 62
   179
420
  1709851
370
    18
100
AcDbVertex
100
AcDb2dVertex
 10
95.93092309884713
 20
-159.2722764358764
 30
0.0
  0
VERTEX
  5
C7
330
C2
100
AcDbEntity
  8
Ebene 1
 62
   179
420
  1709851
370
    18
100
AcDbVertex
100
AcDb2dVertex
 10
95.88854842437856
 20
-159.2936360278849
 30
0.0
  0
SEQEND
  5
C8
330
C2
100
AcDbEntity
  8
Ebene 1
370
    18
  0
POLYLINE
  5
C9
330
1F
100
AcDbEntity
  8
Ebene 1
 62
   179
420
  1709851
370
    18
100
AcDb2dPolyline
 66
     1
 10
0.0
 20
0.0
 30
0.0
  0
VERTEX
  5
CA
330
C9
100
AcDbEntity
  8
Ebene 1
 62
   179
420
  1709851
370
    18
100
AcDbVertex
100
AcDb2dVertex
 10
95.88854842437856
 20
-159.2936360278849
 30
0.0
  0
VERTEX
  5
CB
330
C9
100
AcDbEntity
  8
Ebene 1
 62
   179
420
  1709851
370
    18
100
AcDbVertex
100
AcDb2dVertex
 10
95.71922198127854
 20
-159.4417751337507
 30
0.0
  0
VERTEX
  5
CC
330
C9
100
AcDbEntity
  8
Ebene 1
 62
   179
420
  1709851
370
    18
100
AcDbVertex
100
AcDb2dVertex
 10
95.59227021264708
 20
-159.653303996545
 30
0.0
  0
VERTEX
  5
CD
330
C9
100
AcDbEntity
  8
Ebene 1
 62
   179
420
  1709851
370
    18
100
AcDbVertex
100
AcDb2dVertex
 10
95.57108287541278
 20
-159.8648328593393
 30
0.0
  0
VERTEX
  5
CE
330
C9
100
AcDbEntity
  8
Ebene 1
 62
   179
420
  1709851
370
    18
100
AcDbVertex
100
AcDb2dVertex
 10
95.6132852951071
 20
-159.9923013922936
 30
0.0
  0
VERTEX
  5
CF
330
C9
100
AcDbEntity
  8
Ebene 1
 62
   179
420
  1709851
370
    18
100
AcDbVertex
100
AcDb2dVertex
 10
95.71922198127854
 20
-160.0556911492222
 30
0.0
  0
VERTEX
  5
D0
330
C9
100
AcDbEntity
  8
Ebene 1
 62
   179
420
  1709851
370
    18
100
AcDbVertex
100
AcDb2dVertex
 10
95.84617374991
 20
-160.0556911492222
 30
0.0
  0
VERTEX
  5
D1
330
C9
100
AcDbEntity
  8
Ebene 1
 62
   179
420
  1709851
370
    18
100
AcDbVertex
100
AcDb2dVertex
 10
95.88854842437856
 20
-160.0343315572136
 30
0.0
  0
SEQEND
  5
D2
330
C9
100
AcDbEntity
  8
Ebene 1
370
    18
  0
POLYLINE
  5
D3
330
1F
100
AcDbEntity
  8
Ebene 1
 62
   179
420
  1709851
370
    18
100
AcDb2dPolyline
 66
     1
 10
0.0
 20
0.0
 30
0.0
  0
VERTEX
  5
D4
330
D3
100
AcDbEntity
  8
Ebene 1
 62
   179
420
  1709851
370
    18
100
AcDbVertex
100
AcDb2dVertex
 10
95.88854842437856
 20
-160.0343315572136
 30
0.0
  0
VERTEX
  5
D5
330
D3
100
AcDbEntity
  8
Ebene 1
 62
   179
420
  1709851
370
    18
100
AcDbVertex
100
AcDb2dVertex
 10
96.05787486747859
 20
-159.8861924513479
 30
0.0
  0
VERTEX
  5
D6
330
D3
100
AcDbEntity
  8
Ebene 1
 62
   179
420
  1709851
370
    18
100
AcDbVertex
100
AcDb2dVertex
 10
96.18482663611005
 20
-159.6960231805621
 30
0.0
  0
VERTEX
  5
D7
330
D3
100
AcDbEntity
  8
Ebene 1
 62
   179
420
  1709851
370
    18
100
AcDbVertex
100
AcDb2dVertex
 10
96.20601397334434
 20
-159.4838052986707
 30
0.0
  0
SEQEND
  5
D8
330
D3
100
AcDbEntity
  8
Ebene 1
370
    18
  0
POLYLINE
  5
D9
330
1F
100
AcDbEntity
  8
Ebene 1
 62
   179
420
  1709851
370
    18
100
AcDb2dPolyline
 66
     1
 10
0.0
 20
0.0
 30
0.0
  0
VERTEX
  5
DA
330
D9
100
AcDbEntity
  8
Ebene 1
 62
   179
420
  1709851
370
    18
100
AcDbVertex
100
AcDb2dVertex
 10
96.9680690946816
 20
-159.0393879810735
 30
0.0
  0
VERTEX
  5
DB
330
D9
100
AcDbEntity
  8
Ebene 1
 62
   179
420
  1709851
370
    18
100
AcDbVertex
100
AcDb2dVertex
 10
96.92569442021302
 20
-158.8064995262706
 30
0.0
  0
VERTEX
  5
DC
330
D9
100
AcDbEntity
  8
Ebene 1
 62
   179
420
  1709851
370
    18
100
AcDbVertex
100
AcDb2dVertex
 10
96.79874265158156
 20
-158.5949706634763
 30
0.0
  0
VERTEX
  5
DD
330
D9
100
AcDbEntity
  8
Ebene 1
 62
   179
420
  1709851
370
    18
100
AcDbVertex
100
AcDb2dVertex
 10
96.62941620848154
 20
-158.425471965602
 30
0.0
  0
VERTEX
  5
DE
330
D9
100
AcDbEntity
  8
Ebene 1
 62
   179
420
  1709851
370
    18
100
AcDbVertex
100
AcDb2dVertex
 10
96.39652775367865
 20
-158.3407226166648
 30
0.0
  0
VERTEX
  5
DF
330
D9
100
AcDbEntity
  8
Ebene 1
 62
   179
420
  1709851
370
    18
100
AcDbVertex
100
AcDb2dVertex
 10
96.14245196164147
 20
-158.3200520437533
 30
0.0
  0
VERTEX
  5
E0
330
D9
100
AcDbEntity
  8
Ebene 1
 62
   179
420
  1709851
370
    18
100
AcDbVertex
100
AcDb2dVertex
 10
95.90973576161285
 20
-158.4048013926905
 30
0.0
  0
VERTEX
  5
E1
330
D9
100
AcDbEntity
  8
Ebene 1
 62
   179
420
  1709851
370
    18
100
AcDbVertex
100
AcDb2dVertex
 10
95.88854842437856
 20
-158.425471965602
 30
0.0
  0
SEQEND
  5
E2
330
D9
100
AcDbEntity
  8
Ebene 1
370
    18
  0
POLYLINE
  5
E3
330
1F
100
AcDbEntity
  8
Ebene 1
 62
   179
420
  1709851
370
    18
100
AcDb2dPolyline
 66
     1
 10
0.0
 20
0.0
 30
0.0
  0
VERTEX
  5
E4
330
E3
100
AcDbEntity
  8
Ebene 1
 62
   179
420
  1709851
370
    18
100
AcDbVertex
100
AcDb2dVertex
 10
95.88854842437856
 20
-158.425471965602
 30
0.0
  0
VERTEX
  5
E5
330
E3
100
AcDbEntity
  8
Ebene 1
 62
   179
420
  1709851
370
    18
100
AcDbVertex
100
AcDb2dVertex
 10
95.5498955381785
 20
-158.6583604204049
 30
0.0
  0
VERTEX
  5
E6
330
E3
100
AcDbEntity
  8
Ebene 1
 62
   179
420
  1709851
370
    18
100
AcDbVertex
100
AcDb2dVertex
 10
95.25344507167276
 20
-158.9759982241449
 30
0.0
  0
VERTEX
  5
E7
330
E3
100
AcDbEntity
  8
Ebene 1
 62
   179
420
  1709851
370
    18
100
AcDbVertex
100
AcDb2dVertex
 10
95.02072887164412
 20
-159.335666192805
 30
0.0
  0
VERTEX
  5
E8
330
E3
100
AcDbEntity
  8
Ebene 1
 62
   179
420
  1709851
370
    18
100
AcDbVertex
100
AcDb2dVertex
 10
94.87258976577839
 20
-159.7380533454822
 30
0.0
  0
VERTEX
  5
E9
330
E3
100
AcDbEntity
  8
Ebene 1
 62
   179
420
  1709851
370
    18
100
AcDbVertex
100
AcDb2dVertex
 10
94.80902775407553
 20
-160.1611110710708
 30
0.0
  0
VERTEX
  5
EA
330
E3
100
AcDbEntity
  8
Ebene 1
 62
   179
420
  1709851
370
    18
100
AcDbVertex
100
AcDb2dVertex
 10
94.80902775407553
 20
-160.2885796040251
 30
0.0
  0
VERTEX
  5
EB
330
E3
100
AcDbEntity
  8
Ebene 1
 62
   179
420
  1709851
370
    18
100
AcDbVertex
100
AcDb2dVertex
 10
94.85140242854409
 20
-160.5421386317395
 30
0.0
  0
VERTEX
  5
EC
330
E3
100
AcDbEntity
  8
Ebene 1
 62
   179
420
  1709851
370
    18
100
AcDbVertex
100
AcDb2dVertex
 10
94.97835419717555
 20
-160.7543565136309
 30
0.0
  0
VERTEX
  5
ED
330
E3
100
AcDbEntity
  8
Ebene 1
 62
   179
420
  1709851
370
    18
100
AcDbVertex
100
AcDb2dVertex
 10
95.14768064027558
 20
-160.9024956194966
 30
0.0
  0
VERTEX
  5
EE
330
E3
100
AcDbEntity
  8
Ebene 1
 62
   179
420
  1709851
370
    18
100
AcDbVertex
100
AcDb2dVertex
 10
95.38056909507847
 20
-161.0079155413453
 30
0.0
  0
VERTEX
  5
EF
330
E3
100
AcDbEntity
  8
Ebene 1
 62
   179
420
  1709851
370
    18
100
AcDbVertex
100
AcDb2dVertex
 10
95.63447263234139
 20
-161.0079155413453
 30
0.0
  0
VERTEX
  5
F0
330
E3
100
AcDbEntity
  8
Ebene 1
 62
   179
420
  1709851
370
    18
100
AcDbVertex
100
AcDb2dVertex
 10
95.86736108714427
 20
-160.9231661924081
 30
0.0
  0
VERTEX
  5
F1
330
E3
100
AcDbEntity
  8
Ebene 1
 62
   179
420
  1709851
370
    18
100
AcDbVertex
100
AcDb2dVertex
 10
95.88854842437856
 20
-160.9231661924081
 30
0.0
  0
SEQEND
  5
F2
330
E3
100
AcDbEntity
  8
Ebene 1
370
    18
  0
POLYLINE
  5
F3
330
1F
100
AcDbEntity
  8
Ebene 1
 62
   179
420
  1709851
370
    18
100
AcDb2dPolyline
 66
     1
 10
0.0
 20
0.0
 30
0.0
  0
VERTEX
  5
F4
330
F3
100
AcDbEntity
  8
Ebene 1
 62
   179
420
  1709851
370
    18
100
AcDbVertex
100
AcDb2dVertex
 10
95.88854842437856
 20
-160.9231661924081
 30
0.0
  0
VERTEX
  5
F5
330
F3
100
AcDbEntity
  8
Ebene 1
 62
   179
420
  1709851
370
    18
100
AcDbVertex
100
AcDb2dVertex
 10
96.22720131057862
 20
-160.6696071646937
 30
0.0
  0
VERTEX
  5
F6
330
F3
100
AcDbEntity
  8
Ebene 1
 62
   179
420
  1709851
370
    18
100
AcDbVertex
100
AcDb2dVertex
 10
96.52347952231011
 20
-160.3519693609537
 30
0.0
  0
VERTEX
  5
F7
330
F3
100
AcDbEntity
  8
Ebene 1
 62
   179
420
  1709851
370
    18
100
AcDbVertex
100
AcDb2dVertex
 10
96.756367977113
 20
-159.9923013922936
 30
0.0
  0
VERTEX
  5
F8
330
F3
100
AcDbEntity
  8
Ebene 1
 62
   179
420
  1709851
370
    18
100
AcDbVertex
100
AcDb2dVertex
 10
96.90450708297874
 20
-159.5899142396164
 30
0.0
  0
VERTEX
  5
F9
330
F3
100
AcDbEntity
  8
Ebene 1
 62
   179
420
  1709851
370
    18
100
AcDbVertex
100
AcDb2dVertex
 10
96.9680690946816
 20
-159.1668565140277
 30
0.0
  0
VERTEX
  5
FA
330
F3
100
AcDbEntity
  8
Ebene 1
 62
   179
420
  1709851
370
    18
100
AcDbVertex
100
AcDb2dVertex
 10
96.9680690946816
 20
-159.0393879810735
 30
0.0
  0
SEQEND
  5
FB
330
F3
100
AcDbEntity
  8
Ebene 1
370
    18
  0
INSERT
  5
FD
330
1F
100
AcDbEntity
  8
Ebene 1
100
AcDbBlockReference
  2
block 2
 10
0.0
 20
0.0
 30
0.0
  0
POLYLINE
  5
3B9
330
1F
100
AcDbEntity
  8
Ebene 1
 62
   179
420
  1709851
370
    18
100
AcDb2dPolyline
 66
     1
 10
0.0
 20
0.0
 30
0.0
  0
VERTEX
  5
3BA
330
3B9
100
AcDbEntity
  8
Ebene 1
 62
   179
420
  1709851
370
    18
100
AcDbVertex
100
AcDb2dVertex
 10
126.9820854717267
 20
-136.6026868690611
 30
0.0
  0
VERTEX
  5
3BB
330
3B9
100
AcDbEntity
  8
Ebene 1
 62
   179
420
  1709851
370
    18
100
AcDbVertex
100
AcDb2dVertex
 10
128.7177245771956
 20
-135.6080878024695
 30
0.0
  0
SEQEND
  5
3BC
330
3B9
100
AcDbEntity
  8
Ebene 1
370
    18
  0
POLYLINE
  5
3BD
330
1F
100
AcDbEntity
  8
Ebene 1
 62
   179
420
  1709851
370
    18
100
AcDb2dPolyline
 66
     1
 10
0.0
 20
0.0
 30
0.0
  0
VERTEX
  5
3BE
330
3BD
100
AcDbEntity
  8
Ebene 1
 62
   179
420
  1709851
370
    18
100
AcDbVertex
100
AcDb2dVertex
 10
123.0030001862632
 20
-150.2550835127835
 30
0.0
  0
VERTEX
  5
3BF
330
3BD
100
AcDbEntity
  8
Ebene 1
 62
   179
420
  1709851
370
    18
100
AcDbVertex
100
AcDb2dVertex
 10
123.6803059586633
 20
-150.6574706654606
 30
0.0
  0
SEQEND
  5
3C0
330
3BD
100
AcDbEntity
  8
Ebene 1
370
    18
  0
POLYLINE
  5
3C1
330
1F
100
AcDbEntity
  8
Ebene 1
 62
   179
420
  1709851
370
    18
100
AcDb2dPolyline
 66
     1
 10
0.0
 20
0.0
 30
0.0
  0
VERTEX
  5
3C2
330
3C1
100
AcDbEntity
  8
Ebene 1
 62
   179
420
  1709851
370
    18
100
AcDbVertex
100
AcDb2dVertex
 10
120.3998860376084
 20
-148.7525051168917
 30
0.0
  0
VERTEX
  5
3C3
330
3C1
100
AcDbEntity
  8
Ebene 1
 62
   179
420
  1709851
370
    18
100
AcDbVertex
100
AcDb2dVertex
 10
122.1355251430772
 20
-149.7686360302662
 30
0.0
  0
SEQEND
  5
3C4
330
3C1
100
AcDbEntity
  8
Ebene 1
370
    18
  0
POLYLINE
  5
3C5
330
1F
100
AcDbEntity
  8
Ebene 1
 62
   179
420
  1709851
370
    18
100
AcDb2dPolyline
 66
     1
 10
0.0
 20
0.0
 30
0.0
  0
VERTEX
  5
3C6
330
3C5
100
AcDbEntity
  8
Ebene 1
 62
   179
420
  1709851
370
    18
100
AcDbVertex
100
AcDb2dVertex
 10
124.9928873385435
 20
-148.1599486934288
 30
0.0
  0
VERTEX
  5
3C7
330
3C5
100
AcDbEntity
  8
Ebene 1
 62
   179
420
  1709851
370
    18
100
AcDbVertex
100
AcDb2dVertex
 10
124.9928873385435
 20
-148.1599486934288
 30
0.0
  0
VERTEX
  5
3C8
330
3C5
100
AcDbEntity
  8
Ebene 1
 62
   179
420
  1709851
370
    18
100
AcDbVertex
100
AcDb2dVertex
 10
126.1359700205494
 20
-148.8158948738203
 30
0.0
  0
SEQEND
  5
3C9
330
3C5
100
AcDbEntity
  8
Ebene 1
370
    18
  0
POLYLINE
  5
3CA
330
1F
100
AcDbEntity
  8
Ebene 1
 62
   179
420
  1709851
370
    18
100
AcDb2dPolyline
 66
     1
 10
0.0
 20
0.0
 30
0.0
  0
VERTEX
  5
3CB
330
3CA
100
AcDbEntity
  8
Ebene 1
 62
   179
420
  1709851
370
    18
100
AcDbVertex
100
AcDb2dVertex
 10
120.3358072615827
 20
-148.7097859328746
 30
0.0
  0
VERTEX
  5
3CC
330
3CA
100
AcDbEntity
  8
Ebene 1
 62
   179
420
  1709851
370
    18
100
AcDbVertex
100
AcDb2dVertex
 10
120.3358072615827
 20
-148.7097859328746
 30
0.0
  0
VERTEX
  5
3CD
330
3CA
100
AcDbEntity
  8
Ebene 1
 62
   179
420
  1709851
370
    18
100
AcDbVertex
100
AcDb2dVertex
 10
120.3358072615827
 20
-147.3345038151629
 30
0.0
  0
SEQEND
  5
3CE
330
3CA
100
AcDbEntity
  8
Ebene 1
370
    18
  0
POLYLINE
  5
3CF
330
1F
100
AcDbEntity
  8
Ebene 1
 62
   179
420
  1709851
370
    18
100
AcDb2dPolyline
 66
     1
 10
0.0
 20
0.0
 30
0.0
  0
VERTEX
  5
3D0
330
3CF
100
AcDbEntity
  8
Ebene 1
 62
   179
420
  1709851
370
    18
100
AcDbVertex
100
AcDb2dVertex
 10
120.9924424610713
 20
-147.736201948743
 30
0.0
  0
VERTEX
  5
3D1
330
3CF
100
AcDbEntity
  8
Ebene 1
 62
   179
420
  1709851
370
    18
100
AcDbVertex
100
AcDb2dVertex
 10
121.3100802648114
 20
-147.9053561370688
 30
0.0
  0
SEQEND
  5
3D2
330
3CF
100
AcDbEntity
  8
Ebene 1
370
    18
  0
POLYLINE
  5
3D3
330
1F
100
AcDbEntity
  8
Ebene 1
 62
   179
420
  1709851
370
    18
100
AcDb2dPolyline
 66
     1
 10
0.0
 20
0.0
 30
0.0
  0
VERTEX
  5
3D4
330
3D3
100
AcDbEntity
  8
Ebene 1
 62
   179
420
  1709851
370
    18
100
AcDbVertex
100
AcDb2dVertex
 10
121.3100802648114
 20
-148.7731756898033
 30
0.0
  0
VERTEX
  5
3D5
330
3D3
100
AcDbEntity
  8
Ebene 1
 62
   179
420
  1709851
370
    18
100
AcDbVertex
100
AcDb2dVertex
 10
121.3100802648114
 20
-147.9053561370688
 30
0.0
  0
SEQEND
  5
3D6
330
3D3
100
AcDbEntity
  8
Ebene 1
370
    18
  0
POLYLINE
  5
3D7
330
1F
100
AcDbEntity
  8
Ebene 1
 62
   179
420
  1709851
370
    18
100
AcDb2dPolyline
 66
     1
 10
0.0
 20
0.0
 30
0.0
  0
VERTEX
  5
3D8
330
3D7
100
AcDbEntity
  8
Ebene 1
 62
   179
420
  1709851
370
    18
100
AcDbVertex
100
AcDb2dVertex
 10
123.214873558606
 20
-149.8740559521148
 30
0.0
  0
VERTEX
  5
3D9
330
3D7
100
AcDbEntity
  8
Ebene 1
 62
   179
420
  1709851
370
    18
100
AcDbVertex
100
AcDb2dVertex
 10
124.125067785809
 20
-150.4032226186492
 30
0.0
  0
SEQEND
  5
3DA
330
3D7
100
AcDbEntity
  8
Ebene 1
370
    18
  0
POLYLINE
  5
3DB
330
1F
100
AcDbEntity
  8
Ebene 1
 62
   179
420
  1709851
370
    18
100
AcDb2dPolyline
 66
     1
 10
0.0
 20
0.0
 30
0.0
  0
VERTEX
  5
3DC
330
3DB
100
AcDbEntity
  8
Ebene 1
 62
   179
420
  1709851
370
    18
100
AcDbVertex
100
AcDb2dVertex
 10
121.3100802648114
 20
-148.7731756898033
 30
0.0
  0
VERTEX
  5
3DD
330
3DB
100
AcDbEntity
  8
Ebene 1
 62
   179
420
  1709851
370
    18
100
AcDbVertex
100
AcDb2dVertex
 10
121.3100802648114
 20
-148.7731756898033
 30
0.0
  0
VERTEX
  5
3DE
330
3DB
100
AcDbEntity
  8
Ebene 1
 62
   179
420
  1709851
370
    18
100
AcDbVertex
100
AcDb2dVertex
 10
122.3470540058716
 20
-149.3869194505005
 30
0.0
  0
SEQEND
  5
3DF
330
3DB
100
AcDbEntity
  8
Ebene 1
370
    18
  0
POLYLINE
  5
3E0
330
1F
100
AcDbEntity
  8
Ebene 1
 62
   179
420
  1709851
370
    18
100
AcDb2dPolyline
 66
     1
 10
0.0
 20
0.0
 30
0.0
  0
VERTEX
  5
3E1
330
3E0
100
AcDbEntity
  8
Ebene 1
 62
   179
420
  1709851
370
    18
100
AcDbVertex
100
AcDb2dVertex
 10
124.5484700209462
 20
-148.9638617249118
 30
0.0
  0
VERTEX
  5
3E2
330
3E0
100
AcDbEntity
  8
Ebene 1
 62
   179
420
  1709851
370
    18
100
AcDbVertex
100
AcDb2dVertex
 10
124.5484700209462
 20
-147.397549062543
 30
0.0
  0
SEQEND
  5
3E3
330
3E0
100
AcDbEntity
  8
Ebene 1
370
    18
  0
POLYLINE
  5
3E4
330
1F
100
AcDbEntity
  8
Ebene 1
 62
   179
420
  1709851
370
    18
100
AcDb2dPolyline
 66
     1
 10
0.0
 20
0.0
 30
0.0
  0
VERTEX
  5
3E5
330
3E4
100
AcDbEntity
  8
Ebene 1
 62
   179
420
  1709851
370
    18
100
AcDbVertex
100
AcDb2dVertex
 10
124.5484700209462
 20
-150.1489745718378
 30
0.0
  0
VERTEX
  5
3E6
330
3E4
100
AcDbEntity
  8
Ebene 1
 62
   179
420
  1709851
370
    18
100
AcDbVertex
100
AcDb2dVertex
 10
124.5484700209462
 20
-150.1489745718378
 30
0.0
  0
VERTEX
  5
3E7
330
3E4
100
AcDbEntity
  8
Ebene 1
 62
   179
420
  1709851
370
    18
100
AcDbVertex
100
AcDb2dVertex
 10
124.5484700209462
 20
-149.9801648930605
 30
0.0
  0
SEQEND
  5
3E8
330
3E4
100
AcDbEntity
  8
Ebene 1
370
    18
  0
POLYLINE
  5
3E9
330
1F
100
AcDbEntity
  8
Ebene 1
 62
   179
420
  1709851
370
    18
100
AcDb2dPolyline
 66
     1
 10
0.0
 20
0.0
 30
0.0
  0
VERTEX
  5
3EA
330
3E9
100
AcDbEntity
  8
Ebene 1
 62
   179
420
  1709851
370
    18
100
AcDbVertex
100
AcDb2dVertex
 10
124.6332193698834
 20
-147.4399237370116
 30
0.0
  0
VERTEX
  5
3EB
330
3E9
100
AcDbEntity
  8
Ebene 1
 62
   179
420
  1709851
370
    18
100
AcDbVertex
100
AcDb2dVertex
 10
126.1566405934608
 20
-148.328758372206
 30
0.0
  0
SEQEND
  5
3EC
330
3E9
100
AcDbEntity
  8
Ebene 1
370
    18
  0
POLYLINE
  5
3ED
330
1F
100
AcDbEntity
  8
Ebene 1
 62
   179
420
  1709851
370
    18
100
AcDb2dPolyline
 66
     1
 10
0.0
 20
0.0
 30
0.0
  0
VERTEX
  5
3EE
330
3ED
100
AcDbEntity
  8
Ebene 1
 62
   179
420
  1709851
370
    18
100
AcDbVertex
100
AcDb2dVertex
 10
126.1569851030094
 20
-139.9678561390532
 30
0.0
  0
VERTEX
  5
3EF
330
3ED
100
AcDbEntity
  8
Ebene 1
 62
   179
420
  1709851
370
    18
100
AcDbVertex
100
AcDb2dVertex
 10
126.1569851030094
 20
-137.9786580058699
 30
0.0
  0
SEQEND
  5
3F0
330
3ED
100
AcDbEntity
  8
Ebene 1
370
    18
  0
POLYLINE
  5
3F1
330
1F
100
AcDbEntity
  8
Ebene 1
 62
   179
420
  1709851
370
    18
100
AcDb2dPolyline
 66
     1
 10
0.0
 20
0.0
 30
0.0
  0
VERTEX
  5
3F2
330
3F1
100
AcDbEntity
  8
Ebene 1
 62
   179
420
  1709851
370
    18
100
AcDbVertex
100
AcDb2dVertex
 10
126.1569851030094
 20
-142.9737019499337
 30
0.0
  0
VERTEX
  5
3F3
330
3F1
100
AcDbEntity
  8
Ebene 1
 62
   179
420
  1709851
370
    18
100
AcDbVertex
100
AcDb2dVertex
 10
126.1569851030094
 20
-140.9845038167504
 30
0.0
  0
SEQEND
  5
3F4
330
3F1
100
AcDbEntity
  8
Ebene 1
370
    18
  0
POLYLINE
  5
3F5
330
1F
100
AcDbEntity
  8
Ebene 1
 62
   179
420
  1709851
370
    18
100
AcDb2dPolyline
 66
     1
 10
0.0
 20
0.0
 30
0.0
  0
VERTEX
  5
3F6
330
3F5
100
AcDbEntity
  8
Ebene 1
 62
   179
420
  1709851
370
    18
100
AcDbVertex
100
AcDb2dVertex
 10
126.1569851030094
 20
-143.9896606085339
 30
0.0
  0
VERTEX
  5
3F7
330
3F5
100
AcDbEntity
  8
Ebene 1
 62
   179
420
  1709851
370
    18
100
AcDbVertex
100
AcDb2dVertex
 10
126.1569851030094
 20
-143.9896606085339
 30
0.0
  0
VERTEX
  5
3F8
330
3F5
100
AcDbEntity
  8
Ebene 1
 62
   179
420
  1709851
370
    18
100
AcDbVertex
100
AcDb2dVertex
 10
126.1569851030094
 20
-143.9686455260738
 30
0.0
  0
SEQEND
  5
3F9
330
3F5
100
AcDbEntity
  8
Ebene 1
370
    18
  0
POLYLINE
  5
3FA
330
1F
100
AcDbEntity
  8
Ebene 1
 62
   179
420
  1709851
370
    18
100
AcDb2dPolyline
 66
     1
 10
0.0
 20
0.0
 30
0.0
  0
VERTEX
  5
3FB
330
3FA
100
AcDbEntity
  8
Ebene 1
 62
   179
420
  1709851
370
    18
100
AcDbVertex
100
AcDb2dVertex
 10
126.1569851030094
 20
-148.328758372206
 30
0.0
  0
VERTEX
  5
3FC
330
3FA
100
AcDbEntity
  8
Ebene 1
 62
   179
420
  1709851
370
    18
100
AcDbVertex
100
AcDb2dVertex
 10
126.1569851030094
 20
-148.328758372206
 30
0.0
  0
VERTEX
  5
3FD
330
3FA
100
AcDbEntity
  8
Ebene 1
 62
   179
420
  1709851
370
    18
100
AcDbVertex
100
AcDb2dVertex
 10
126.1569851030094
 20
-146.9744913369543
 30
0.0
  0
SEQEND
  5
3FE
330
3FA
100
AcDbEntity
  8
Ebene 1
370
    18
  0
POLYLINE
  5
3FF
330
1F
100
AcDbEntity
  8
Ebene 1
 62
   179
420
  1709851
370
    18
100
AcDb2dPolyline
 66
     1
 10
0.0
 20
0.0
 30
0.0
  0
VERTEX
  5
400
330
3FF
100
AcDbEntity
  8
Ebene 1
 62
   179
420
  1709851
370
    18
100
AcDbVertex
100
AcDb2dVertex
 10
124.2521918092147
 20
-136.0945352849868
 30
0.0
  0
VERTEX
  5
401
330
3FF
100
AcDbEntity
  8
Ebene 1
 62
   179
420
  1709851
370
    18
100
AcDbVertex
100
AcDb2dVertex
 10
125.966471322675
 20
-137.110493943587
 30
0.0
  0
SEQEND
  5
402
330
3FF
100
AcDbEntity
  8
Ebene 1
370
    18
  0
POLYLINE
  5
403
330
1F
100
AcDbEntity
  8
Ebene 1
 62
   179
420
  1709851
370
    18
100
AcDb2dPolyline
 66
     1
 10
0.0
 20
0.0
 30
0.0
  0
VERTEX
  5
404
330
403
100
AcDbEntity
  8
Ebene 1
 62
   179
420
  1709851
370
    18
100
AcDbVertex
100
AcDb2dVertex
 10
121.6483886414629
 20
-134.6131442263294
 30
0.0
  0
VERTEX
  5
405
330
403
100
AcDbEntity
  8
Ebene 1
 62
   179
420
  1709851
370
    18
100
AcDbVertex
100
AcDb2dVertex
 10
123.3840277469318
 20
-135.607743292921
 30
0.0
  0
SEQEND
  5
406
330
403
100
AcDbEntity
  8
Ebene 1
370
    18
  0
POLYLINE
  5
407
330
1F
100
AcDbEntity
  8
Ebene 1
 62
   179
420
  1709851
370
    18
100
AcDb2dPolyline
 66
     1
 10
0.0
 20
0.0
 30
0.0
  0
VERTEX
  5
408
330
407
100
AcDbEntity
  8
Ebene 1
 62
   179
420
  1709851
370
    18
100
AcDbVertex
100
AcDb2dVertex
 10
120.6534450653228
 20
-134.0412583757779
 30
0.0
  0
VERTEX
  5
409
330
407
100
AcDbEntity
  8
Ebene 1
 62
   179
420
  1709851
370
    18
100
AcDbVertex
100
AcDb2dVertex
 10
120.780913598277
 20
-134.1053371518035
 30
0.0
  0
SEQEND
  5
40A
330
407
100
AcDbEntity
  8
Ebene 1
370
    18
  0
POLYLINE
  5
40B
330
1F
100
AcDbEntity
  8
Ebene 1
 62
   179
420
  1709851
370
    18
100
AcDb2dPolyline
 66
     1
 10
0.0
 20
0.0
 30
0.0
  0
VERTEX
  5
40C
330
40B
100
AcDbEntity
  8
Ebene 1
 62
   179
420
  1709851
370
    18
100
AcDbVertex
100
AcDb2dVertex
 10
120.6534450653228
 20
-136.538952602584
 30
0.0
  0
VERTEX
  5
40D
330
40B
100
AcDbEntity
  8
Ebene 1
 62
   179
420
  1709851
370
    18
100
AcDbVertex
100
AcDb2dVertex
 10
120.6534450653228
 20
-134.9728121949894
 30
0.0
  0
SEQEND
  5
40E
330
40B
100
AcDbEntity
  8
Ebene 1
370
    18
  0
POLYLINE
  5
40F
330
1F
100
AcDbEntity
  8
Ebene 1
 62
   179
420
  1709851
370
    18
100
AcDb2dPolyline
 66
     1
 10
0.0
 20
0.0
 30
0.0
  0
VERTEX
  5
410
330
40F
100
AcDbEntity
  8
Ebene 1
 62
   179
420
  1709851
370
    18
100
AcDbVertex
100
AcDb2dVertex
 10
120.2303873397341
 20
-133.9778686188493
 30
0.0
  0
VERTEX
  5
411
330
40F
100
AcDbEntity
  8
Ebene 1
 62
   179
420
  1709851
370
    18
100
AcDbVertex
100
AcDb2dVertex
 10
120.2303873397341
 20
-133.1524237405834
 30
0.0
  0
SEQEND
  5
412
330
40F
100
AcDbEntity
  8
Ebene 1
370
    18
  0
POLYLINE
  5
413
330
1F
100
AcDbEntity
  8
Ebene 1
 62
   179
420
  1709851
370
    18
100
AcDb2dPolyline
 66
     1
 10
0.0
 20
0.0
 30
0.0
  0
VERTEX
  5
414
330
413
100
AcDbEntity
  8
Ebene 1
 62
   179
420
  1709851
370
    18
100
AcDbVertex
100
AcDb2dVertex
 10
120.2303873397341
 20
-136.8989650807926
 30
0.0
  0
VERTEX
  5
415
330
413
100
AcDbEntity
  8
Ebene 1
 62
   179
420
  1709851
370
    18
100
AcDbVertex
100
AcDb2dVertex
 10
120.2303873397341
 20
-136.8989650807926
 30
0.0
  0
VERTEX
  5
416
330
413
100
AcDbEntity
  8
Ebene 1
 62
   179
420
  1709851
370
    18
100
AcDbVertex
100
AcDb2dVertex
 10
120.2303873397341
 20
-134.9728121949894
 30
0.0
  0
SEQEND
  5
417
330
413
100
AcDbEntity
  8
Ebene 1
370
    18
  0
POLYLINE
  5
418
330
1F
100
AcDbEntity
  8
Ebene 1
 62
   179
420
  1709851
370
    18
100
AcDb2dPolyline
 66
     1
 10
0.0
 20
0.0
 30
0.0
  0
VERTEX
  5
419
330
418
100
AcDbEntity
  8
Ebene 1
 62
   179
420
  1709851
370
    18
100
AcDbVertex
100
AcDb2dVertex
 10
124.5057508369291
 20
-135.628758375381
 30
0.0
  0
VERTEX
  5
41A
330
418
100
AcDbEntity
  8
Ebene 1
 62
   179
420
  1709851
370
    18
100
AcDbVertex
100
AcDb2dVertex
 10
126.2417344519465
 20
-136.6447170339812
 30
0.0
  0
SEQEND
  5
41B
330
418
100
AcDbEntity
  8
Ebene 1
370
    18
  0
POLYLINE
  5
41C
330
1F
100
AcDbEntity
  8
Ebene 1
 62
   179
420
  1709851
370
    18
100
AcDb2dPolyline
 66
     1
 10
0.0
 20
0.0
 30
0.0
  0
VERTEX
  5
41D
330
41C
100
AcDbEntity
  8
Ebene 1
 62
   179
420
  1709851
370
    18
100
AcDbVertex
100
AcDb2dVertex
 10
121.9233072611858
 20
-134.126007724715
 30
0.0
  0
VERTEX
  5
41E
330
41C
100
AcDbEntity
  8
Ebene 1
 62
   179
420
  1709851
370
    18
100
AcDbVertex
100
AcDb2dVertex
 10
123.6592908762032
 20
-135.1423108928637
 30
0.0
  0
SEQEND
  5
41F
330
41C
100
AcDbEntity
  8
Ebene 1
370
    18
  0
POLYLINE
  5
420
330
1F
100
AcDbEntity
  8
Ebene 1
 62
   179
420
  1709851
370
    18
100
AcDb2dPolyline
 66
     1
 10
0.0
 20
0.0
 30
0.0
  0
VERTEX
  5
421
330
420
100
AcDbEntity
  8
Ebene 1
 62
   179
420
  1709851
370
    18
100
AcDbVertex
100
AcDb2dVertex
 10
120.2303873397341
 20
-133.1524237405834
 30
0.0
  0
VERTEX
  5
422
330
420
100
AcDbEntity
  8
Ebene 1
 62
   179
420
  1709851
370
    18
100
AcDbVertex
100
AcDb2dVertex
 10
120.2303873397341
 20
-133.1524237405834
 30
0.0
  0
VERTEX
  5
423
330
420
100
AcDbEntity
  8
Ebene 1
 62
   179
420
  1709851
370
    18
100
AcDbVertex
100
AcDb2dVertex
 10
121.0554877084514
 20
-133.6392157326492
 30
0.0
  0
SEQEND
  5
424
330
420
100
AcDbEntity
  8
Ebene 1
370
    18
  0
POLYLINE
  5
425
330
1F
100
AcDbEntity
  8
Ebene 1
 62
   179
420
  1709851
370
    18
100
AcDb2dPolyline
 66
     1
 10
0.0
 20
0.0
 30
0.0
  0
VERTEX
  5
426
330
425
100
AcDbEntity
  8
Ebene 1
 62
   179
420
  1709851
370
    18
100
AcDbVertex
100
AcDb2dVertex
 10
126.5803873381466
 20
-136.9833699201812
 30
0.0
  0
VERTEX
  5
427
330
425
100
AcDbEntity
  8
Ebene 1
 62
   179
420
  1709851
370
    18
100
AcDbVertex
100
AcDb2dVertex
 10
126.5803873381466
 20
-136.8352308143155
 30
0.0
  0
SEQEND
  5
428
330
425
100
AcDbEntity
  8
Ebene 1
370
    18
  0
POLYLINE
  5
429
330
1F
100
AcDbEntity
  8
Ebene 1
 62
   179
420
  1709851
370
    18
100
AcDb2dPolyline
 66
     1
 10
0.0
 20
0.0
 30
0.0
  0
VERTEX
  5
42A
330
429
100
AcDbEntity
  8
Ebene 1
 62
   179
420
  1709851
370
    18
100
AcDbVertex
100
AcDb2dVertex
 10
126.5803873381466
 20
-139.9678561390532
 30
0.0
  0
VERTEX
  5
42B
330
429
100
AcDbEntity
  8
Ebene 1
 62
   179
420
  1709851
370
    18
100
AcDbVertex
100
AcDb2dVertex
 10
126.5803873381466
 20
-137.9786580058699
 30
0.0
  0
SEQEND
  5
42C
330
429
100
AcDbEntity
  8
Ebene 1
370
    18
  0
POLYLINE
  5
42D
330
1F
100
AcDbEntity
  8
Ebene 1
 62
   179
420
  1709851
370
    18
100
AcDb2dPolyline
 66
     1
 10
0.0
 20
0.0
 30
0.0
  0
VERTEX
  5
42E
330
42D
100
AcDbEntity
  8
Ebene 1
 62
   179
420
  1709851
370
    18
100
AcDbVertex
100
AcDb2dVertex
 10
126.5803873381466
 20
-142.3811455264707
 30
0.0
  0
VERTEX
  5
42F
330
42D
100
AcDbEntity
  8
Ebene 1
 62
   179
420
  1709851
370
    18
100
AcDbVertex
100
AcDb2dVertex
 10
126.5803873381466
 20
-140.9845038167504
 30
0.0
  0
SEQEND
  5
430
330
42D
100
AcDbEntity
  8
Ebene 1
370
    18
  0
POLYLINE
  5
431
330
1F
100
AcDbEntity
  8
Ebene 1
 62
   179
420
  1709851
370
    18
100
AcDb2dPolyline
 66
     1
 10
0.0
 20
0.0
 30
0.0
  0
VERTEX
  5
432
330
431
100
AcDbEntity
  8
Ebene 1
 62
   179
420
  1709851
370
    18
100
AcDbVertex
100
AcDb2dVertex
 10
126.5803873381466
 20
-148.9638617249118
 30
0.0
  0
VERTEX
  5
433
330
431
100
AcDbEntity
  8
Ebene 1
 62
   179
420
  1709851
370
    18
100
AcDbVertex
100
AcDb2dVertex
 10
126.5803873381466
 20
-147.079911258803
 30
0.0
  0
SEQEND
  5
434
330
431
100
AcDbEntity
  8
Ebene 1
370
    18
  0
POLYLINE
  5
435
330
1F
100
AcDbEntity
  8
Ebene 1
 62
   179
420
  1709851
370
    18
100
AcDb2dPolyline
 66
     1
 10
0.0
 20
0.0
 30
0.0
  0
VERTEX
  5
436
330
435
100
AcDbEntity
  8
Ebene 1
 62
   179
420
  1709851
370
    18
100
AcDbVertex
100
AcDb2dVertex
 10
126.8553059578695
 20
-130.3584513020458
 30
0.0
  0
VERTEX
  5
437
330
435
100
AcDbEntity
  8
Ebene 1
 62
   179
420
  1709851
370
    18
100
AcDbVertex
100
AcDb2dVertex
 10
127.8292344515496
 20
-129.8079250435029
 30
0.0
  0
SEQEND
  5
438
330
435
100
AcDbEntity
  8
Ebene 1
370
    18
  0
POLYLINE
  5
439
330
1F
100
AcDbEntity
  8
Ebene 1
 62
   179
420
  1709851
370
    18
100
AcDb2dPolyline
 66
     1
 10
0.0
 20
0.0
 30
0.0
  0
VERTEX
  5
43A
330
439
100
AcDbEntity
  8
Ebene 1
 62
   179
420
  1709851
370
    18
100
AcDbVertex
100
AcDb2dVertex
 10
138.7512206684372
 20
-132.9619099602491
 30
0.0
  0
VERTEX
  5
43B
330
439
100
AcDbEntity
  8
Ebene 1
 62
   179
420
  1709851
370
    18
100
AcDbVertex
100
AcDb2dVertex
 10
140.2326117270946
 20
-132.1151054899747
 30
0.0
  0
SEQEND
  5
43C
330
439
100
AcDbEntity
  8
Ebene 1
370
    18
  0
POLYLINE
  5
43D
330
1F
100
AcDbEntity
  8
Ebene 1
 62
   179
420
  1709851
370
    18
100
AcDb2dPolyline
 66
     1
 10
0.0
 20
0.0
 30
0.0
  0
VERTEX
  5
43E
330
43D
100
AcDbEntity
  8
Ebene 1
 62
   179
420
  1709851
370
    18
100
AcDbVertex
100
AcDb2dVertex
 10
136.1474175006854
 20
-134.4650051204636
 30
0.0
  0
VERTEX
  5
43F
330
43D
100
AcDbEntity
  8
Ebene 1
 62
   179
420
  1709851
370
    18
100
AcDbVertex
100
AcDb2dVertex
 10
137.8834011157028
 20
-133.4697170347749
 30
0.0
  0
SEQEND
  5
440
330
43D
100
AcDbEntity
  8
Ebene 1
370
    18
  0
POLYLINE
  5
441
330
1F
100
AcDbEntity
  8
Ebene 1
 62
   179
420
  1709851
370
    18
100
AcDb2dPolyline
 66
     1
 10
0.0
 20
0.0
 30
0.0
  0
VERTEX
  5
442
330
441
100
AcDbEntity
  8
Ebene 1
 62
   179
420
  1709851
370
    18
100
AcDbVertex
100
AcDb2dVertex
 10
134.1582193675021
 20
-135.607743292921
 30
0.0
  0
VERTEX
  5
443
330
441
100
AcDbEntity
  8
Ebene 1
 62
   179
420
  1709851
370
    18
100
AcDbVertex
100
AcDb2dVertex
 10
135.2799424574995
 20
-134.9728121949894
 30
0.0
  0
SEQEND
  5
444
330
441
100
AcDbEntity
  8
Ebene 1
370
    18
  0
POLYLINE
  5
445
330
1F
100
AcDbEntity
  8
Ebene 1
 62
   179
420
  1709851
370
    18
100
AcDb2dPolyline
 66
     1
 10
0.0
 20
0.0
 30
0.0
  0
VERTEX
  5
446
330
445
100
AcDbEntity
  8
Ebene 1
 62
   179
420
  1709851
370
    18
100
AcDbVertex
100
AcDb2dVertex
 10
138.0949299784971
 20
-143.8415215026681
 30
0.0
  0
VERTEX
  5
447
330
445
100
AcDbEntity
  8
Ebene 1
 62
   179
420
  1709851
370
    18
100
AcDbVertex
100
AcDb2dVertex
 10
139.8309135935145
 20
-142.8465779265279
 30
0.0
  0
SEQEND
  5
448
330
445
100
AcDbEntity
  8
Ebene 1
370
    18
  0
POLYLINE
  5
449
330
1F
100
AcDbEntity
  8
Ebene 1
 62
   179
420
  1709851
370
    18
100
AcDb2dPolyline
 66
     1
 10
0.0
 20
0.0
 30
0.0
  0
VERTEX
  5
44A
330
449
100
AcDbEntity
  8
Ebene 1
 62
   179
420
  1709851
370
    18
100
AcDbVertex
100
AcDb2dVertex
 10
136.8884575395626
 20
-144.5401868670768
 30
0.0
  0
VERTEX
  5
44B
330
449
100
AcDbEntity
  8
Ebene 1
 62
   179
420
  1709851
370
    18
100
AcDbVertex
100
AcDb2dVertex
 10
137.2271104257627
 20
-144.3286580042824
 30
0.0
  0
SEQEND
  5
44C
330
449
100
AcDbEntity
  8
Ebene 1
370
    18
  0
POLYLINE
  5
44D
330
1F
100
AcDbEntity
  8
Ebene 1
 62
   179
420
  1709851
370
    18
100
AcDb2dPolyline
 66
     1
 10
0.0
 20
0.0
 30
0.0
  0
VERTEX
  5
44E
330
44D
100
AcDbEntity
  8
Ebene 1
 62
   179
420
  1709851
370
    18
100
AcDbVertex
100
AcDb2dVertex
 10
140.0424424563088
 20
-141.2167032524563
 30
0.0
  0
VERTEX
  5
44F
330
44D
100
AcDbEntity
  8
Ebene 1
 62
   179
420
  1709851
370
    18
100
AcDbVertex
100
AcDb2dVertex
 10
140.2326117270946
 20
-141.1109388210591
 30
0.0
  0
SEQEND
  5
450
330
44D
100
AcDbEntity
  8
Ebene 1
370
    18
  0
POLYLINE
  5
451
330
1F
100
AcDbEntity
  8
Ebene 1
 62
   179
420
  1709851
370
    18
100
AcDb2dPolyline
 66
     1
 10
0.0
 20
0.0
 30
0.0
  0
VERTEX
  5
452
330
451
100
AcDbEntity
  8
Ebene 1
 62
   179
420
  1709851
370
    18
100
AcDbVertex
100
AcDb2dVertex
 10
137.438639288557
 20
-142.7197984126707
 30
0.0
  0
VERTEX
  5
453
330
451
100
AcDbEntity
  8
Ebene 1
 62
   179
420
  1709851
370
    18
100
AcDbVertex
100
AcDb2dVertex
 10
139.1742783940259
 20
-141.7038397540706
 30
0.0
  0
SEQEND
  5
454
330
451
100
AcDbEntity
  8
Ebene 1
370
    18
  0
POLYLINE
  5
455
330
1F
100
AcDbEntity
  8
Ebene 1
 62
   179
420
  1709851
370
    18
100
AcDb2dPolyline
 66
     1
 10
0.0
 20
0.0
 30
0.0
  0
VERTEX
  5
456
330
455
100
AcDbEntity
  8
Ebene 1
 62
   179
420
  1709851
370
    18
100
AcDbVertex
100
AcDb2dVertex
 10
139.0898735546373
 20
-139.5447984134645
 30
0.0
  0
VERTEX
  5
457
330
455
100
AcDbEntity
  8
Ebene 1
 62
   179
420
  1709851
370
    18
100
AcDbVertex
100
AcDb2dVertex
 10
140.2326117270946
 20
-138.8888522330729
 30
0.0
  0
SEQEND
  5
458
330
455
100
AcDbEntity
  8
Ebene 1
370
    18
  0
POLYLINE
  5
459
330
1F
100
AcDbEntity
  8
Ebene 1
 62
   179
420
  1709851
370
    18
100
AcDb2dPolyline
 66
     1
 10
0.0
 20
0.0
 30
0.0
  0
VERTEX
  5
45A
330
459
100
AcDbEntity
  8
Ebene 1
 62
   179
420
  1709851
370
    18
100
AcDbVertex
100
AcDb2dVertex
 10
137.0576117278884
 20
-140.7088961779304
 30
0.0
  0
VERTEX
  5
45B
330
459
100
AcDbEntity
  8
Ebene 1
 62
   179
420
  1709851
370
    18
100
AcDbVertex
100
AcDb2dVertex
 10
138.2220540019028
 20
-140.0526054879903
 30
0.0
  0
SEQEND
  5
45C
330
459
100
AcDbEntity
  8
Ebene 1
370
    18
  0
POLYLINE
  5
45D
330
1F
100
AcDbEntity
  8
Ebene 1
 62
   179
420
  1709851
370
    18
100
AcDb2dPolyline
 66
     1
 10
0.0
 20
0.0
 30
0.0
  0
VERTEX
  5
45E
330
45D
100
AcDbEntity
  8
Ebene 1
 62
   179
420
  1709851
370
    18
100
AcDbVertex
100
AcDb2dVertex
 10
122.8338459979374
 20
-135.3958699205781
 30
0.0
  0
VERTEX
  5
45F
330
45D
100
AcDbEntity
  8
Ebene 1
 62
   179
420
  1709851
370
    18
100
AcDbVertex
100
AcDb2dVertex
 10
122.9396104293346
 20
-135.3538397556581
 30
0.0
  0
SEQEND
  5
460
330
45D
100
AcDbEntity
  8
Ebene 1
370
    18
  0
POLYLINE
  5
461
330
1F
100
AcDbEntity
  8
Ebene 1
 62
   179
420
  1709851
370
    18
100
AcDb2dPolyline
 66
     1
 10
0.0
 20
0.0
 30
0.0
  0
VERTEX
  5
462
330
461
100
AcDbEntity
  8
Ebene 1
 62
   179
420
  1709851
370
    18
100
AcDbVertex
100
AcDb2dVertex
 10
120.2303873397341
 20
-136.8989650807926
 30
0.0
  0
VERTEX
  5
463
330
461
100
AcDbEntity
  8
Ebene 1
 62
   179
420
  1709851
370
    18
100
AcDbVertex
100
AcDb2dVertex
 10
121.9656819356544
 20
-135.904366014201
 30
0.0
  0
SEQEND
  5
464
330
461
100
AcDbEntity
  8
Ebene 1
370
    18
  0
POLYLINE
  5
465
330
1F
100
AcDbEntity
  8
Ebene 1
 62
   179
420
  1709851
370
    18
100
AcDb2dPolyline
 66
     1
 10
0.0
 20
0.0
 30
0.0
  0
VERTEX
  5
466
330
465
100
AcDbEntity
  8
Ebene 1
 62
   179
420
  1709851
370
    18
100
AcDbVertex
100
AcDb2dVertex
 10
118.1557508385166
 20
-138.1054375197271
 30
0.0
  0
VERTEX
  5
467
330
465
100
AcDbEntity
  8
Ebene 1
 62
   179
420
  1709851
370
    18
100
AcDbVertex
100
AcDb2dVertex
 10
119.3625677869996
 20
-137.4067721553185
 30
0.0
  0
SEQEND
  5
468
330
465
100
AcDbEntity
  8
Ebene 1
370
    18
  0
POLYLINE
  5
469
330
1F
100
AcDbEntity
  8
Ebene 1
 62
   179
420
  1709851
370
    18
100
AcDb2dPolyline
 66
     1
 10
0.0
 20
0.0
 30
0.0
  0
VERTEX
  5
46A
330
469
100
AcDbEntity
  8
Ebene 1
 62
   179
420
  1709851
370
    18
100
AcDbVertex
100
AcDb2dVertex
 10
125.7549424598807
 20
-140.455337150216
 30
0.0
  0
VERTEX
  5
46B
330
469
100
AcDbEntity
  8
Ebene 1
 62
   179
420
  1709851
370
    18
100
AcDbVertex
100
AcDb2dVertex
 10
126.1566405934608
 20
-140.2221041858646
 30
0.0
  0
SEQEND
  5
46C
330
469
100
AcDbEntity
  8
Ebene 1
370
    18
  0
POLYLINE
  5
46D
330
1F
100
AcDbEntity
  8
Ebene 1
 62
   179
420
  1709851
370
    18
100
AcDb2dPolyline
 66
     1
 10
0.0
 20
0.0
 30
0.0
  0
VERTEX
  5
46E
330
46D
100
AcDbEntity
  8
Ebene 1
 62
   179
420
  1709851
370
    18
100
AcDbVertex
100
AcDb2dVertex
 10
123.1511392921289
 20
-141.9577432913335
 30
0.0
  0
VERTEX
  5
46F
330
46D
100
AcDbEntity
  8
Ebene 1
 62
   179
420
  1709851
370
    18
100
AcDbVertex
100
AcDb2dVertex
 10
124.8867783975978
 20
-140.9631442247419
 30
0.0
  0
SEQEND
  5
470
330
46D
100
AcDbEntity
  8
Ebene 1
370
    18
  0
POLYLINE
  5
471
330
1F
100
AcDbEntity
  8
Ebene 1
 62
   179
420
  1709851
370
    18
100
AcDb2dPolyline
 66
     1
 10
0.0
 20
0.0
 30
0.0
  0
VERTEX
  5
472
330
471
100
AcDbEntity
  8
Ebene 1
 62
   179
420
  1709851
370
    18
100
AcDbVertex
100
AcDb2dVertex
 10
120.5690402259341
 20
-143.460838451548
 30
0.0
  0
VERTEX
  5
473
330
471
100
AcDbEntity
  8
Ebene 1
 62
   179
420
  1709851
370
    18
100
AcDbVertex
100
AcDb2dVertex
 10
122.283664248943
 20
-142.4655503658593
 30
0.0
  0
SEQEND
  5
474
330
471
100
AcDbEntity
  8
Ebene 1
370
    18
  0
POLYLINE
  5
475
330
1F
100
AcDbEntity
  8
Ebene 1
 62
   179
420
  1709851
370
    18
100
AcDb2dPolyline
 66
     1
 10
0.0
 20
0.0
 30
0.0
  0
VERTEX
  5
476
330
475
100
AcDbEntity
  8
Ebene 1
 62
   179
420
  1709851
370
    18
100
AcDbVertex
100
AcDb2dVertex
 10
118.1557508385166
 20
-144.8364650788083
 30
0.0
  0
VERTEX
  5
477
330
475
100
AcDbEntity
  8
Ebene 1
 62
   179
420
  1709851
370
    18
100
AcDbVertex
100
AcDb2dVertex
 10
119.7012206731997
 20
-143.9686455260738
 30
0.0
  0
SEQEND
  5
478
330
475
100
AcDbEntity
  8
Ebene 1
370
    18
  0
POLYLINE
  5
479
330
1F
100
AcDbEntity
  8
Ebene 1
 62
   179
420
  1709851
370
    18
100
AcDb2dPolyline
 66
     1
 10
0.0
 20
0.0
 30
0.0
  0
VERTEX
  5
47A
330
479
100
AcDbEntity
  8
Ebene 1
 62
   179
420
  1709851
370
    18
100
AcDbVertex
100
AcDb2dVertex
 10
125.1623860364177
 20
-139.4390339820673
 30
0.0
  0
VERTEX
  5
47B
330
479
100
AcDbEntity
  8
Ebene 1
 62
   179
420
  1709851
370
    18
100
AcDbVertex
100
AcDb2dVertex
 10
126.1566405934608
 20
-138.8678371506129
 30
0.0
  0
SEQEND
  5
47C
330
479
100
AcDbEntity
  8
Ebene 1
370
    18
  0
POLYLINE
  5
47D
330
1F
100
AcDbEntity
  8
Ebene 1
 62
   179
420
  1709851
370
    18
100
AcDb2dPolyline
 66
     1
 10
0.0
 20
0.0
 30
0.0
  0
VERTEX
  5
47E
330
47D
100
AcDbEntity
  8
Ebene 1
 62
   179
420
  1709851
370
    18
100
AcDbVertex
100
AcDb2dVertex
 10
122.5585828686659
 20
-140.9417846327333
 30
0.0
  0
VERTEX
  5
47F
330
47D
100
AcDbEntity
  8
Ebene 1
 62
   179
420
  1709851
370
    18
100
AcDbVertex
100
AcDb2dVertex
 10
124.2942219741348
 20
-139.9261704836817
 30
0.0
  0
SEQEND
  5
480
330
47D
100
AcDbEntity
  8
Ebene 1
370
    18
  0
POLYLINE
  5
481
330
1F
100
AcDbEntity
  8
Ebene 1
 62
   179
420
  1709851
370
    18
100
AcDb2dPolyline
 66
     1
 10
0.0
 20
0.0
 30
0.0
  0
VERTEX
  5
482
330
481
100
AcDbEntity
  8
Ebene 1
 62
   179
420
  1709851
370
    18
100
AcDbVertex
100
AcDb2dVertex
 10
119.9551242104626
 20
-142.4235202009393
 30
0.0
  0
VERTEX
  5
483
330
481
100
AcDbEntity
  8
Ebene 1
 62
   179
420
  1709851
370
    18
100
AcDbVertex
100
AcDb2dVertex
 10
121.6907633159315
 20
-141.4285766247991
 30
0.0
  0
SEQEND
  5
484
330
481
100
AcDbEntity
  8
Ebene 1
370
    18
  0
POLYLINE
  5
485
330
1F
100
AcDbEntity
  8
Ebene 1
 62
   179
420
  1709851
370
    18
100
AcDb2dPolyline
 66
     1
 10
0.0
 20
0.0
 30
0.0
  0
VERTEX
  5
486
330
485
100
AcDbEntity
  8
Ebene 1
 62
   179
420
  1709851
370
    18
100
AcDbVertex
100
AcDb2dVertex
 10
118.1557508385166
 20
-143.460838451548
 30
0.0
  0
VERTEX
  5
487
330
485
100
AcDbEntity
  8
Ebene 1
 62
   179
420
  1709851
370
    18
100
AcDbVertex
100
AcDb2dVertex
 10
119.1086642497367
 20
-142.9316717850136
 30
0.0
  0
SEQEND
  5
488
330
485
100
AcDbEntity
  8
Ebene 1
370
    18
  0
POLYLINE
  5
489
330
1F
100
AcDbEntity
  8
Ebene 1
 62
   179
420
  1709851
370
    18
100
AcDb2dPolyline
 66
     1
 10
0.0
 20
0.0
 30
0.0
  0
VERTEX
  5
48A
330
489
100
AcDbEntity
  8
Ebene 1
 62
   179
420
  1709851
370
    18
100
AcDbVertex
100
AcDb2dVertex
 10
117.9655815677308
 20
-144.9632445926654
 30
0.0
  0
VERTEX
  5
48B
330
489
100
AcDbEntity
  8
Ebene 1
 62
   179
420
  1709851
370
    18
100
AcDbVertex
100
AcDb2dVertex
 10
118.1557508385166
 20
-144.8364650788083
 30
0.0
  0
SEQEND
  5
48C
330
489
100
AcDbEntity
  8
Ebene 1
370
    18
  0
POLYLINE
  5
48D
330
1F
100
AcDbEntity
  8
Ebene 1
 62
   179
420
  1709851
370
    18
100
AcDb2dPolyline
 66
     1
 10
0.0
 20
0.0
 30
0.0
  0
VERTEX
  5
48E
330
48D
100
AcDbEntity
  8
Ebene 1
 62
   179
420
  1709851
370
    18
100
AcDbVertex
100
AcDb2dVertex
 10
140.2326117270946
 20
-132.1151054899747
 30
0.0
  0
VERTEX
  5
48F
330
48D
100
AcDbEntity
  8
Ebene 1
 62
   179
420
  1709851
370
    18
100
AcDbVertex
100
AcDb2dVertex
 10
140.4865152643575
 20
-131.9673108936575
 30
0.0
  0
SEQEND
  5
490
330
48D
100
AcDbEntity
  8
Ebene 1
370
    18
  0
POLYLINE
  5
491
330
1F
100
AcDbEntity
  8
Ebene 1
 62
   179
420
  1709851
370
    18
100
AcDb2dPolyline
 66
     1
 10
0.0
 20
0.0
 30
0.0
  0
VERTEX
  5
492
330
491
100
AcDbEntity
  8
Ebene 1
 62
   179
420
  1709851
370
    18
100
AcDbVertex
100
AcDb2dVertex
 10
140.6983886367004
 20
-142.3387708520021
 30
0.0
  0
VERTEX
  5
493
330
491
100
AcDbEntity
  8
Ebene 1
 62
   179
420
  1709851
370
    18
100
AcDbVertex
100
AcDb2dVertex
 10
141.3336642441805
 20
-141.9787583737935
 30
0.0
  0
SEQEND
  5
494
330
491
100
AcDbEntity
  8
Ebene 1
370
    18
  0
POLYLINE
  5
495
330
1F
100
AcDbEntity
  8
Ebene 1
 62
   179
420
  1709851
370
    18
100
AcDb2dPolyline
 66
     1
 10
0.0
 20
0.0
 30
0.0
  0
VERTEX
  5
496
330
495
100
AcDbEntity
  8
Ebene 1
 62
   179
420
  1709851
370
    18
100
AcDbVertex
100
AcDb2dVertex
 10
140.2326117270946
 20
-141.1109388210591
 30
0.0
  0
VERTEX
  5
497
330
495
100
AcDbEntity
  8
Ebene 1
 62
   179
420
  1709851
370
    18
100
AcDbVertex
100
AcDb2dVertex
 10
141.3336642441805
 20
-140.476352232676
 30
0.0
  0
SEQEND
  5
498
330
495
100
AcDbEntity
  8
Ebene 1
370
    18
  0
POLYLINE
  5
499
330
1F
100
AcDbEntity
  8
Ebene 1
 62
   179
420
  1709851
370
    18
100
AcDb2dPolyline
 66
     1
 10
0.0
 20
0.0
 30
0.0
  0
VERTEX
  5
49A
330
499
100
AcDbEntity
  8
Ebene 1
 62
   179
420
  1709851
370
    18
100
AcDbVertex
100
AcDb2dVertex
 10
140.2326117270946
 20
-138.8888522330729
 30
0.0
  0
VERTEX
  5
49B
330
499
100
AcDbEntity
  8
Ebene 1
 62
   179
420
  1709851
370
    18
100
AcDbVertex
100
AcDb2dVertex
 10
140.8044975776461
 20
-138.5501993468729
 30
0.0
  0
SEQEND
  5
49C
330
499
100
AcDbEntity
  8
Ebene 1
370
    18
  0
POLYLINE
  5
49D
330
1F
100
AcDbEntity
  8
Ebene 1
 62
   179
420
  1709851
370
    18
100
AcDb2dPolyline
 66
     1
 10
0.0
 20
0.0
 30
0.0
  0
VERTEX
  5
49E
330
49D
100
AcDbEntity
  8
Ebene 1
 62
   179
420
  1709851
370
    18
100
AcDbVertex
100
AcDb2dVertex
 10
117.8804877092452
 20
-138.2535766255929
 30
0.0
  0
VERTEX
  5
49F
330
49D
100
AcDbEntity
  8
Ebene 1
 62
   179
420
  1709851
370
    18
100
AcDbVertex
100
AcDb2dVertex
 10
118.1557508385166
 20
-138.1054375197271
 30
0.0
  0
SEQEND
  5
4A0
330
49D
100
AcDbEntity
  8
Ebene 1
370
    18
  0
POLYLINE
  5
4A1
330
1F
100
AcDbEntity
  8
Ebene 1
 62
   179
420
  1709851
370
    18
100
AcDb2dPolyline
 66
     1
 10
0.0
 20
0.0
 30
0.0
  0
VERTEX
  5
4A2
330
4A1
100
AcDbEntity
  8
Ebene 1
 62
   179
420
  1709851
370
    18
100
AcDbVertex
100
AcDb2dVertex
 10
117.8804877092452
 20
-143.6303371494223
 30
0.0
  0
VERTEX
  5
4A3
330
4A1
100
AcDbEntity
  8
Ebene 1
 62
   179
420
  1709851
370
    18
100
AcDbVertex
100
AcDb2dVertex
 10
118.1557508385166
 20
-143.460838451548
 30
0.0
  0
SEQEND
  5
4A4
330
4A1
100
AcDbEntity
  8
Ebene 1
370
    18
  0
POLYLINE
  5
4A5
330
1F
100
AcDbEntity
  8
Ebene 1
 62
   179
420
  1709851
370
    18
100
AcDb2dPolyline
 66
     1
 10
0.0
 20
0.0
 30
0.0
  0
VERTEX
  5
4A6
330
4A5
100
AcDbEntity
  8
Ebene 1
 62
   179
420
  1709851
370
    18
100
AcDbVertex
100
AcDb2dVertex
 10
140.740763311169
 20
-130.443200650983
 30
0.0
  0
VERTEX
  5
4A7
330
4A5
100
AcDbEntity
  8
Ebene 1
 62
   179
420
  1709851
370
    18
100
AcDbVertex
100
AcDb2dVertex
 10
141.3336642441805
 20
-130.1045477647829
 30
0.0
  0
SEQEND
  5
4A8
330
4A5
100
AcDbEntity
  8
Ebene 1
370
    18
  0
POLYLINE
  5
4A9
330
1F
100
AcDbEntity
  8
Ebene 1
 62
   179
420
  1709851
370
    18
100
AcDb2dPolyline
 66
     1
 10
0.0
 20
0.0
 30
0.0
  0
VERTEX
  5
4AA
330
4A9
100
AcDbEntity
  8
Ebene 1
 62
   179
420
  1709851
370
    18
100
AcDbVertex
100
AcDb2dVertex
 10
140.2326117270946
 20
-146.3602308119343
 30
0.0
  0
VERTEX
  5
4AB
330
4A9
100
AcDbEntity
  8
Ebene 1
 62
   179
420
  1709851
370
    18
100
AcDbVertex
100
AcDb2dVertex
 10
141.3336642441805
 20
-145.7256442235512
 30
0.0
  0
SEQEND
  5
4AC
330
4A9
100
AcDbEntity
  8
Ebene 1
370
    18
  0
POLYLINE
  5
4AD
330
1F
100
AcDbEntity
  8
Ebene 1
 62
   179
420
  1709851
370
    18
100
AcDb2dPolyline
 66
     1
 10
0.0
 20
0.0
 30
0.0
  0
VERTEX
  5
4AE
330
4AD
100
AcDbEntity
  8
Ebene 1
 62
   179
420
  1709851
370
    18
100
AcDbVertex
100
AcDb2dVertex
 10
127.7021104281439
 20
-149.8320257871948
 30
0.0
  0
VERTEX
  5
4AF
330
4AD
100
AcDbEntity
  8
Ebene 1
 62
   179
420
  1709851
370
    18
100
AcDbVertex
100
AcDb2dVertex
 10
129.289610427747
 20
-148.9218315599918
 30
0.0
  0
SEQEND
  5
4B0
330
4AD
100
AcDbEntity
  8
Ebene 1
370
    18
  0
POLYLINE
  5
4B1
330
1F
100
AcDbEntity
  8
Ebene 1
 62
   179
420
  1709851
370
    18
100
AcDb2dPolyline
 66
     1
 10
0.0
 20
0.0
 30
0.0
  0
VERTEX
  5
4B2
330
4B1
100
AcDbEntity
  8
Ebene 1
 62
   179
420
  1709851
370
    18
100
AcDbVertex
100
AcDb2dVertex
 10
125.0983072603921
 20
-151.3347764378608
 30
0.0
  0
VERTEX
  5
4B3
330
4B1
100
AcDbEntity
  8
Ebene 1
 62
   179
420
  1709851
370
    18
100
AcDbVertex
100
AcDb2dVertex
 10
126.8342908754095
 20
-150.3398328617206
 30
0.0
  0
SEQEND
  5
4B4
330
4B1
100
AcDbEntity
  8
Ebene 1
370
    18
  0
POLYLINE
  5
4B5
330
1F
100
AcDbEntity
  8
Ebene 1
 62
   179
420
  1709851
370
    18
100
AcDb2dPolyline
 66
     1
 10
0.0
 20
0.0
 30
0.0
  0
VERTEX
  5
4B6
330
4B5
100
AcDbEntity
  8
Ebene 1
 62
   179
420
  1709851
370
    18
100
AcDbVertex
100
AcDb2dVertex
 10
127.0881944126724
 20
-148.7945352818118
 30
0.0
  0
VERTEX
  5
4B7
330
4B5
100
AcDbEntity
  8
Ebene 1
 62
   179
420
  1709851
370
    18
100
AcDbVertex
100
AcDb2dVertex
 10
128.061778396804
 20
-148.2233384503574
 30
0.0
  0
SEQEND
  5
4B8
330
4B5
100
AcDbEntity
  8
Ebene 1
370
    18
  0
POLYLINE
  5
4B9
330
1F
100
AcDbEntity
  8
Ebene 1
 62
   179
420
  1709851
370
    18
100
AcDb2dPolyline
 66
     1
 10
0.0
 20
0.0
 30
0.0
  0
VERTEX
  5
4BA
330
4B9
100
AcDbEntity
  8
Ebene 1
 62
   179
420
  1709851
370
    18
100
AcDbVertex
100
AcDb2dVertex
 10
126.0512206716122
 20
-145.1327432905397
 30
0.0
  0
VERTEX
  5
4BB
330
4B9
100
AcDbEntity
  8
Ebene 1
 62
   179
420
  1709851
370
    18
100
AcDbVertex
100
AcDb2dVertex
 10
126.0512206716122
 20
-145.2178371490254
 30
0.0
  0
SEQEND
  5
4BC
330
4B9
100
AcDbEntity
  8
Ebene 1
370
    18
  0
POLYLINE
  5
4BD
330
1F
100
AcDbEntity
  8
Ebene 1
 62
   179
420
  1709851
370
    18
100
AcDb2dPolyline
 66
     1
 10
0.0
 20
0.0
 30
0.0
  0
VERTEX
  5
4BE
330
4BD
100
AcDbEntity
  8
Ebene 1
 62
   179
420
  1709851
370
    18
100
AcDbVertex
100
AcDb2dVertex
 10
141.0156819308919
 20
-124.8972859388278
 30
0.0
  0
VERTEX
  5
4BF
330
4BD
100
AcDbEntity
  8
Ebene 1
 62
   179
420
  1709851
370
    18
100
AcDbVertex
100
AcDb2dVertex
 10
141.3336642441805
 20
-124.728131750502
 30
0.0
  0
SEQEND
  5
4C0
330
4BD
100
AcDbEntity
  8
Ebene 1
370
    18
  0
POLYLINE
  5
4C1
330
1F
100
AcDbEntity
  8
Ebene 1
 62
   179
420
  1709851
370
    18
100
AcDb2dPolyline
 66
     1
 10
0.0
 20
0.0
 30
0.0
  0
VERTEX
  5
4C2
330
4C1
100
AcDbEntity
  8
Ebene 1
 62
   179
420
  1709851
370
    18
100
AcDbVertex
100
AcDb2dVertex
 10
139.7244601430203
 20
-146.6358384507542
 30
0.0
  0
VERTEX
  5
4C3
330
4C1
100
AcDbEntity
  8
Ebene 1
 62
   179
420
  1709851
370
    18
100
AcDbVertex
100
AcDb2dVertex
 10
140.2326117270946
 20
-146.3605753214828
 30
0.0
  0
SEQEND
  5
4C4
330
4C1
100
AcDbEntity
  8
Ebene 1
370
    18
  0
POLYLINE
  5
4C5
330
1F
100
AcDbEntity
  8
Ebene 1
 62
   179
420
  1709851
370
    18
100
AcDb2dPolyline
 66
     1
 10
0.0
 20
0.0
 30
0.0
  0
VERTEX
  5
4C6
330
4C5
100
AcDbEntity
  8
Ebene 1
 62
   179
420
  1709851
370
    18
100
AcDbVertex
100
AcDb2dVertex
 10
137.1213459943655
 20
-148.1382445918717
 30
0.0
  0
VERTEX
  5
4C7
330
4C5
100
AcDbEntity
  8
Ebene 1
 62
   179
420
  1709851
370
    18
100
AcDbVertex
100
AcDb2dVertex
 10
138.8566405902858
 20
-147.1436455252801
 30
0.0
  0
SEQEND
  5
4C8
330
4C5
100
AcDbEntity
  8
Ebene 1
370
    18
  0
POLYLINE
  5
4C9
330
1F
100
AcDbEntity
  8
Ebene 1
 62
   179
420
  1709851
370
    18
100
AcDb2dPolyline
 66
     1
 10
0.0
 20
0.0
 30
0.0
  0
VERTEX
  5
4CA
330
4C9
100
AcDbEntity
  8
Ebene 1
 62
   179
420
  1709851
370
    18
100
AcDbVertex
100
AcDb2dVertex
 10
134.5392469281707
 20
-149.6411674973119
 30
0.0
  0
VERTEX
  5
4CB
330
4C9
100
AcDbEntity
  8
Ebene 1
 62
   179
420
  1709851
370
    18
100
AcDbVertex
100
AcDb2dVertex
 10
136.2531819320826
 20
-148.6467406854946
 30
0.0
  0
SEQEND
  5
4CC
330
4C9
100
AcDbEntity
  8
Ebene 1
370
    18
  0
POLYLINE
  5
4CD
330
1F
100
AcDbEntity
  8
Ebene 1
 62
   179
420
  1709851
370
    18
100
AcDb2dPolyline
 66
     1
 10
0.0
 20
0.0
 30
0.0
  0
VERTEX
  5
4CE
330
4CD
100
AcDbEntity
  8
Ebene 1
 62
   179
420
  1709851
370
    18
100
AcDbVertex
100
AcDb2dVertex
 10
131.9354437604189
 20
-151.1439181479779
 30
0.0
  0
VERTEX
  5
4CF
330
4CD
100
AcDbEntity
  8
Ebene 1
 62
   179
420
  1709851
370
    18
100
AcDbVertex
100
AcDb2dVertex
 10
133.6710828658878
 20
-150.1496635909348
 30
0.0
  0
SEQEND
  5
4D0
330
4CD
100
AcDbEntity
  8
Ebene 1
370
    18
  0
POLYLINE
  5
4D1
330
1F
100
AcDbEntity
  8
Ebene 1
 62
   179
420
  1709851
370
    18
100
AcDb2dPolyline
 66
     1
 10
0.0
 20
0.0
 30
0.0
  0
VERTEX
  5
4D2
330
4D1
100
AcDbEntity
  8
Ebene 1
 62
   179
420
  1709851
370
    18
100
AcDbVertex
100
AcDb2dVertex
 10
129.3316405926671
 20
-152.647357817741
 30
0.0
  0
VERTEX
  5
4D3
330
4D1
100
AcDbEntity
  8
Ebene 1
 62
   179
420
  1709851
370
    18
100
AcDbVertex
100
AcDb2dVertex
 10
131.0676242076845
 20
-151.6524142416008
 30
0.0
  0
SEQEND
  5
4D4
330
4D1
100
AcDbEntity
  8
Ebene 1
370
    18
  0
POLYLINE
  5
4D5
330
1F
100
AcDbEntity
  8
Ebene 1
 62
   179
420
  1709851
370
    18
100
AcDb2dPolyline
 66
     1
 10
0.0
 20
0.0
 30
0.0
  0
VERTEX
  5
4D6
330
4D5
100
AcDbEntity
  8
Ebene 1
 62
   179
420
  1709851
370
    18
100
AcDbVertex
100
AcDb2dVertex
 10
126.7281819344638
 20
-154.1494194493099
 30
0.0
  0
VERTEX
  5
4D7
330
4D5
100
AcDbEntity
  8
Ebene 1
 62
   179
420
  1709851
370
    18
100
AcDbVertex
100
AcDb2dVertex
 10
128.4638210399327
 20
-153.1551648922668
 30
0.0
  0
SEQEND
  5
4D8
330
4D5
100
AcDbEntity
  8
Ebene 1
370
    18
  0
POLYLINE
  5
4D9
330
1F
100
AcDbEntity
  8
Ebene 1
 62
   179
420
  1709851
370
    18
100
AcDb2dPolyline
 66
     1
 10
0.0
 20
0.0
 30
0.0
  0
VERTEX
  5
4DA
330
4D9
100
AcDbEntity
  8
Ebene 1
 62
   179
420
  1709851
370
    18
100
AcDbVertex
100
AcDb2dVertex
 10
124.146082868269
 20
-155.6528591190729
 30
0.0
  0
VERTEX
  5
4DB
330
4D9
100
AcDbEntity
  8
Ebene 1
 62
   179
420
  1709851
370
    18
100
AcDbVertex
100
AcDb2dVertex
 10
125.8817219737379
 20
-154.6365559509242
 30
0.0
  0
SEQEND
  5
4DC
330
4D9
100
AcDbEntity
  8
Ebene 1
370
    18
  0
POLYLINE
  5
4DD
330
1F
100
AcDbEntity
  8
Ebene 1
 62
   179
420
  1709851
370
    18
100
AcDb2dPolyline
 66
     1
 10
0.0
 20
0.0
 30
0.0
  0
VERTEX
  5
4DE
330
4DD
100
AcDbEntity
  8
Ebene 1
 62
   179
420
  1709851
370
    18
100
AcDbVertex
100
AcDb2dVertex
 10
121.5426242100657
 20
-157.1556097697389
 30
0.0
  0
VERTEX
  5
4DF
330
4DD
100
AcDbEntity
  8
Ebene 1
 62
   179
420
  1709851
370
    18
100
AcDbVertex
100
AcDb2dVertex
 10
123.2782633155346
 20
-156.1393066015902
 30
0.0
  0
SEQEND
  5
4E0
330
4DD
100
AcDbEntity
  8
Ebene 1
370
    18
  0
POLYLINE
  5
4E1
330
1F
100
AcDbEntity
  8
Ebene 1
 62
   179
420
  1709851
370
    18
100
AcDb2dPolyline
 66
     1
 10
0.0
 20
0.0
 30
0.0
  0
VERTEX
  5
4E2
330
4E1
100
AcDbEntity
  8
Ebene 1
 62
   179
420
  1709851
370
    18
100
AcDbVertex
100
AcDb2dVertex
 10
118.9388210423139
 20
-158.6370008283963
 30
0.0
  0
VERTEX
  5
4E3
330
4E1
100
AcDbEntity
  8
Ebene 1
 62
   179
420
  1709851
370
    18
100
AcDbVertex
100
AcDb2dVertex
 10
120.6744601477828
 20
-157.6427462713532
 30
0.0
  0
SEQEND
  5
4E4
330
4E1
100
AcDbEntity
  8
Ebene 1
370
    18
  0
POLYLINE
  5
4E5
330
1F
100
AcDbEntity
  8
Ebene 1
 62
   179
420
  1709851
370
    18
100
AcDb2dPolyline
 66
     1
 10
0.0
 20
0.0
 30
0.0
  0
VERTEX
  5
4E6
330
4E5
100
AcDbEntity
  8
Ebene 1
 62
   179
420
  1709851
370
    18
100
AcDbVertex
100
AcDb2dVertex
 10
116.3567219761192
 20
-160.1397514790623
 30
0.0
  0
VERTEX
  5
4E7
330
4E5
100
AcDbEntity
  8
Ebene 1
 62
   179
420
  1709851
370
    18
100
AcDbVertex
100
AcDb2dVertex
 10
118.071345999128
 20
-159.1454969220192
 30
0.0
  0
SEQEND
  5
4E8
330
4E5
100
AcDbEntity
  8
Ebene 1
370
    18
  0
POLYLINE
  5
4E9
330
1F
100
AcDbEntity
  8
Ebene 1
 62
   179
420
  1709851
370
    18
100
AcDb2dPolyline
 66
     1
 10
0.0
 20
0.0
 30
0.0
  0
VERTEX
  5
4EA
330
4E9
100
AcDbEntity
  8
Ebene 1
 62
   179
420
  1709851
370
    18
100
AcDbVertex
100
AcDb2dVertex
 10
113.7532633179159
 20
-161.6431911488253
 30
0.0
  0
VERTEX
  5
4EB
330
4E9
100
AcDbEntity
  8
Ebene 1
 62
   179
420
  1709851
370
    18
100
AcDbVertex
100
AcDb2dVertex
 10
115.4892469329333
 20
-160.6482475726852
 30
0.0
  0
SEQEND
  5
4EC
330
4E9
100
AcDbEntity
  8
Ebene 1
370
    18
  0
POLYLINE
  5
4ED
330
1F
100
AcDbEntity
  8
Ebene 1
 62
   179
420
  1709851
370
    18
100
AcDb2dPolyline
 66
     1
 10
0.0
 20
0.0
 30
0.0
  0
VERTEX
  5
4EE
330
4ED
100
AcDbEntity
  8
Ebene 1
 62
   179
420
  1709851
370
    18
100
AcDbVertex
100
AcDb2dVertex
 10
111.149460150164
 20
-163.1452527803943
 30
0.0
  0
VERTEX
  5
4EF
330
4ED
100
AcDbEntity
  8
Ebene 1
 62
   179
420
  1709851
370
    18
100
AcDbVertex
100
AcDb2dVertex
 10
112.8850992556329
 20
-162.1509982233511
 30
0.0
  0
SEQEND
  5
4F0
330
4ED
100
AcDbEntity
  8
Ebene 1
370
    18
  0
POLYLINE
  5
4F1
330
1F
100
AcDbEntity
  8
Ebene 1
 62
   179
420
  1709851
370
    18
100
AcDb2dPolyline
 66
     1
 10
0.0
 20
0.0
 30
0.0
  0
VERTEX
  5
4F2
330
4F1
100
AcDbEntity
  8
Ebene 1
 62
   179
420
  1709851
370
    18
100
AcDbVertex
100
AcDb2dVertex
 10
108.5463460015092
 20
-164.6486924501573
 30
0.0
  0
VERTEX
  5
4F3
330
4F1
100
AcDbEntity
  8
Ebene 1
 62
   179
420
  1709851
370
    18
100
AcDbVertex
100
AcDb2dVertex
 10
110.2816405974296
 20
-163.6537488740171
 30
0.0
  0
SEQEND
  5
4F4
330
4F1
100
AcDbEntity
  8
Ebene 1
370
    18
  0
POLYLINE
  5
4F5
330
1F
100
AcDbEntity
  8
Ebene 1
 62
   179
420
  1709851
370
    18
100
AcDb2dPolyline
 66
     1
 10
0.0
 20
0.0
 30
0.0
  0
VERTEX
  5
4F6
330
4F5
100
AcDbEntity
  8
Ebene 1
 62
   179
420
  1709851
370
    18
100
AcDbVertex
100
AcDb2dVertex
 10
105.9642469353145
 20
-166.1514431008233
 30
0.0
  0
VERTEX
  5
4F7
330
4F5
100
AcDbEntity
  8
Ebene 1
 62
   179
420
  1709851
370
    18
100
AcDbVertex
100
AcDb2dVertex
 10
107.6781819392263
 20
-165.1351399326745
 30
0.0
  0
SEQEND
  5
4F8
330
4F5
100
AcDbEntity
  8
Ebene 1
370
    18
  0
POLYLINE
  5
4F9
330
1F
100
AcDbEntity
  8
Ebene 1
 62
   179
420
  1709851
370
    18
100
AcDb2dPolyline
 66
     1
 10
0.0
 20
0.0
 30
0.0
  0
VERTEX
  5
4FA
330
4F9
100
AcDbEntity
  8
Ebene 1
 62
   179
420
  1709851
370
    18
100
AcDbVertex
100
AcDb2dVertex
 10
127.7865152675326
 20
-149.7893066031777
 30
0.0
  0
VERTEX
  5
4FB
330
4F9
100
AcDbEntity
  8
Ebene 1
 62
   179
420
  1709851
370
    18
100
AcDbVertex
100
AcDb2dVertex
 10
129.4167344511528
 20
-148.8582695482889
 30
0.0
  0
SEQEND
  5
4FC
330
4F9
100
AcDbEntity
  8
Ebene 1
370
    18
  0
POLYLINE
  5
4FD
330
1F
100
AcDbEntity
  8
Ebene 1
 62
   179
420
  1709851
370
    18
100
AcDb2dPolyline
 66
     1
 10
0.0
 20
0.0
 30
0.0
  0
VERTEX
  5
4FE
330
4FD
100
AcDbEntity
  8
Ebene 1
 62
   179
420
  1709851
370
    18
100
AcDbVertex
100
AcDb2dVertex
 10
125.1834011188778
 20
-151.2927462729407
 30
0.0
  0
VERTEX
  5
4FF
330
4FD
100
AcDbEntity
  8
Ebene 1
 62
   179
420
  1709851
370
    18
100
AcDbVertex
100
AcDb2dVertex
 10
126.9190402243466
 20
-150.2971136777035
 30
0.0
  0
SEQEND
  5
500
330
4FD
100
AcDbEntity
  8
Ebene 1
370
    18
  0
POLYLINE
  5
501
330
1F
100
AcDbEntity
  8
Ebene 1
 62
   179
420
  1709851
370
    18
100
AcDb2dPolyline
 66
     1
 10
0.0
 20
0.0
 30
0.0
  0
VERTEX
  5
502
330
501
100
AcDbEntity
  8
Ebene 1
 62
   179
420
  1709851
370
    18
100
AcDbVertex
100
AcDb2dVertex
 10
122.600613033586
 20
-152.7954969236067
 30
0.0
  0
VERTEX
  5
503
330
501
100
AcDbEntity
  8
Ebene 1
 62
   179
420
  1709851
370
    18
100
AcDbVertex
100
AcDb2dVertex
 10
124.3155815661433
 20
-151.779193755458
 30
0.0
  0
SEQEND
  5
504
330
501
100
AcDbEntity
  8
Ebene 1
370
    18
  0
POLYLINE
  5
505
330
1F
100
AcDbEntity
  8
Ebene 1
 62
   179
420
  1709851
370
    18
100
AcDb2dPolyline
 66
     1
 10
0.0
 20
0.0
 30
0.0
  0
VERTEX
  5
506
330
505
100
AcDbEntity
  8
Ebene 1
 62
   179
420
  1709851
370
    18
100
AcDbVertex
100
AcDb2dVertex
 10
119.9971543753827
 20
-154.2982475742727
 30
0.0
  0
VERTEX
  5
507
330
505
100
AcDbEntity
  8
Ebene 1
 62
   179
420
  1709851
370
    18
100
AcDbVertex
100
AcDb2dVertex
 10
121.7327934808515
 20
-153.281944406124
 30
0.0
  0
SEQEND
  5
508
330
505
100
AcDbEntity
  8
Ebene 1
370
    18
  0
POLYLINE
  5
509
330
1F
100
AcDbEntity
  8
Ebene 1
 62
   179
420
  1709851
370
    18
100
AcDb2dPolyline
 66
     1
 10
0.0
 20
0.0
 30
0.0
  0
VERTEX
  5
50A
330
509
100
AcDbEntity
  8
Ebene 1
 62
   179
420
  1709851
370
    18
100
AcDbVertex
100
AcDb2dVertex
 10
117.3940402267279
 20
-155.7796386329301
 30
0.0
  0
VERTEX
  5
50B
330
509
100
AcDbEntity
  8
Ebene 1
 62
   179
420
  1709851
370
    18
100
AcDbVertex
100
AcDb2dVertex
 10
119.1296793321968
 20
-154.78469505679
 30
0.0
  0
SEQEND
  5
50C
330
509
100
AcDbEntity
  8
Ebene 1
370
    18
  0
POLYLINE
  5
50D
330
1F
100
AcDbEntity
  8
Ebene 1
 62
   179
420
  1709851
370
    18
100
AcDb2dPolyline
 66
     1
 10
0.0
 20
0.0
 30
0.0
  0
VERTEX
  5
50E
330
50D
100
AcDbEntity
  8
Ebene 1
 62
   179
420
  1709851
370
    18
100
AcDbVertex
100
AcDb2dVertex
 10
114.7905815685246
 20
-157.2823892835961
 30
0.0
  0
VERTEX
  5
50F
330
50D
100
AcDbEntity
  8
Ebene 1
 62
   179
420
  1709851
370
    18
100
AcDbVertex
100
AcDb2dVertex
 10
116.5262206739934
 20
-156.2874457074559
 30
0.0
  0
SEQEND
  5
510
330
50D
100
AcDbEntity
  8
Ebene 1
370
    18
  0
POLYLINE
  5
511
330
1F
100
AcDbEntity
  8
Ebene 1
 62
   179
420
  1709851
370
    18
100
AcDb2dPolyline
 66
     1
 10
0.0
 20
0.0
 30
0.0
  0
VERTEX
  5
512
330
511
100
AcDbEntity
  8
Ebene 1
 62
   179
420
  1709851
370
    18
100
AcDbVertex
100
AcDb2dVertex
 10
112.2077934832328
 20
-158.785139934262
 30
0.0
  0
VERTEX
  5
513
330
511
100
AcDbEntity
  8
Ebene 1
 62
   179
420
  1709851
370
    18
100
AcDbVertex
100
AcDb2dVertex
 10
113.9434325887017
 20
-157.790885377219
 30
0.0
  0
SEQEND
  5
514
330
511
100
AcDbEntity
  8
Ebene 1
370
    18
  0
POLYLINE
  5
515
330
1F
100
AcDbEntity
  8
Ebene 1
 62
   179
420
  1709851
370
    18
100
AcDb2dPolyline
 66
     1
 10
0.0
 20
0.0
 30
0.0
  0
VERTEX
  5
516
330
515
100
AcDbEntity
  8
Ebene 1
 62
   179
420
  1709851
370
    18
100
AcDbVertex
100
AcDb2dVertex
 10
109.604679334578
 20
-160.2885796040251
 30
0.0
  0
VERTEX
  5
517
330
515
100
AcDbEntity
  8
Ebene 1
 62
   179
420
  1709851
370
    18
100
AcDbVertex
100
AcDb2dVertex
 10
111.3399739304983
 20
-159.2929470087879
 30
0.0
  0
SEQEND
  5
518
330
515
100
AcDbEntity
  8
Ebene 1
370
    18
  0
POLYLINE
  5
519
330
1F
100
AcDbEntity
  8
Ebene 1
 62
   179
420
  1709851
370
    18
100
AcDb2dPolyline
 66
     1
 10
0.0
 20
0.0
 30
0.0
  0
VERTEX
  5
51A
330
519
100
AcDbEntity
  8
Ebene 1
 62
   179
420
  1709851
370
    18
100
AcDbVertex
100
AcDb2dVertex
 10
107.0012206763747
 20
-161.7913302546911
 30
0.0
  0
VERTEX
  5
51B
330
519
100
AcDbEntity
  8
Ebene 1
 62
   179
420
  1709851
370
    18
100
AcDbVertex
100
AcDb2dVertex
 10
108.736515272295
 20
-160.7963866785509
 30
0.0
  0
SEQEND
  5
51C
330
519
100
AcDbEntity
  8
Ebene 1
370
    18
  0
POLYLINE
  5
51D
330
1F
100
AcDbEntity
  8
Ebene 1
 62
   179
420
  1709851
370
    18
100
AcDb2dPolyline
 66
     1
 10
0.0
 20
0.0
 30
0.0
  0
VERTEX
  5
51E
330
51D
100
AcDbEntity
  8
Ebene 1
 62
   179
420
  1709851
370
    18
100
AcDbVertex
100
AcDb2dVertex
 10
105.9215277512974
 20
-162.4259168430741
 30
0.0
  0
VERTEX
  5
51F
330
51D
100
AcDbEntity
  8
Ebene 1
 62
   179
420
  1709851
370
    18
100
AcDbVertex
100
AcDb2dVertex
 10
106.1334011236403
 20
-162.2777777372083
 30
0.0
  0
SEQEND
  5
520
330
51D
100
AcDbEntity
  8
Ebene 1
370
    18
  0
POLYLINE
  5
521
330
1F
100
AcDbEntity
  8
Ebene 1
 62
   179
420
  1709851
370
    18
100
AcDb2dPolyline
 66
     1
 10
0.0
 20
0.0
 30
0.0
  0
VERTEX
  5
522
330
521
100
AcDbEntity
  8
Ebene 1
 62
   179
420
  1709851
370
    18
100
AcDbVertex
100
AcDb2dVertex
 10
124.5484700209462
 20
-150.1703341638463
 30
0.0
  0
VERTEX
  5
523
330
521
100
AcDbEntity
  8
Ebene 1
 62
   179
420
  1709851
370
    18
100
AcDbVertex
100
AcDb2dVertex
 10
126.2841091264151
 20
-149.1547200147947
 30
0.0
  0
SEQEND
  5
524
330
521
100
AcDbEntity
  8
Ebene 1
370
    18
  0
POLYLINE
  5
525
330
1F
100
AcDbEntity
  8
Ebene 1
 62
   179
420
  1709851
370
    18
100
AcDb2dPolyline
 66
     1
 10
0.0
 20
0.0
 30
0.0
  0
VERTEX
  5
526
330
525
100
AcDbEntity
  8
Ebene 1
 62
   179
420
  1709851
370
    18
100
AcDbVertex
100
AcDb2dVertex
 10
121.9446668531944
 20
-151.6524142416008
 30
0.0
  0
VERTEX
  5
527
330
525
100
AcDbEntity
  8
Ebene 1
 62
   179
420
  1709851
370
    18
100
AcDbVertex
100
AcDb2dVertex
 10
123.6803059586633
 20
-150.6574706654606
 30
0.0
  0
SEQEND
  5
528
330
525
100
AcDbEntity
  8
Ebene 1
370
    18
  0
POLYLINE
  5
529
330
1F
100
AcDbEntity
  8
Ebene 1
 62
   179
420
  1709851
370
    18
100
AcDb2dPolyline
 66
     1
 10
0.0
 20
0.0
 30
0.0
  0
VERTEX
  5
52A
330
529
100
AcDbEntity
  8
Ebene 1
 62
   179
420
  1709851
370
    18
100
AcDbVertex
100
AcDb2dVertex
 10
119.3415527045396
 20
-153.1551648922668
 30
0.0
  0
VERTEX
  5
52B
330
529
100
AcDbEntity
  8
Ebene 1
 62
   179
420
  1709851
370
    18
100
AcDbVertex
100
AcDb2dVertex
 10
121.0771918100085
 20
-152.1602213161266
 30
0.0
  0
SEQEND
  5
52C
330
529
100
AcDbEntity
  8
Ebene 1
370
    18
  0
POLYLINE
  5
52D
330
1F
100
AcDbEntity
  8
Ebene 1
 62
   179
420
  1709851
370
    18
100
AcDb2dPolyline
 66
     1
 10
0.0
 20
0.0
 30
0.0
  0
VERTEX
  5
52E
330
52D
100
AcDbEntity
  8
Ebene 1
 62
   179
420
  1709851
370
    18
100
AcDbVertex
100
AcDb2dVertex
 10
116.7591091287963
 20
-154.6579155429328
 30
0.0
  0
VERTEX
  5
52F
330
52D
100
AcDbEntity
  8
Ebene 1
 62
   179
420
  1709851
370
    18
100
AcDbVertex
100
AcDb2dVertex
 10
118.4947482342652
 20
-153.6629719667926
 30
0.0
  0
SEQEND
  5
530
330
52D
100
AcDbEntity
  8
Ebene 1
370
    18
  0
POLYLINE
  5
531
330
1F
100
AcDbEntity
  8
Ebene 1
 62
   179
420
  1709851
370
    18
100
AcDb2dPolyline
 66
     1
 10
0.0
 20
0.0
 30
0.0
  0
VERTEX
  5
532
330
531
100
AcDbEntity
  8
Ebene 1
 62
   179
420
  1709851
370
    18
100
AcDbVertex
100
AcDb2dVertex
 10
114.1553059610445
 20
-156.1606661935987
 30
0.0
  0
VERTEX
  5
533
330
531
100
AcDbEntity
  8
Ebene 1
 62
   179
420
  1709851
370
    18
100
AcDbVertex
100
AcDb2dVertex
 10
115.8909450665134
 20
-155.1657226174586
 30
0.0
  0
SEQEND
  5
534
330
531
100
AcDbEntity
  8
Ebene 1
370
    18
  0
POLYLINE
  5
535
330
1F
100
AcDbEntity
  8
Ebene 1
 62
   179
420
  1709851
370
    18
100
AcDb2dPolyline
 66
     1
 10
0.0
 20
0.0
 30
0.0
  0
VERTEX
  5
536
330
535
100
AcDbEntity
  8
Ebene 1
 62
   179
420
  1709851
370
    18
100
AcDbVertex
100
AcDb2dVertex
 10
111.5521918123897
 20
-157.6634168442647
 30
0.0
  0
VERTEX
  5
537
330
535
100
AcDbEntity
  8
Ebene 1
 62
   179
420
  1709851
370
    18
100
AcDbVertex
100
AcDb2dVertex
 10
113.2878309178586
 20
-156.6684732681246
 30
0.0
  0
SEQEND
  5
538
330
535
100
AcDbEntity
  8
Ebene 1
370
    18
  0
POLYLINE
  5
539
330
1F
100
AcDbEntity
  8
Ebene 1
 62
   179
420
  1709851
370
    18
100
AcDb2dPolyline
 66
     1
 10
0.0
 20
0.0
 30
0.0
  0
VERTEX
  5
53A
330
539
100
AcDbEntity
  8
Ebene 1
 62
   179
420
  1709851
370
    18
100
AcDbVertex
100
AcDb2dVertex
 10
108.9697482366465
 20
-159.1661674949307
 30
0.0
  0
VERTEX
  5
53B
330
539
100
AcDbEntity
  8
Ebene 1
 62
   179
420
  1709851
370
    18
100
AcDbVertex
100
AcDb2dVertex
 10
110.6840277501068
 20
-158.150553345879
 30
0.0
  0
SEQEND
  5
53C
330
539
100
AcDbEntity
  8
Ebene 1
370
    18
  0
POLYLINE
  5
53D
330
1F
100
AcDbEntity
  8
Ebene 1
 62
   179
420
  1709851
370
    18
100
AcDb2dPolyline
 66
     1
 10
0.0
 20
0.0
 30
0.0
  0
VERTEX
  5
53E
330
53D
100
AcDbEntity
  8
Ebene 1
 62
   179
420
  1709851
370
    18
100
AcDbVertex
100
AcDb2dVertex
 10
106.3659450688946
 20
-160.6482475726852
 30
0.0
  0
VERTEX
  5
53F
330
53D
100
AcDbEntity
  8
Ebene 1
 62
   179
420
  1709851
370
    18
100
AcDbVertex
100
AcDb2dVertex
 10
108.1015841743635
 20
-159.653303996545
 30
0.0
  0
SEQEND
  5
540
330
53D
100
AcDbEntity
  8
Ebene 1
370
    18
  0
POLYLINE
  5
541
330
1F
100
AcDbEntity
  8
Ebene 1
 62
   179
420
  1709851
370
    18
100
AcDb2dPolyline
 66
     1
 10
0.0
 20
0.0
 30
0.0
  0
VERTEX
  5
542
330
541
100
AcDbEntity
  8
Ebene 1
 62
   179
420
  1709851
370
    18
100
AcDbVertex
100
AcDb2dVertex
 10
120.8863335201256
 20
-150.0435546499891
 30
0.0
  0
VERTEX
  5
543
330
541
100
AcDbEntity
  8
Ebene 1
 62
   179
420
  1709851
370
    18
100
AcDbVertex
100
AcDb2dVertex
 10
121.7544975824086
 20
-149.5357475754633
 30
0.0
  0
SEQEND
  5
544
330
541
100
AcDbEntity
  8
Ebene 1
370
    18
  0
POLYLINE
  5
545
330
1F
100
AcDbEntity
  8
Ebene 1
 62
   179
420
  1709851
370
    18
100
AcDb2dPolyline
 66
     1
 10
0.0
 20
0.0
 30
0.0
  0
VERTEX
  5
546
330
545
100
AcDbEntity
  8
Ebene 1
 62
   179
420
  1709851
370
    18
100
AcDbVertex
100
AcDb2dVertex
 10
118.2832193714709
 20
-151.5463053006551
 30
0.0
  0
VERTEX
  5
547
330
545
100
AcDbEntity
  8
Ebene 1
 62
   179
420
  1709851
370
    18
100
AcDbVertex
100
AcDb2dVertex
 10
120.0188584769397
 20
-150.5513617245149
 30
0.0
  0
SEQEND
  5
548
330
545
100
AcDbEntity
  8
Ebene 1
370
    18
  0
POLYLINE
  5
549
330
1F
100
AcDbEntity
  8
Ebene 1
 62
   179
420
  1709851
370
    18
100
AcDb2dPolyline
 66
     1
 10
0.0
 20
0.0
 30
0.0
  0
VERTEX
  5
54A
330
549
100
AcDbEntity
  8
Ebene 1
 62
   179
420
  1709851
370
    18
100
AcDbVertex
100
AcDb2dVertex
 10
115.6790716941705
 20
-153.0490559513211
 30
0.0
  0
VERTEX
  5
54B
330
549
100
AcDbEntity
  8
Ebene 1
 62
   179
420
  1709851
370
    18
100
AcDbVertex
100
AcDb2dVertex
 10
117.4150553091879
 20
-152.054801394278
 30
0.0
  0
SEQEND
  5
54C
330
549
100
AcDbEntity
  8
Ebene 1
370
    18
  0
POLYLINE
  5
54D
330
1F
100
AcDbEntity
  8
Ebene 1
 62
   179
420
  1709851
370
    18
100
AcDb2dPolyline
 66
     1
 10
0.0
 20
0.0
 30
0.0
  0
VERTEX
  5
54E
330
54D
100
AcDbEntity
  8
Ebene 1
 62
   179
420
  1709851
370
    18
100
AcDbVertex
100
AcDb2dVertex
 10
113.0969726279758
 20
-154.5518066019871
 30
0.0
  0
VERTEX
  5
54F
330
54D
100
AcDbEntity
  8
Ebene 1
 62
   179
420
  1709851
370
    18
100
AcDbVertex
100
AcDb2dVertex
 10
114.8112521414361
 20
-153.5575520449439
 30
0.0
  0
SEQEND
  5
550
330
54D
100
AcDbEntity
  8
Ebene 1
370
    18
  0
POLYLINE
  5
551
330
1F
100
AcDbEntity
  8
Ebene 1
 62
   179
420
  1709851
370
    18
100
AcDb2dPolyline
 66
     1
 10
0.0
 20
0.0
 30
0.0
  0
VERTEX
  5
552
330
551
100
AcDbEntity
  8
Ebene 1
 62
   179
420
  1709851
370
    18
100
AcDbVertex
100
AcDb2dVertex
 10
110.493858479321
 20
-156.0552462717501
 30
0.0
  0
VERTEX
  5
553
330
551
100
AcDbEntity
  8
Ebene 1
 62
   179
420
  1709851
370
    18
100
AcDbVertex
100
AcDb2dVertex
 10
112.2294975847899
 20
-155.0603026956099
 30
0.0
  0
SEQEND
  5
554
330
551
100
AcDbEntity
  8
Ebene 1
370
    18
  0
POLYLINE
  5
555
330
1F
100
AcDbEntity
  8
Ebene 1
 62
   179
420
  1709851
370
    18
100
AcDb2dPolyline
 66
     1
 10
0.0
 20
0.0
 30
0.0
  0
VERTEX
  5
556
330
555
100
AcDbEntity
  8
Ebene 1
 62
   179
420
  1709851
370
    18
100
AcDbVertex
100
AcDb2dVertex
 10
107.8900553115692
 20
-157.5579969224161
 30
0.0
  0
VERTEX
  5
557
330
555
100
AcDbEntity
  8
Ebene 1
 62
   179
420
  1709851
370
    18
100
AcDbVertex
100
AcDb2dVertex
 10
109.625694417038
 20
-156.5416937542674
 30
0.0
  0
SEQEND
  5
558
330
555
100
AcDbEntity
  8
Ebene 1
370
    18
  0
POLYLINE
  5
559
330
1F
100
AcDbEntity
  8
Ebene 1
 62
   179
420
  1709851
370
    18
100
AcDb2dPolyline
 66
     1
 10
0.0
 20
0.0
 30
0.0
  0
VERTEX
  5
55A
330
559
100
AcDbEntity
  8
Ebene 1
 62
   179
420
  1709851
370
    18
100
AcDbVertex
100
AcDb2dVertex
 10
105.9215277512974
 20
-158.7010796044219
 30
0.0
  0
VERTEX
  5
55B
330
559
100
AcDbEntity
  8
Ebene 1
 62
   179
420
  1709851
370
    18
100
AcDbVertex
100
AcDb2dVertex
 10
107.0225802683833
 20
-158.0444444049333
 30
0.0
  0
SEQEND
  5
55C
330
559
100
AcDbEntity
  8
Ebene 1
370
    18
  0
POLYLINE
  5
55D
330
1F
100
AcDbEntity
  8
Ebene 1
 62
   179
420
  1709851
370
    18
100
AcDb2dPolyline
 66
     1
 10
0.0
 20
0.0
 30
0.0
  0
VERTEX
  5
55E
330
55D
100
AcDbEntity
  8
Ebene 1
 62
   179
420
  1709851
370
    18
100
AcDbVertex
100
AcDb2dVertex
 10
115.361778399979
 20
-146.4663397528799
 30
0.0
  0
VERTEX
  5
55F
330
55D
100
AcDbEntity
  8
Ebene 1
 62
   179
420
  1709851
370
    18
100
AcDbVertex
100
AcDb2dVertex
 10
117.0974175054479
 20
-145.4717406862883
 30
0.0
  0
SEQEND
  5
560
330
55D
100
AcDbEntity
  8
Ebene 1
370
    18
  0
POLYLINE
  5
561
330
1F
100
AcDbEntity
  8
Ebene 1
 62
   179
420
  1709851
370
    18
100
AcDb2dPolyline
 66
     1
 10
0.0
 20
0.0
 30
0.0
  0
VERTEX
  5
562
330
561
100
AcDbEntity
  8
Ebene 1
 62
   179
420
  1709851
370
    18
100
AcDbVertex
100
AcDb2dVertex
 10
112.7586642513242
 20
-147.9694349130945
 30
0.0
  0
VERTEX
  5
563
330
561
100
AcDbEntity
  8
Ebene 1
 62
   179
420
  1709851
370
    18
100
AcDbVertex
100
AcDb2dVertex
 10
114.4943033567931
 20
-146.9744913369543
 30
0.0
  0
SEQEND
  5
564
330
561
100
AcDbEntity
  8
Ebene 1
370
    18
  0
POLYLINE
  5
565
330
1F
100
AcDbEntity
  8
Ebene 1
 62
   179
420
  1709851
370
    18
100
AcDb2dPolyline
 66
     1
 10
0.0
 20
0.0
 30
0.0
  0
VERTEX
  5
566
330
565
100
AcDbEntity
  8
Ebene 1
 62
   179
420
  1709851
370
    18
100
AcDbVertex
100
AcDb2dVertex
 10
110.1548610835724
 20
-149.4723578185347
 30
0.0
  0
VERTEX
  5
567
330
565
100
AcDbEntity
  8
Ebene 1
 62
   179
420
  1709851
370
    18
100
AcDbVertex
100
AcDb2dVertex
 10
111.8905001890413
 20
-148.4772419876203
 30
0.0
  0
SEQEND
  5
568
330
565
100
AcDbEntity
  8
Ebene 1
370
    18
  0
POLYLINE
  5
569
330
1F
100
AcDbEntity
  8
Ebene 1
 62
   179
420
  1709851
370
    18
100
AcDb2dPolyline
 66
     1
 10
0.0
 20
0.0
 30
0.0
  0
VERTEX
  5
56A
330
569
100
AcDbEntity
  8
Ebene 1
 62
   179
420
  1709851
370
    18
100
AcDbVertex
100
AcDb2dVertex
 10
107.5724175078291
 20
-150.9751084692007
 30
0.0
  0
VERTEX
  5
56B
330
569
100
AcDbEntity
  8
Ebene 1
 62
   179
420
  1709851
370
    18
100
AcDbVertex
100
AcDb2dVertex
 10
109.2873860403865
 20
-149.958805301052
 30
0.0
  0
SEQEND
  5
56C
330
569
100
AcDbEntity
  8
Ebene 1
370
    18
  0
POLYLINE
  5
56D
330
1F
100
AcDbEntity
  8
Ebene 1
 62
   179
420
  1709851
370
    18
100
AcDb2dPolyline
 66
     1
 10
0.0
 20
0.0
 30
0.0
  0
VERTEX
  5
56E
330
56D
100
AcDbEntity
  8
Ebene 1
 62
   179
420
  1709851
370
    18
100
AcDbVertex
100
AcDb2dVertex
 10
105.9215277512974
 20
-151.9273328613237
 30
0.0
  0
VERTEX
  5
56F
330
56D
100
AcDbEntity
  8
Ebene 1
 62
   179
420
  1709851
370
    18
100
AcDbVertex
100
AcDb2dVertex
 10
106.7049424646432
 20
-151.4615559517179
 30
0.0
  0
SEQEND
  5
570
330
56D
100
AcDbEntity
  8
Ebene 1
370
    18
  0
POLYLINE
  5
571
330
1F
100
AcDbEntity
  8
Ebene 1
 62
   179
420
  1709851
370
    18
100
AcDb2dPolyline
 66
     1
 10
0.0
 20
0.0
 30
0.0
  0
VERTEX
  5
572
330
571
100
AcDbEntity
  8
Ebene 1
 62
   179
420
  1709851
370
    18
100
AcDbVertex
100
AcDb2dVertex
 10
117.3513210427108
 20
-143.9476304436138
 30
0.0
  0
VERTEX
  5
573
330
571
100
AcDbEntity
  8
Ebene 1
 62
   179
420
  1709851
370
    18
100
AcDbVertex
100
AcDb2dVertex
 10
117.8804877092452
 20
-143.6303371494223
 30
0.0
  0
SEQEND
  5
574
330
571
100
AcDbEntity
  8
Ebene 1
370
    18
  0
POLYLINE
  5
575
330
1F
100
AcDbEntity
  8
Ebene 1
 62
   179
420
  1709851
370
    18
100
AcDb2dPolyline
 66
     1
 10
0.0
 20
0.0
 30
0.0
  0
VERTEX
  5
576
330
575
100
AcDbEntity
  8
Ebene 1
 62
   179
420
  1709851
370
    18
100
AcDbVertex
100
AcDb2dVertex
 10
114.769221976516
 20
-145.4293660118198
 30
0.0
  0
VERTEX
  5
577
330
575
100
AcDbEntity
  8
Ebene 1
 62
   179
420
  1709851
370
    18
100
AcDbVertex
100
AcDb2dVertex
 10
116.4838459995249
 20
-144.4344224356796
 30
0.0
  0
SEQEND
  5
578
330
575
100
AcDbEntity
  8
Ebene 1
370
    18
  0
POLYLINE
  5
579
330
1F
100
AcDbEntity
  8
Ebene 1
 62
   179
420
  1709851
370
    18
100
AcDb2dPolyline
 66
     1
 10
0.0
 20
0.0
 30
0.0
  0
VERTEX
  5
57A
330
579
100
AcDbEntity
  8
Ebene 1
 62
   179
420
  1709851
370
    18
100
AcDbVertex
100
AcDb2dVertex
 10
112.1654188087642
 20
-146.9321166624857
 30
0.0
  0
VERTEX
  5
57B
330
579
100
AcDbEntity
  8
Ebene 1
 62
   179
420
  1709851
370
    18
100
AcDbVertex
100
AcDb2dVertex
 10
113.9010579142331
 20
-145.9371730863456
 30
0.0
  0
SEQEND
  5
57C
330
579
100
AcDbEntity
  8
Ebene 1
370
    18
  0
POLYLINE
  5
57D
330
1F
100
AcDbEntity
  8
Ebene 1
 62
   179
420
  1709851
370
    18
100
AcDb2dPolyline
 66
     1
 10
0.0
 20
0.0
 30
0.0
  0
VERTEX
  5
57E
330
57D
100
AcDbEntity
  8
Ebene 1
 62
   179
420
  1709851
370
    18
100
AcDbVertex
100
AcDb2dVertex
 10
109.5619601505609
 20
-148.4348673131517
 30
0.0
  0
VERTEX
  5
57F
330
57D
100
AcDbEntity
  8
Ebene 1
 62
   179
420
  1709851
370
    18
100
AcDbVertex
100
AcDb2dVertex
 10
111.2975992560298
 20
-147.4402682465601
 30
0.0
  0
SEQEND
  5
580
330
57D
100
AcDbEntity
  8
Ebene 1
370
    18
  0
POLYLINE
  5
581
330
1F
100
AcDbEntity
  8
Ebene 1
 62
   179
420
  1709851
370
    18
100
AcDb2dPolyline
 66
     1
 10
0.0
 20
0.0
 30
0.0
  0
VERTEX
  5
582
330
581
100
AcDbEntity
  8
Ebene 1
 62
   179
420
  1709851
370
    18
100
AcDbVertex
100
AcDb2dVertex
 10
106.9588460019061
 20
-149.9381347281405
 30
0.0
  0
VERTEX
  5
583
330
581
100
AcDbEntity
  8
Ebene 1
 62
   179
420
  1709851
370
    18
100
AcDbVertex
100
AcDb2dVertex
 10
108.6941405978265
 20
-148.9431911520003
 30
0.0
  0
SEQEND
  5
584
330
581
100
AcDbEntity
  8
Ebene 1
370
    18
  0
POLYLINE
  5
585
330
1F
100
AcDbEntity
  8
Ebene 1
 62
   179
420
  1709851
370
    18
100
AcDb2dPolyline
 66
     1
 10
0.0
 20
0.0
 30
0.0
  0
VERTEX
  5
586
330
585
100
AcDbEntity
  8
Ebene 1
 62
   179
420
  1709851
370
    18
100
AcDbVertex
100
AcDb2dVertex
 10
105.9215277512974
 20
-150.5513617245149
 30
0.0
  0
VERTEX
  5
587
330
585
100
AcDbEntity
  8
Ebene 1
 62
   179
420
  1709851
370
    18
100
AcDbVertex
100
AcDb2dVertex
 10
106.0906819396232
 20
-150.4459418026663
 30
0.0
  0
SEQEND
  5
588
330
585
100
AcDbEntity
  8
Ebene 1
370
    18
  0
POLYLINE
  5
589
330
1F
100
AcDbEntity
  8
Ebene 1
 62
   179
420
  1709851
370
    18
100
AcDb2dPolyline
 66
     1
 10
0.0
 20
0.0
 30
0.0
  0
VERTEX
  5
58A
330
589
100
AcDbEntity
  8
Ebene 1
 62
   179
420
  1709851
370
    18
100
AcDbVertex
100
AcDb2dVertex
 10
117.6265841719822
 20
-138.4020602410071
 30
0.0
  0
VERTEX
  5
58B
330
589
100
AcDbEntity
  8
Ebene 1
 62
   179
420
  1709851
370
    18
100
AcDbVertex
100
AcDb2dVertex
 10
117.8804877092452
 20
-138.2539211351414
 30
0.0
  0
SEQEND
  5
58C
330
589
100
AcDbEntity
  8
Ebene 1
370
    18
  0
POLYLINE
  5
58D
330
1F
100
AcDbEntity
  8
Ebene 1
 62
   179
420
  1709851
370
    18
100
AcDb2dPolyline
 66
     1
 10
0.0
 20
0.0
 30
0.0
  0
VERTEX
  5
58E
330
58D
100
AcDbEntity
  8
Ebene 1
 62
   179
420
  1709851
370
    18
100
AcDbVertex
100
AcDb2dVertex
 10
115.0234700233275
 20
-139.9048108916731
 30
0.0
  0
VERTEX
  5
58F
330
58D
100
AcDbEntity
  8
Ebene 1
 62
   179
420
  1709851
370
    18
100
AcDbVertex
100
AcDb2dVertex
 10
116.7591091287963
 20
-138.9098673155329
 30
0.0
  0
SEQEND
  5
590
330
58D
100
AcDbEntity
  8
Ebene 1
370
    18
  0
POLYLINE
  5
591
330
1F
100
AcDbEntity
  8
Ebene 1
 62
   179
420
  1709851
370
    18
100
AcDb2dPolyline
 66
     1
 10
0.0
 20
0.0
 30
0.0
  0
VERTEX
  5
592
330
591
100
AcDbEntity
  8
Ebene 1
 62
   179
420
  1709851
370
    18
100
AcDbVertex
100
AcDb2dVertex
 10
112.4406819380357
 20
-141.4075615423391
 30
0.0
  0
VERTEX
  5
593
330
591
100
AcDbEntity
  8
Ebene 1
 62
   179
420
  1709851
370
    18
100
AcDbVertex
100
AcDb2dVertex
 10
114.1553059610445
 20
-140.4129624757475
 30
0.0
  0
SEQEND
  5
594
330
591
100
AcDbEntity
  8
Ebene 1
370
    18
  0
POLYLINE
  5
595
330
1F
100
AcDbEntity
  8
Ebene 1
 62
   179
420
  1709851
370
    18
100
AcDb2dPolyline
 66
     1
 10
0.0
 20
0.0
 30
0.0
  0
VERTEX
  5
596
330
595
100
AcDbEntity
  8
Ebene 1
 62
   179
420
  1709851
370
    18
100
AcDbVertex
100
AcDb2dVertex
 10
109.8375677893809
 20
-142.9106567025536
 30
0.0
  0
VERTEX
  5
597
330
595
100
AcDbEntity
  8
Ebene 1
 62
   179
420
  1709851
370
    18
100
AcDbVertex
100
AcDb2dVertex
 10
111.5732068948498
 20
-141.9157131264134
 30
0.0
  0
SEQEND
  5
598
330
595
100
AcDbEntity
  8
Ebene 1
370
    18
  0
POLYLINE
  5
599
330
1F
100
AcDbEntity
  8
Ebene 1
 62
   179
420
  1709851
370
    18
100
AcDb2dPolyline
 66
     1
 10
0.0
 20
0.0
 30
0.0
  0
VERTEX
  5
59A
330
599
100
AcDbEntity
  8
Ebene 1
 62
   179
420
  1709851
370
    18
100
AcDbVertex
100
AcDb2dVertex
 10
107.2341091311776
 20
-144.4134073532196
 30
0.0
  0
VERTEX
  5
59B
330
599
100
AcDbEntity
  8
Ebene 1
 62
   179
420
  1709851
370
    18
100
AcDbVertex
100
AcDb2dVertex
 10
108.9697482366465
 20
-143.3974486946194
 30
0.0
  0
SEQEND
  5
59C
330
599
100
AcDbEntity
  8
Ebene 1
370
    18
  0
POLYLINE
  5
59D
330
1F
100
AcDbEntity
  8
Ebene 1
 62
   179
420
  1709851
370
    18
100
AcDb2dPolyline
 66
     1
 10
0.0
 20
0.0
 30
0.0
  0
VERTEX
  5
59E
330
59D
100
AcDbEntity
  8
Ebene 1
 62
   179
420
  1709851
370
    18
100
AcDbVertex
100
AcDb2dVertex
 10
105.9215277512974
 20
-145.1754624745568
 30
0.0
  0
VERTEX
  5
59F
330
59D
100
AcDbEntity
  8
Ebene 1
 62
   179
420
  1709851
370
    18
100
AcDbVertex
100
AcDb2dVertex
 10
106.3659450688946
 20
-144.9001993452854
 30
0.0
  0
SEQEND
  5
5A0
330
59D
100
AcDbEntity
  8
Ebene 1
370
    18
  0
POLYLINE
  5
5A1
330
1F
100
AcDbEntity
  8
Ebene 1
 62
   179
420
  1709851
370
    18
100
AcDb2dPolyline
 66
     1
 10
0.0
 20
0.0
 30
0.0
  0
VERTEX
  5
5A2
330
5A1
100
AcDbEntity
  8
Ebene 1
 62
   179
420
  1709851
370
    18
100
AcDbVertex
100
AcDb2dVertex
 10
135.4067219713567
 20
-133.194798415052
 30
0.0
  0
VERTEX
  5
5A3
330
5A1
100
AcDbEntity
  8
Ebene 1
 62
   179
420
  1709851
370
    18
100
AcDbVertex
100
AcDb2dVertex
 10
136.9304877044827
 20
-132.3059637798575
 30
0.0
  0
SEQEND
  5
5A4
330
5A1
100
AcDbEntity
  8
Ebene 1
370
    18
  0
POLYLINE
  5
5A5
330
1F
100
AcDbEntity
  8
Ebene 1
 62
   179
420
  1709851
370
    18
100
AcDb2dPolyline
 66
     1
 10
0.0
 20
0.0
 30
0.0
  0
VERTEX
  5
5A6
330
5A5
100
AcDbEntity
  8
Ebene 1
 62
   179
420
  1709851
370
    18
100
AcDbVertex
100
AcDb2dVertex
 10
134.3483886382879
 20
-133.8087144305235
 30
0.0
  0
VERTEX
  5
5A7
330
5A5
100
AcDbEntity
  8
Ebene 1
 62
   179
420
  1709851
370
    18
100
AcDbVertex
100
AcDb2dVertex
 10
134.5385579090737
 20
-133.6819349166663
 30
0.0
  0
SEQEND
  5
5A8
330
5A5
100
AcDbEntity
  8
Ebene 1
370
    18
  0
POLYLINE
  5
5A9
330
1F
100
AcDbEntity
  8
Ebene 1
 62
   179
420
  1709851
370
    18
100
AcDb2dPolyline
 66
     1
 10
0.0
 20
0.0
 30
0.0
  0
VERTEX
  5
5AA
330
5A9
100
AcDbEntity
  8
Ebene 1
 62
   179
420
  1709851
370
    18
100
AcDbVertex
100
AcDb2dVertex
 10
134.3483886382879
 20
-133.9782131283978
 30
0.0
  0
VERTEX
  5
5AB
330
5A9
100
AcDbEntity
  8
Ebene 1
 62
   179
420
  1709851
370
    18
100
AcDbVertex
100
AcDb2dVertex
 10
134.3483886382879
 20
-133.8087144305235
 30
0.0
  0
SEQEND
  5
5AC
330
5A9
100
AcDbEntity
  8
Ebene 1
370
    18
  0
POLYLINE
  5
5AD
330
1F
100
AcDbEntity
  8
Ebene 1
 62
   179
420
  1709851
370
    18
100
AcDb2dPolyline
 66
     1
 10
0.0
 20
0.0
 30
0.0
  0
VERTEX
  5
5AE
330
5AD
100
AcDbEntity
  8
Ebene 1
 62
   179
420
  1709851
370
    18
100
AcDbVertex
100
AcDb2dVertex
 10
134.3483886382879
 20
-135.5019788615238
 30
0.0
  0
VERTEX
  5
5AF
330
5AD
100
AcDbEntity
  8
Ebene 1
 62
   179
420
  1709851
370
    18
100
AcDbVertex
100
AcDb2dVertex
 10
134.3483886382879
 20
-135.5019788615238
 30
0.0
  0
VERTEX
  5
5B0
330
5AD
100
AcDbEntity
  8
Ebene 1
 62
   179
420
  1709851
370
    18
100
AcDbVertex
100
AcDb2dVertex
 10
134.3483886382879
 20
-134.9728121949894
 30
0.0
  0
SEQEND
  5
5B1
330
5AD
100
AcDbEntity
  8
Ebene 1
370
    18
  0
POLYLINE
  5
5B2
330
1F
100
AcDbEntity
  8
Ebene 1
 62
   179
420
  1709851
370
    18
100
AcDb2dPolyline
 66
     1
 10
0.0
 20
0.0
 30
0.0
  0
VERTEX
  5
5B3
330
5B2
100
AcDbEntity
  8
Ebene 1
 62
   179
420
  1709851
370
    18
100
AcDbVertex
100
AcDb2dVertex
 10
136.9304877044827
 20
-133.9782131283978
 30
0.0
  0
VERTEX
  5
5B4
330
5B2
100
AcDbEntity
  8
Ebene 1
 62
   179
420
  1709851
370
    18
100
AcDbVertex
100
AcDb2dVertex
 10
136.9304877044827
 20
-132.3059637798575
 30
0.0
  0
SEQEND
  5
5B5
330
5B2
100
AcDbEntity
  8
Ebene 1
370
    18
  0
POLYLINE
  5
5B6
330
1F
100
AcDbEntity
  8
Ebene 1
 62
   179
420
  1709851
370
    18
100
AcDb2dPolyline
 66
     1
 10
0.0
 20
0.0
 30
0.0
  0
VERTEX
  5
5B7
330
5B6
100
AcDbEntity
  8
Ebene 1
 62
   179
420
  1709851
370
    18
100
AcDbVertex
100
AcDb2dVertex
 10
136.4436957124169
 20
-134.9728121949894
 30
0.0
  0
VERTEX
  5
5B8
330
5B6
100
AcDbEntity
  8
Ebene 1
 62
   179
420
  1709851
370
    18
100
AcDbVertex
100
AcDb2dVertex
 10
137.0362521358798
 20
-134.6131442263294
 30
0.0
  0
SEQEND
  5
5B9
330
5B6
100
AcDbEntity
  8
Ebene 1
370
    18
  0
POLYLINE
  5
5BA
330
1F
100
AcDbEntity
  8
Ebene 1
 62
   179
420
  1709851
370
    18
100
AcDb2dPolyline
 66
     1
 10
0.0
 20
0.0
 30
0.0
  0
VERTEX
  5
5BB
330
5BA
100
AcDbEntity
  8
Ebene 1
 62
   179
420
  1709851
370
    18
100
AcDbVertex
100
AcDb2dVertex
 10
134.4544975792336
 20
-136.1158948769953
 30
0.0
  0
VERTEX
  5
5BC
330
5BA
100
AcDbEntity
  8
Ebene 1
 62
   179
420
  1709851
370
    18
100
AcDbVertex
100
AcDb2dVertex
 10
134.4544975792336
 20
-136.1158948769953
 30
0.0
  0
VERTEX
  5
5BD
330
5BA
100
AcDbEntity
  8
Ebene 1
 62
   179
420
  1709851
370
    18
100
AcDbVertex
100
AcDb2dVertex
 10
135.5758761596824
 20
-135.4809637790638
 30
0.0
  0
SEQEND
  5
5BE
330
5BA
100
AcDbEntity
  8
Ebene 1
370
    18
  0
POLYLINE
  5
5BF
330
1F
100
AcDbEntity
  8
Ebene 1
 62
   179
420
  1709851
370
    18
100
AcDb2dPolyline
 66
     1
 10
0.0
 20
0.0
 30
0.0
  0
VERTEX
  5
5C0
330
5BF
100
AcDbEntity
  8
Ebene 1
 62
   179
420
  1709851
370
    18
100
AcDbVertex
100
AcDb2dVertex
 10
136.9304877044827
 20
-133.9992282108578
 30
0.0
  0
VERTEX
  5
5C1
330
5BF
100
AcDbEntity
  8
Ebene 1
 62
   179
420
  1709851
370
    18
100
AcDbVertex
100
AcDb2dVertex
 10
136.9304877044827
 20
-133.9992282108578
 30
0.0
  0
VERTEX
  5
5C2
330
5BF
100
AcDbEntity
  8
Ebene 1
 62
   179
420
  1709851
370
    18
100
AcDbVertex
100
AcDb2dVertex
 10
137.0155815629683
 20
-134.4860202029236
 30
0.0
  0
SEQEND
  5
5C3
330
5BF
100
AcDbEntity
  8
Ebene 1
370
    18
  0
POLYLINE
  5
5C4
330
1F
100
AcDbEntity
  8
Ebene 1
 62
   179
420
  1709851
370
    18
100
AcDb2dPolyline
 66
     1
 10
0.0
 20
0.0
 30
0.0
  0
VERTEX
  5
5C5
330
5C4
100
AcDbEntity
  8
Ebene 1
 62
   179
420
  1709851
370
    18
100
AcDbVertex
100
AcDb2dVertex
 10
134.412122904765
 20
-135.9467406886696
 30
0.0
  0
VERTEX
  5
5C6
330
5C4
100
AcDbEntity
  8
Ebene 1
 62
   179
420
  1709851
370
    18
100
AcDbVertex
100
AcDb2dVertex
 10
134.4544975792336
 20
-136.1158948769953
 30
0.0
  0
SEQEND
  5
5C7
330
5C4
100
AcDbEntity
  8
Ebene 1
370
    18
  0
POLYLINE
  5
5C8
330
1F
100
AcDbEntity
  8
Ebene 1
 62
   179
420
  1709851
370
    18
100
AcDb2dPolyline
 66
     1
 10
0.0
 20
0.0
 30
0.0
  0
VERTEX
  5
5C9
330
5C8
100
AcDbEntity
  8
Ebene 1
 62
   179
420
  1709851
370
    18
100
AcDbVertex
100
AcDb2dVertex
 10
126.7709011184809
 20
-130.9723673175173
 30
0.0
  0
VERTEX
  5
5CA
330
5C8
100
AcDbEntity
  8
Ebene 1
 62
   179
420
  1709851
370
    18
100
AcDbVertex
100
AcDb2dVertex
 10
126.7709011184809
 20
-130.4221855685229
 30
0.0
  0
SEQEND
  5
5CB
330
5C8
100
AcDbEntity
  8
Ebene 1
370
    18
  0
POLYLINE
  5
5CC
330
1F
100
AcDbEntity
  8
Ebene 1
 62
   179
420
  1709851
370
    18
100
AcDb2dPolyline
 66
     1
 10
0.0
 20
0.0
 30
0.0
  0
VERTEX
  5
5CD
330
5CC
100
AcDbEntity
  8
Ebene 1
 62
   179
420
  1709851
370
    18
100
AcDbVertex
100
AcDb2dVertex
 10
126.7709011184809
 20
-130.4221855685229
 30
0.0
  0
VERTEX
  5
5CE
330
5CC
100
AcDbEntity
  8
Ebene 1
 62
   179
420
  1709851
370
    18
100
AcDbVertex
100
AcDb2dVertex
 10
126.7709011184809
 20
-130.4221855685229
 30
0.0
  0
VERTEX
  5
5CF
330
5CC
100
AcDbEntity
  8
Ebene 1
 62
   179
420
  1709851
370
    18
100
AcDbVertex
100
AcDb2dVertex
 10
127.1519286791495
 20
-131.2476304467888
 30
0.0
  0
SEQEND
  5
5D0
330
5CC
100
AcDbEntity
  8
Ebene 1
370
    18
  0
POLYLINE
  5
5D1
330
1F
100
AcDbEntity
  8
Ebene 1
 62
   179
420
  1709851
370
    18
100
AcDb2dPolyline
 66
     1
 10
0.0
 20
0.0
 30
0.0
  0
VERTEX
  5
5D2
330
5D1
100
AcDbEntity
  8
Ebene 1
 62
   179
420
  1709851
370
    18
100
AcDbVertex
100
AcDb2dVertex
 10
126.7709011184809
 20
-131.4171291446631
 30
0.0
  0
VERTEX
  5
5D3
330
5D1
100
AcDbEntity
  8
Ebene 1
 62
   179
420
  1709851
370
    18
100
AcDbVertex
100
AcDb2dVertex
 10
127.0668348206639
 20
-132.0520602425946
 30
0.0
  0
SEQEND
  5
5D4
330
5D1
100
AcDbEntity
  8
Ebene 1
370
    18
  0
POLYLINE
  5
5D5
330
1F
100
AcDbEntity
  8
Ebene 1
 62
   179
420
  1709851
370
    18
100
AcDb2dPolyline
 66
     1
 10
0.0
 20
0.0
 30
0.0
  0
VERTEX
  5
5D6
330
5D5
100
AcDbEntity
  8
Ebene 1
 62
   179
420
  1709851
370
    18
100
AcDbVertex
100
AcDb2dVertex
 10
128.929942459087
 20
-133.3853121953863
 30
0.0
  0
VERTEX
  5
5D7
330
5D5
100
AcDbEntity
  8
Ebene 1
 62
   179
420
  1709851
370
    18
100
AcDbVertex
100
AcDb2dVertex
 10
128.929942459087
 20
-132.2849486973975
 30
0.0
  0
SEQEND
  5
5D8
330
5D5
100
AcDbEntity
  8
Ebene 1
370
    18
  0
POLYLINE
  5
5D9
330
1F
100
AcDbEntity
  8
Ebene 1
 62
   179
420
  1709851
370
    18
100
AcDb2dPolyline
 66
     1
 10
0.0
 20
0.0
 30
0.0
  0
VERTEX
  5
5DA
330
5D9
100
AcDbEntity
  8
Ebene 1
 62
   179
420
  1709851
370
    18
100
AcDbVertex
100
AcDb2dVertex
 10
127.4905815653496
 20
-133.3853121953863
 30
0.0
  0
VERTEX
  5
5DB
330
5D9
100
AcDbEntity
  8
Ebene 1
 62
   179
420
  1709851
370
    18
100
AcDbVertex
100
AcDb2dVertex
 10
127.4905815653496
 20
-132.3059637798575
 30
0.0
  0
SEQEND
  5
5DC
330
5D9
100
AcDbEntity
  8
Ebene 1
370
    18
  0
POLYLINE
  5
5DD
330
1F
100
AcDbEntity
  8
Ebene 1
 62
   179
420
  1709851
370
    18
100
AcDb2dPolyline
 66
     1
 10
0.0
 20
0.0
 30
0.0
  0
VERTEX
  5
5DE
330
5DD
100
AcDbEntity
  8
Ebene 1
 62
   179
420
  1709851
370
    18
100
AcDbVertex
100
AcDb2dVertex
 10
128.7600992516641
 20
-133.7029499991264
 30
0.0
  0
VERTEX
  5
5DF
330
5DD
100
AcDbEntity
  8
Ebene 1
 62
   179
420
  1709851
370
    18
100
AcDbVertex
100
AcDb2dVertex
 10
128.8875677846184
 20
-133.5971855677292
 30
0.0
  0
VERTEX
  5
5E0
330
5DD
100
AcDbEntity
  8
Ebene 1
 62
   179
420
  1709851
370
    18
100
AcDbVertex
100
AcDb2dVertex
 10
128.929942459087
 20
-133.4276868698549
 30
0.0
  0
VERTEX
  5
5E1
330
5DD
100
AcDbEntity
  8
Ebene 1
 62
   179
420
  1709851
370
    18
100
AcDbVertex
100
AcDb2dVertex
 10
128.929942459087
 20
-133.3853121953863
 30
0.0
  0
SEQEND
  5
5E2
330
5DD
100
AcDbEntity
  8
Ebene 1
370
    18
  0
POLYLINE
  5
5E3
330
1F
100
AcDbEntity
  8
Ebene 1
 62
   179
420
  1709851
370
    18
100
AcDb2dPolyline
 66
     1
 10
0.0
 20
0.0
 30
0.0
  0
VERTEX
  5
5E4
330
5E3
100
AcDbEntity
  8
Ebene 1
 62
   179
420
  1709851
370
    18
100
AcDbVertex
100
AcDb2dVertex
 10
127.4905815653496
 20
-133.3853121953863
 30
0.0
  0
VERTEX
  5
5E5
330
5E3
100
AcDbEntity
  8
Ebene 1
 62
   179
420
  1709851
370
    18
100
AcDbVertex
100
AcDb2dVertex
 10
127.5329562398182
 20
-133.5548108932606
 30
0.0
  0
VERTEX
  5
5E6
330
5E3
100
AcDbEntity
  8
Ebene 1
 62
   179
420
  1709851
370
    18
100
AcDbVertex
100
AcDb2dVertex
 10
127.6383761616668
 20
-133.7029499991264
 30
0.0
  0
VERTEX
  5
5E7
330
5E3
100
AcDbEntity
  8
Ebene 1
 62
   179
420
  1709851
370
    18
100
AcDbVertex
100
AcDb2dVertex
 10
127.6810953456839
 20
-133.7029499991264
 30
0.0
  0
SEQEND
  5
5E8
330
5E3
100
AcDbEntity
  8
Ebene 1
370
    18
  0
POLYLINE
  5
5E9
330
1F
100
AcDbEntity
  8
Ebene 1
 62
   179
420
  1709851
370
    18
100
AcDb2dPolyline
 66
     1
 10
0.0
 20
0.0
 30
0.0
  0
VERTEX
  5
5EA
330
5E9
100
AcDbEntity
  8
Ebene 1
 62
   179
420
  1709851
370
    18
100
AcDbVertex
100
AcDb2dVertex
 10
127.6810953456839
 20
-133.7029499991264
 30
0.0
  0
VERTEX
  5
5EB
330
5E9
100
AcDbEntity
  8
Ebene 1
 62
   179
420
  1709851
370
    18
100
AcDbVertex
100
AcDb2dVertex
 10
127.9563584749554
 20
-133.8300740225321
 30
0.0
  0
VERTEX
  5
5EC
330
5E9
100
AcDbEntity
  8
Ebene 1
 62
   179
420
  1709851
370
    18
100
AcDbVertex
100
AcDb2dVertex
 10
128.2526366866869
 20
-133.8510891049921
 30
0.0
  0
VERTEX
  5
5ED
330
5E9
100
AcDbEntity
  8
Ebene 1
 62
   179
420
  1709851
370
    18
100
AcDbVertex
100
AcDb2dVertex
 10
128.5489148984183
 20
-133.8087144305235
 30
0.0
  0
VERTEX
  5
5EE
330
5E9
100
AcDbEntity
  8
Ebene 1
 62
   179
420
  1709851
370
    18
100
AcDbVertex
100
AcDb2dVertex
 10
128.7600992516641
 20
-133.7029499991264
 30
0.0
  0
SEQEND
  5
5EF
330
5E9
100
AcDbEntity
  8
Ebene 1
370
    18
  0
POLYLINE
  5
5F0
330
1F
100
AcDbEntity
  8
Ebene 1
 62
   179
420
  1709851
370
    18
100
AcDb2dPolyline
 66
     1
 10
0.0
 20
0.0
 30
0.0
  0
VERTEX
  5
5F1
330
5F0
100
AcDbEntity
  8
Ebene 1
 62
   179
420
  1709851
370
    18
100
AcDbVertex
100
AcDb2dVertex
 10
128.6119601457984
 20
-132.4754624777318
 30
0.0
  0
VERTEX
  5
5F2
330
5F0
100
AcDbEntity
  8
Ebene 1
 62
   179
420
  1709851
370
    18
100
AcDbVertex
100
AcDb2dVertex
 10
129.6702934788672
 20
-131.8615464622603
 30
0.0
  0
SEQEND
  5
5F3
330
5F0
100
AcDbEntity
  8
Ebene 1
370
    18
  0
POLYLINE
  5
5F4
330
1F
100
AcDbEntity
  8
Ebene 1
 62
   179
420
  1709851
370
    18
100
AcDb2dPolyline
 66
     1
 10
0.0
 20
0.0
 30
0.0
  0
VERTEX
  5
5F5
330
5F4
100
AcDbEntity
  8
Ebene 1
 62
   179
420
  1709851
370
    18
100
AcDbVertex
100
AcDb2dVertex
 10
127.1519286791495
 20
-132.263589105389
 30
0.0
  0
VERTEX
  5
5F6
330
5F4
100
AcDbEntity
  8
Ebene 1
 62
   179
420
  1709851
370
    18
100
AcDbVertex
100
AcDb2dVertex
 10
127.744140593064
 20
-132.3483384543261
 30
0.0
  0
SEQEND
  5
5F7
330
5F4
100
AcDbEntity
  8
Ebene 1
370
    18
  0
POLYLINE
  5
5F8
330
1F
100
AcDbEntity
  8
Ebene 1
 62
   179
420
  1709851
370
    18
100
AcDb2dPolyline
 66
     1
 10
0.0
 20
0.0
 30
0.0
  0
VERTEX
  5
5F9
330
5F8
100
AcDbEntity
  8
Ebene 1
 62
   179
420
  1709851
370
    18
100
AcDbVertex
100
AcDb2dVertex
 10
127.1519286791495
 20
-132.263589105389
 30
0.0
  0
VERTEX
  5
5FA
330
5F8
100
AcDbEntity
  8
Ebene 1
 62
   179
420
  1709851
370
    18
100
AcDbVertex
100
AcDb2dVertex
 10
127.1519286791495
 20
-132.263589105389
 30
0.0
  0
VERTEX
  5
5FB
330
5F8
100
AcDbEntity
  8
Ebene 1
 62
   179
420
  1709851
370
    18
100
AcDbVertex
100
AcDb2dVertex
 10
127.1519286791495
 20
-131.9673108936575
 30
0.0
  0
SEQEND
  5
5FC
330
5F8
100
AcDbEntity
  8
Ebene 1
370
    18
  0
POLYLINE
  5
5FD
330
1F
100
AcDbEntity
  8
Ebene 1
 62
   179
420
  1709851
370
    18
100
AcDb2dPolyline
 66
     1
 10
0.0
 20
0.0
 30
0.0
  0
VERTEX
  5
5FE
330
5FD
100
AcDbEntity
  8
Ebene 1
 62
   179
420
  1709851
370
    18
100
AcDbVertex
100
AcDb2dVertex
 10
129.6702934788672
 20
-130.9723673175173
 30
0.0
  0
VERTEX
  5
5FF
330
5FD
100
AcDbEntity
  8
Ebene 1
 62
   179
420
  1709851
370
    18
100
AcDbVertex
100
AcDb2dVertex
 10
129.6702934788672
 20
-130.8666028861201
 30
0.0
  0
SEQEND
  5
600
330
5FD
100
AcDbEntity
  8
Ebene 1
370
    18
  0
POLYLINE
  5
601
330
1F
100
AcDbEntity
  8
Ebene 1
 62
   179
420
  1709851
370
    18
100
AcDb2dPolyline
 66
     1
 10
0.0
 20
0.0
 30
0.0
  0
VERTEX
  5
602
330
601
100
AcDbEntity
  8
Ebene 1
 62
   179
420
  1709851
370
    18
100
AcDbVertex
100
AcDb2dVertex
 10
128.6119601457984
 20
-132.4754624777318
 30
0.0
  0
VERTEX
  5
603
330
601
100
AcDbEntity
  8
Ebene 1
 62
   179
420
  1709851
370
    18
100
AcDbVertex
100
AcDb2dVertex
 10
128.6119601457984
 20
-132.4754624777318
 30
0.0
  0
VERTEX
  5
604
330
601
100
AcDbEntity
  8
Ebene 1
 62
   179
420
  1709851
370
    18
100
AcDbVertex
100
AcDb2dVertex
 10
128.6119601457984
 20
-131.9673108936575
 30
0.0
  0
SEQEND
  5
605
330
601
100
AcDbEntity
  8
Ebene 1
370
    18
  0
POLYLINE
  5
606
330
1F
100
AcDbEntity
  8
Ebene 1
 62
   179
420
  1709851
370
    18
100
AcDb2dPolyline
 66
     1
 10
0.0
 20
0.0
 30
0.0
  0
VERTEX
  5
607
330
606
100
AcDbEntity
  8
Ebene 1
 62
   179
420
  1709851
370
    18
100
AcDbVertex
100
AcDb2dVertex
 10
127.1519286791495
 20
-131.2476304467888
 30
0.0
  0
VERTEX
  5
608
330
606
100
AcDbEntity
  8
Ebene 1
 62
   179
420
  1709851
370
    18
100
AcDbVertex
100
AcDb2dVertex
 10
127.1519286791495
 20
-131.2476304467888
 30
0.0
  0
VERTEX
  5
609
330
606
100
AcDbEntity
  8
Ebene 1
 62
   179
420
  1709851
370
    18
100
AcDbVertex
100
AcDb2dVertex
 10
127.8922796989297
 20
-131.3747544701945
 30
0.0
  0
SEQEND
  5
60A
330
606
100
AcDbEntity
  8
Ebene 1
370
    18
  0
POLYLINE
  5
60B
330
1F
100
AcDbEntity
  8
Ebene 1
 62
   179
420
  1709851
370
    18
100
AcDb2dPolyline
 66
     1
 10
0.0
 20
0.0
 30
0.0
  0
VERTEX
  5
60C
330
60B
100
AcDbEntity
  8
Ebene 1
 62
   179
420
  1709851
370
    18
100
AcDbVertex
100
AcDb2dVertex
 10
129.268595345287
 20
-130.0411580078543
 30
0.0
  0
VERTEX
  5
60D
330
60B
100
AcDbEntity
  8
Ebene 1
 62
   179
420
  1709851
370
    18
100
AcDbVertex
100
AcDb2dVertex
 10
129.6496229059557
 20
-130.8455878036601
 30
0.0
  0
SEQEND
  5
60E
330
60B
100
AcDbEntity
  8
Ebene 1
370
    18
  0
POLYLINE
  5
60F
330
1F
100
AcDbEntity
  8
Ebene 1
 62
   179
420
  1709851
370
    18
100
AcDb2dPolyline
 66
     1
 10
0.0
 20
0.0
 30
0.0
  0
VERTEX
  5
610
330
60F
100
AcDbEntity
  8
Ebene 1
 62
   179
420
  1709851
370
    18
100
AcDbVertex
100
AcDb2dVertex
 10
129.1204562394213
 20
-129.9987833333857
 30
0.0
  0
VERTEX
  5
611
330
60F
100
AcDbEntity
  8
Ebene 1
 62
   179
420
  1709851
370
    18
100
AcDbVertex
100
AcDb2dVertex
 10
129.268595345287
 20
-130.0411580078543
 30
0.0
  0
SEQEND
  5
612
330
60F
100
AcDbEntity
  8
Ebene 1
370
    18
  0
POLYLINE
  5
613
330
1F
100
AcDbEntity
  8
Ebene 1
 62
   179
420
  1709851
370
    18
100
AcDb2dPolyline
 66
     1
 10
0.0
 20
0.0
 30
0.0
  0
VERTEX
  5
614
330
613
100
AcDbEntity
  8
Ebene 1
 62
   179
420
  1709851
370
    18
100
AcDbVertex
100
AcDb2dVertex
 10
127.8292344515496
 20
-129.8082695530514
 30
0.0
  0
VERTEX
  5
615
330
613
100
AcDbEntity
  8
Ebene 1
 62
   179
420
  1709851
370
    18
100
AcDbVertex
100
AcDb2dVertex
 10
128.1251681537326
 20
-129.85064422752
 30
0.0
  0
SEQEND
  5
616
330
613
100
AcDbEntity
  8
Ebene 1
370
    18
  0
POLYLINE
  5
617
330
1F
100
AcDbEntity
  8
Ebene 1
 62
   179
420
  1709851
370
    18
100
AcDb2dPolyline
 66
     1
 10
0.0
 20
0.0
 30
0.0
  0
VERTEX
  5
618
330
617
100
AcDbEntity
  8
Ebene 1
 62
   179
420
  1709851
370
    18
100
AcDbVertex
100
AcDb2dVertex
 10
128.6119601457984
 20
-131.4805189015917
 30
0.0
  0
VERTEX
  5
619
330
617
100
AcDbEntity
  8
Ebene 1
 62
   179
420
  1709851
370
    18
100
AcDbVertex
100
AcDb2dVertex
 10
128.6119601457984
 20
-131.4805189015917
 30
0.0
  0
VERTEX
  5
61A
330
617
100
AcDbEntity
  8
Ebene 1
 62
   179
420
  1709851
370
    18
100
AcDbVertex
100
AcDb2dVertex
 10
129.5011392905414
 20
-130.9513522350573
 30
0.0
  0
SEQEND
  5
61B
330
617
100
AcDbEntity
  8
Ebene 1
370
    18
  0
POLYLINE
  5
61C
330
1F
100
AcDbEntity
  8
Ebene 1
 62
   179
420
  1709851
370
    18
100
AcDb2dPolyline
 66
     1
 10
0.0
 20
0.0
 30
0.0
  0
VERTEX
  5
61D
330
61C
100
AcDbEntity
  8
Ebene 1
 62
   179
420
  1709851
370
    18
100
AcDbVertex
100
AcDb2dVertex
 10
128.929942459087
 20
-133.3853121953863
 30
0.0
  0
VERTEX
  5
61E
330
61C
100
AcDbEntity
  8
Ebene 1
 62
   179
420
  1709851
370
    18
100
AcDbVertex
100
AcDb2dVertex
 10
128.929942459087
 20
-133.3429375209178
 30
0.0
  0
SEQEND
  5
61F
330
61C
100
AcDbEntity
  8
Ebene 1
370
    18
  0
POLYLINE
  5
620
330
1F
100
AcDbEntity
  8
Ebene 1
 62
   179
420
  1709851
370
    18
100
AcDb2dPolyline
 66
     1
 10
0.0
 20
0.0
 30
0.0
  0
VERTEX
  5
621
330
620
100
AcDbEntity
  8
Ebene 1
 62
   179
420
  1709851
370
    18
100
AcDbVertex
100
AcDb2dVertex
 10
127.4905815653496
 20
-133.3429375209178
 30
0.0
  0
VERTEX
  5
622
330
620
100
AcDbEntity
  8
Ebene 1
 62
   179
420
  1709851
370
    18
100
AcDbVertex
100
AcDb2dVertex
 10
127.4905815653496
 20
-133.3853121953863
 30
0.0
  0
SEQEND
  5
623
330
620
100
AcDbEntity
  8
Ebene 1
370
    18
  0
POLYLINE
  5
624
330
1F
100
AcDbEntity
  8
Ebene 1
 62
   179
420
  1709851
370
    18
100
AcDb2dPolyline
 66
     1
 10
0.0
 20
0.0
 30
0.0
  0
VERTEX
  5
625
330
624
100
AcDbEntity
  8
Ebene 1
 62
   179
420
  1709851
370
    18
100
AcDbVertex
100
AcDb2dVertex
 10
126.4108886402723
 20
-129.5967406902571
 30
0.0
  0
VERTEX
  5
626
330
624
100
AcDbEntity
  8
Ebene 1
 62
   179
420
  1709851
370
    18
100
AcDbVertex
100
AcDb2dVertex
 10
127.8082193690896
 20
-128.7923108944512
 30
0.0
  0
SEQEND
  5
627
330
624
100
AcDbEntity
  8
Ebene 1
370
    18
  0
POLYLINE
  5
628
330
1F
100
AcDbEntity
  8
Ebene 1
 62
   179
420
  1709851
370
    18
100
AcDb2dPolyline
 66
     1
 10
0.0
 20
0.0
 30
0.0
  0
VERTEX
  5
629
330
628
100
AcDbEntity
  8
Ebene 1
 62
   179
420
  1709851
370
    18
100
AcDbVertex
100
AcDb2dVertex
 10
123.8070854725205
 20
-131.099491340923
 30
0.0
  0
VERTEX
  5
62A
330
628
100
AcDbEntity
  8
Ebene 1
 62
   179
420
  1709851
370
    18
100
AcDbVertex
100
AcDb2dVertex
 10
125.5427245779893
 20
-130.0835326823229
 30
0.0
  0
SEQEND
  5
62B
330
628
100
AcDbEntity
  8
Ebene 1
370
    18
  0
POLYLINE
  5
62C
330
1F
100
AcDbEntity
  8
Ebene 1
 62
   179
420
  1709851
370
    18
100
AcDb2dPolyline
 66
     1
 10
0.0
 20
0.0
 30
0.0
  0
VERTEX
  5
62D
330
62C
100
AcDbEntity
  8
Ebene 1
 62
   179
420
  1709851
370
    18
100
AcDbVertex
100
AcDb2dVertex
 10
121.2036268143172
 20
-132.581226909129
 30
0.0
  0
VERTEX
  5
62E
330
62C
100
AcDbEntity
  8
Ebene 1
 62
   179
420
  1709851
370
    18
100
AcDbVertex
100
AcDb2dVertex
 10
122.939265919786
 20
-131.5862833329888
 30
0.0
  0
SEQEND
  5
62F
330
62C
100
AcDbEntity
  8
Ebene 1
370
    18
  0
POLYLINE
  5
630
330
1F
100
AcDbEntity
  8
Ebene 1
 62
   179
420
  1709851
370
    18
100
AcDb2dPolyline
 66
     1
 10
0.0
 20
0.0
 30
0.0
  0
VERTEX
  5
631
330
630
100
AcDbEntity
  8
Ebene 1
 62
   179
420
  1709851
370
    18
100
AcDbVertex
100
AcDb2dVertex
 10
120.2300428301856
 20
-133.1527682501319
 30
0.0
  0
VERTEX
  5
632
330
630
100
AcDbEntity
  8
Ebene 1
 62
   179
420
  1709851
370
    18
100
AcDbVertex
100
AcDb2dVertex
 10
120.3358072615827
 20
-133.0890339836548
 30
0.0
  0
SEQEND
  5
633
330
630
100
AcDbEntity
  8
Ebene 1
370
    18
  0
POLYLINE
  5
634
330
1F
100
AcDbEntity
  8
Ebene 1
 62
   179
420
  1709851
370
    18
100
AcDb2dPolyline
 66
     1
 10
0.0
 20
0.0
 30
0.0
  0
VERTEX
  5
635
330
634
100
AcDbEntity
  8
Ebene 1
 62
   179
420
  1709851
370
    18
100
AcDbVertex
100
AcDb2dVertex
 10
154.0119601394484
 20
-117.4045477679579
 30
0.0
  0
VERTEX
  5
636
330
634
100
AcDbEntity
  8
Ebene 1
 62
   179
420
  1709851
370
    18
100
AcDbVertex
100
AcDb2dVertex
 10
154.4353623745856
 20
-117.171659313155
 30
0.0
  0
SEQEND
  5
637
330
634
100
AcDbEntity
  8
Ebene 1
370
    18
  0
POLYLINE
  5
638
330
1F
100
AcDbEntity
  8
Ebene 1
 62
   179
420
  1709851
370
    18
100
AcDb2dPolyline
 66
     1
 10
0.0
 20
0.0
 30
0.0
  0
VERTEX
  5
639
330
638
100
AcDbEntity
  8
Ebene 1
 62
   179
420
  1709851
370
    18
100
AcDbVertex
100
AcDb2dVertex
 10
151.4085014812451
 20
-118.9072984186239
 30
0.0
  0
VERTEX
  5
63A
330
638
100
AcDbEntity
  8
Ebene 1
 62
   179
420
  1709851
370
    18
100
AcDbVertex
100
AcDb2dVertex
 10
153.144140586714
 20
-117.9126993520322
 30
0.0
  0
SEQEND
  5
63B
330
638
100
AcDbEntity
  8
Ebene 1
370
    18
  0
POLYLINE
  5
63C
330
1F
100
AcDbEntity
  8
Ebene 1
 62
   179
420
  1709851
370
    18
100
AcDb2dPolyline
 66
     1
 10
0.0
 20
0.0
 30
0.0
  0
VERTEX
  5
63D
330
63C
100
AcDbEntity
  8
Ebene 1
 62
   179
420
  1709851
370
    18
100
AcDbVertex
100
AcDb2dVertex
 10
148.8050428230418
 20
-120.4103935788384
 30
0.0
  0
VERTEX
  5
63E
330
63C
100
AcDbEntity
  8
Ebene 1
 62
   179
420
  1709851
370
    18
100
AcDbVertex
100
AcDb2dVertex
 10
150.5406819285107
 20
-119.3944349202382
 30
0.0
  0
SEQEND
  5
63F
330
63C
100
AcDbEntity
  8
Ebene 1
370
    18
  0
POLYLINE
  5
640
330
1F
100
AcDbEntity
  8
Ebene 1
 62
   179
420
  1709851
370
    18
100
AcDb2dPolyline
 66
     1
 10
0.0
 20
0.0
 30
0.0
  0
VERTEX
  5
641
330
640
100
AcDbEntity
  8
Ebene 1
 62
   179
420
  1709851
370
    18
100
AcDbVertex
100
AcDb2dVertex
 10
146.2225992472985
 20
-121.9131442295044
 30
0.0
  0
VERTEX
  5
642
330
640
100
AcDbEntity
  8
Ebene 1
 62
   179
420
  1709851
370
    18
100
AcDbVertex
100
AcDb2dVertex
 10
147.9375677798559
 20
-120.8971855709042
 30
0.0
  0
SEQEND
  5
643
330
640
100
AcDbEntity
  8
Ebene 1
370
    18
  0
POLYLINE
  5
644
330
1F
100
AcDbEntity
  8
Ebene 1
 62
   179
420
  1709851
370
    18
100
AcDb2dPolyline
 66
     1
 10
0.0
 20
0.0
 30
0.0
  0
VERTEX
  5
645
330
644
100
AcDbEntity
  8
Ebene 1
 62
   179
420
  1709851
370
    18
100
AcDbVertex
100
AcDb2dVertex
 10
143.6191405890952
 20
-123.3948797977103
 30
0.0
  0
VERTEX
  5
646
330
644
100
AcDbEntity
  8
Ebene 1
 62
   179
420
  1709851
370
    18
100
AcDbVertex
100
AcDb2dVertex
 10
145.3547796945641
 20
-122.3999362215702
 30
0.0
  0
SEQEND
  5
647
330
644
100
AcDbEntity
  8
Ebene 1
370
    18
  0
POLYLINE
  5
648
330
1F
100
AcDbEntity
  8
Ebene 1
 62
   179
420
  1709851
370
    18
100
AcDb2dPolyline
 66
     1
 10
0.0
 20
0.0
 30
0.0
  0
VERTEX
  5
649
330
648
100
AcDbEntity
  8
Ebene 1
 62
   179
420
  1709851
370
    18
100
AcDbVertex
100
AcDb2dVertex
 10
141.3336642441805
 20
-124.728131750502
 30
0.0
  0
VERTEX
  5
64A
330
648
100
AcDbEntity
  8
Ebene 1
 62
   179
420
  1709851
370
    18
100
AcDbVertex
100
AcDb2dVertex
 10
142.7513210363608
 20
-123.9026868722361
 30
0.0
  0
SEQEND
  5
64B
330
648
100
AcDbEntity
  8
Ebene 1
370
    18
  0
POLYLINE
  5
64C
330
1F
100
AcDbEntity
  8
Ebene 1
 62
   179
420
  1709851
370
    18
100
AcDb2dPolyline
 66
     1
 10
0.0
 20
0.0
 30
0.0
  0
VERTEX
  5
64D
330
64C
100
AcDbEntity
  8
Ebene 1
 62
   179
420
  1709851
370
    18
100
AcDbVertex
100
AcDb2dVertex
 10
153.737386029274
 20
-122.9291028881045
 30
0.0
  0
VERTEX
  5
64E
330
64C
100
AcDbEntity
  8
Ebene 1
 62
   179
420
  1709851
370
    18
100
AcDbVertex
100
AcDb2dVertex
 10
154.4353623745856
 20
-122.5270602449759
 30
0.0
  0
SEQEND
  5
64F
330
64C
100
AcDbEntity
  8
Ebene 1
370
    18
  0
POLYLINE
  5
650
330
1F
100
AcDbEntity
  8
Ebene 1
 62
   179
420
  1709851
370
    18
100
AcDb2dPolyline
 66
     1
 10
0.0
 20
0.0
 30
0.0
  0
VERTEX
  5
651
330
650
100
AcDbEntity
  8
Ebene 1
 62
   179
420
  1709851
370
    18
100
AcDbVertex
100
AcDb2dVertex
 10
151.1335828615222
 20
-124.4318535387705
 30
0.0
  0
VERTEX
  5
652
330
650
100
AcDbEntity
  8
Ebene 1
 62
   179
420
  1709851
370
    18
100
AcDbVertex
100
AcDb2dVertex
 10
152.869221966991
 20
-123.4372544721789
 30
0.0
  0
SEQEND
  5
653
330
650
100
AcDbEntity
  8
Ebene 1
370
    18
  0
POLYLINE
  5
654
330
1F
100
AcDbEntity
  8
Ebene 1
 62
   179
420
  1709851
370
    18
100
AcDb2dPolyline
 66
     1
 10
0.0
 20
0.0
 30
0.0
  0
VERTEX
  5
655
330
654
100
AcDbEntity
  8
Ebene 1
 62
   179
420
  1709851
370
    18
100
AcDbVertex
100
AcDb2dVertex
 10
148.5511392857789
 20
-125.934948698985
 30
0.0
  0
VERTEX
  5
656
330
654
100
AcDbEntity
  8
Ebene 1
 62
   179
420
  1709851
370
    18
100
AcDbVertex
100
AcDb2dVertex
 10
150.2654187992392
 20
-124.9400051228449
 30
0.0
  0
SEQEND
  5
657
330
654
100
AcDbEntity
  8
Ebene 1
370
    18
  0
POLYLINE
  5
658
330
1F
100
AcDbEntity
  8
Ebene 1
 62
   179
420
  1709851
370
    18
100
AcDb2dPolyline
 66
     1
 10
0.0
 20
0.0
 30
0.0
  0
VERTEX
  5
659
330
658
100
AcDbEntity
  8
Ebene 1
 62
   179
420
  1709851
370
    18
100
AcDbVertex
100
AcDb2dVertex
 10
145.9480251371241
 20
-127.437699349651
 30
0.0
  0
VERTEX
  5
65A
330
658
100
AcDbEntity
  8
Ebene 1
 62
   179
420
  1709851
370
    18
100
AcDbVertex
100
AcDb2dVertex
 10
147.683664242593
 20
-126.4427557735108
 30
0.0
  0
SEQEND
  5
65B
330
658
100
AcDbEntity
  8
Ebene 1
370
    18
  0
POLYLINE
  5
65C
330
1F
100
AcDbEntity
  8
Ebene 1
 62
   179
420
  1709851
370
    18
100
AcDb2dPolyline
 66
     1
 10
0.0
 20
0.0
 30
0.0
  0
VERTEX
  5
65D
330
65C
100
AcDbEntity
  8
Ebene 1
 62
   179
420
  1709851
370
    18
100
AcDbVertex
100
AcDb2dVertex
 10
143.3442219693723
 20
-128.940450000317
 30
0.0
  0
VERTEX
  5
65E
330
65C
100
AcDbEntity
  8
Ebene 1
 62
   179
420
  1709851
370
    18
100
AcDbVertex
100
AcDb2dVertex
 10
145.0798610748411
 20
-127.9244913417168
 30
0.0
  0
SEQEND
  5
65F
330
65C
100
AcDbEntity
  8
Ebene 1
370
    18
  0
POLYLINE
  5
660
330
1F
100
AcDbEntity
  8
Ebene 1
 62
   179
420
  1709851
370
    18
100
AcDb2dPolyline
 66
     1
 10
0.0
 20
0.0
 30
0.0
  0
VERTEX
  5
661
330
660
100
AcDbEntity
  8
Ebene 1
 62
   179
420
  1709851
370
    18
100
AcDbVertex
100
AcDb2dVertex
 10
141.3336642441805
 20
-130.1045477647829
 30
0.0
  0
VERTEX
  5
662
330
660
100
AcDbEntity
  8
Ebene 1
 62
   179
420
  1709851
370
    18
100
AcDbVertex
100
AcDb2dVertex
 10
142.4760579070893
 20
-129.4272419923828
 30
0.0
  0
SEQEND
  5
663
330
660
100
AcDbEntity
  8
Ebene 1
370
    18
  0
POLYLINE
  5
664
330
1F
100
AcDbEntity
  8
Ebene 1
 62
   179
420
  1709851
370
    18
100
AcDb2dPolyline
 66
     1
 10
0.0
 20
0.0
 30
0.0
  0
VERTEX
  5
665
330
664
100
AcDbEntity
  8
Ebene 1
 62
   179
420
  1709851
370
    18
100
AcDbVertex
100
AcDb2dVertex
 10
154.329942452737
 20
-123.9664211387133
 30
0.0
  0
VERTEX
  5
666
330
664
100
AcDbEntity
  8
Ebene 1
 62
   179
420
  1709851
370
    18
100
AcDbVertex
100
AcDb2dVertex
 10
154.4353623745856
 20
-123.9026868722361
 30
0.0
  0
SEQEND
  5
667
330
664
100
AcDbEntity
  8
Ebene 1
370
    18
  0
POLYLINE
  5
668
330
1F
100
AcDbEntity
  8
Ebene 1
 62
   179
420
  1709851
370
    18
100
AcDb2dPolyline
 66
     1
 10
0.0
 20
0.0
 30
0.0
  0
VERTEX
  5
669
330
668
100
AcDbEntity
  8
Ebene 1
 62
   179
420
  1709851
370
    18
100
AcDbVertex
100
AcDb2dVertex
 10
151.7261392849852
 20
-125.4691717893792
 30
0.0
  0
VERTEX
  5
66A
330
668
100
AcDbEntity
  8
Ebene 1
 62
   179
420
  1709851
370
    18
100
AcDbVertex
100
AcDb2dVertex
 10
153.4621229000025
 20
-124.4742282132391
 30
0.0
  0
SEQEND
  5
66B
330
668
100
AcDbEntity
  8
Ebene 1
370
    18
  0
POLYLINE
  5
66C
330
1F
100
AcDbEntity
  8
Ebene 1
 62
   179
420
  1709851
370
    18
100
AcDb2dPolyline
 66
     1
 10
0.0
 20
0.0
 30
0.0
  0
VERTEX
  5
66D
330
66C
100
AcDbEntity
  8
Ebene 1
 62
   179
420
  1709851
370
    18
100
AcDbVertex
100
AcDb2dVertex
 10
149.1436957092419
 20
-126.9719224400452
 30
0.0
  0
VERTEX
  5
66E
330
66C
100
AcDbEntity
  8
Ebene 1
 62
   179
420
  1709851
370
    18
100
AcDbVertex
100
AcDb2dVertex
 10
150.8586642417992
 20
-125.955963781445
 30
0.0
  0
SEQEND
  5
66F
330
66C
100
AcDbEntity
  8
Ebene 1
370
    18
  0
POLYLINE
  5
670
330
1F
100
AcDbEntity
  8
Ebene 1
 62
   179
420
  1709851
370
    18
100
AcDb2dPolyline
 66
     1
 10
0.0
 20
0.0
 30
0.0
  0
VERTEX
  5
671
330
670
100
AcDbEntity
  8
Ebene 1
 62
   179
420
  1709851
370
    18
100
AcDbVertex
100
AcDb2dVertex
 10
146.5405815605871
 20
-128.4746730907112
 30
0.0
  0
VERTEX
  5
672
330
670
100
AcDbEntity
  8
Ebene 1
 62
   179
420
  1709851
370
    18
100
AcDbVertex
100
AcDb2dVertex
 10
148.2758761565074
 20
-127.458714432111
 30
0.0
  0
SEQEND
  5
673
330
670
100
AcDbEntity
  8
Ebene 1
370
    18
  0
POLYLINE
  5
674
330
1F
100
AcDbEntity
  8
Ebene 1
 62
   179
420
  1709851
370
    18
100
AcDb2dPolyline
 66
     1
 10
0.0
 20
0.0
 30
0.0
  0
VERTEX
  5
675
330
674
100
AcDbEntity
  8
Ebene 1
 62
   179
420
  1709851
370
    18
100
AcDbVertex
100
AcDb2dVertex
 10
143.9371229023838
 20
-129.9564086589172
 30
0.0
  0
VERTEX
  5
676
330
674
100
AcDbEntity
  8
Ebene 1
 62
   179
420
  1709851
370
    18
100
AcDbVertex
100
AcDb2dVertex
 10
145.6727620078526
 20
-128.961465082777
 30
0.0
  0
SEQEND
  5
677
330
674
100
AcDbEntity
  8
Ebene 1
370
    18
  0
POLYLINE
  5
678
330
1F
100
AcDbEntity
  8
Ebene 1
 62
   179
420
  1709851
370
    18
100
AcDb2dPolyline
 66
     1
 10
0.0
 20
0.0
 30
0.0
  0
VERTEX
  5
679
330
678
100
AcDbEntity
  8
Ebene 1
 62
   179
420
  1709851
370
    18
100
AcDbVertex
100
AcDb2dVertex
 10
141.3336642441805
 20
-131.4591593095831
 30
0.0
  0
VERTEX
  5
67A
330
678
100
AcDbEntity
  8
Ebene 1
 62
   179
420
  1709851
370
    18
100
AcDbVertex
100
AcDb2dVertex
 10
143.0693033496493
 20
-130.4645602429915
 30
0.0
  0
SEQEND
  5
67B
330
678
100
AcDbEntity
  8
Ebene 1
370
    18
  0
POLYLINE
  5
67C
330
1F
100
AcDbEntity
  8
Ebene 1
 62
   179
420
  1709851
370
    18
100
AcDb2dPolyline
 66
     1
 10
0.0
 20
0.0
 30
0.0
  0
VERTEX
  5
67D
330
67C
100
AcDbEntity
  8
Ebene 1
 62
   179
420
  1709851
370
    18
100
AcDbVertex
100
AcDb2dVertex
 10
152.0651366807337
 20
-132.0520602425946
 30
0.0
  0
VERTEX
  5
67E
330
67C
100
AcDbEntity
  8
Ebene 1
 62
   179
420
  1709851
370
    18
100
AcDbVertex
100
AcDb2dVertex
 10
153.8007757862026
 20
-131.0361015839945
 30
0.0
  0
SEQEND
  5
67F
330
67C
100
AcDbEntity
  8
Ebene 1
370
    18
  0
POLYLINE
  5
680
330
1F
100
AcDbEntity
  8
Ebene 1
 62
   179
420
  1709851
370
    18
100
AcDb2dPolyline
 66
     1
 10
0.0
 20
0.0
 30
0.0
  0
VERTEX
  5
681
330
680
100
AcDbEntity
  8
Ebene 1
 62
   179
420
  1709851
370
    18
100
AcDbVertex
100
AcDb2dVertex
 10
149.4823485954419
 20
-133.5548108932606
 30
0.0
  0
VERTEX
  5
682
330
680
100
AcDbEntity
  8
Ebene 1
 62
   179
420
  1709851
370
    18
100
AcDbVertex
100
AcDb2dVertex
 10
151.1969726184508
 20
-132.5388522346604
 30
0.0
  0
SEQEND
  5
683
330
680
100
AcDbEntity
  8
Ebene 1
370
    18
  0
POLYLINE
  5
684
330
1F
100
AcDbEntity
  8
Ebene 1
 62
   179
420
  1709851
370
    18
100
AcDb2dPolyline
 66
     1
 10
0.0
 20
0.0
 30
0.0
  0
VERTEX
  5
685
330
684
100
AcDbEntity
  8
Ebene 1
 62
   179
420
  1709851
370
    18
100
AcDbVertex
100
AcDb2dVertex
 10
146.8792344467871
 20
-135.0365464614666
 30
0.0
  0
VERTEX
  5
686
330
684
100
AcDbEntity
  8
Ebene 1
 62
   179
420
  1709851
370
    18
100
AcDbVertex
100
AcDb2dVertex
 10
148.6145290427075
 20
-134.0416028853264
 30
0.0
  0
SEQEND
  5
687
330
684
100
AcDbEntity
  8
Ebene 1
370
    18
  0
POLYLINE
  5
688
330
1F
100
AcDbEntity
  8
Ebene 1
 62
   179
420
  1709851
370
    18
100
AcDb2dPolyline
 66
     1
 10
0.0
 20
0.0
 30
0.0
  0
VERTEX
  5
689
330
688
100
AcDbEntity
  8
Ebene 1
 62
   179
420
  1709851
370
    18
100
AcDbVertex
100
AcDb2dVertex
 10
144.2757757885838
 20
-136.5392971121325
 30
0.0
  0
VERTEX
  5
68A
330
688
100
AcDbEntity
  8
Ebene 1
 62
   179
420
  1709851
370
    18
100
AcDbVertex
100
AcDb2dVertex
 10
146.0114148940527
 20
-135.5443535359924
 30
0.0
  0
SEQEND
  5
68B
330
688
100
AcDbEntity
  8
Ebene 1
370
    18
  0
POLYLINE
  5
68C
330
1F
100
AcDbEntity
  8
Ebene 1
 62
   179
420
  1709851
370
    18
100
AcDb2dPolyline
 66
     1
 10
0.0
 20
0.0
 30
0.0
  0
VERTEX
  5
68D
330
68C
100
AcDbEntity
  8
Ebene 1
 62
   179
420
  1709851
370
    18
100
AcDbVertex
100
AcDb2dVertex
 10
141.671972620832
 20
-138.0420477627985
 30
0.0
  0
VERTEX
  5
68E
330
68C
100
AcDbEntity
  8
Ebene 1
 62
   179
420
  1709851
370
    18
100
AcDbVertex
100
AcDb2dVertex
 10
143.4079562358494
 20
-137.0474486962069
 30
0.0
  0
SEQEND
  5
68F
330
68C
100
AcDbEntity
  8
Ebene 1
370
    18
  0
POLYLINE
  5
690
330
1F
100
AcDbEntity
  8
Ebene 1
 62
   179
420
  1709851
370
    18
100
AcDb2dPolyline
 66
     1
 10
0.0
 20
0.0
 30
0.0
  0
VERTEX
  5
691
330
690
100
AcDbEntity
  8
Ebene 1
 62
   179
420
  1709851
370
    18
100
AcDbVertex
100
AcDb2dVertex
 10
153.0383761553168
 20
-133.7239650815864
 30
0.0
  0
VERTEX
  5
692
330
690
100
AcDbEntity
  8
Ebene 1
 62
   179
420
  1709851
370
    18
100
AcDbVertex
100
AcDb2dVertex
 10
154.4353623745856
 20
-132.9198797953291
 30
0.0
  0
SEQEND
  5
693
330
690
100
AcDbEntity
  8
Ebene 1
370
    18
  0
POLYLINE
  5
694
330
1F
100
AcDbEntity
  8
Ebene 1
 62
   179
420
  1709851
370
    18
100
AcDb2dPolyline
 66
     1
 10
0.0
 20
0.0
 30
0.0
  0
VERTEX
  5
695
330
694
100
AcDbEntity
  8
Ebene 1
 62
   179
420
  1709851
370
    18
100
AcDbVertex
100
AcDb2dVertex
 10
150.435262006662
 20
-135.2057006497923
 30
0.0
  0
VERTEX
  5
696
330
694
100
AcDbEntity
  8
Ebene 1
 62
   179
420
  1709851
370
    18
100
AcDbVertex
100
AcDb2dVertex
 10
152.1709011121309
 20
-134.2111015832007
 30
0.0
  0
SEQEND
  5
697
330
694
100
AcDbEntity
  8
Ebene 1
370
    18
  0
POLYLINE
  5
698
330
1F
100
AcDbEntity
  8
Ebene 1
 62
   179
420
  1709851
370
    18
100
AcDb2dPolyline
 66
     1
 10
0.0
 20
0.0
 30
0.0
  0
VERTEX
  5
699
330
698
100
AcDbEntity
  8
Ebene 1
 62
   179
420
  1709851
370
    18
100
AcDbVertex
100
AcDb2dVertex
 10
147.8318033484587
 20
-136.7087958100068
 30
0.0
  0
VERTEX
  5
69A
330
698
100
AcDbEntity
  8
Ebene 1
 62
   179
420
  1709851
370
    18
100
AcDbVertex
100
AcDb2dVertex
 10
149.5674424539276
 20
-135.7138522338667
 30
0.0
  0
SEQEND
  5
69B
330
698
100
AcDbEntity
  8
Ebene 1
370
    18
  0
POLYLINE
  5
69C
330
1F
100
AcDbEntity
  8
Ebene 1
 62
   179
420
  1709851
370
    18
100
AcDb2dPolyline
 66
     1
 10
0.0
 20
0.0
 30
0.0
  0
VERTEX
  5
69D
330
69C
100
AcDbEntity
  8
Ebene 1
 62
   179
420
  1709851
370
    18
100
AcDbVertex
100
AcDb2dVertex
 10
145.2490152631669
 20
-138.2115464606728
 30
0.0
  0
VERTEX
  5
69E
330
69C
100
AcDbEntity
  8
Ebene 1
 62
   179
420
  1709851
370
    18
100
AcDbVertex
100
AcDb2dVertex
 10
146.9636392861758
 20
-137.2166028845326
 30
0.0
  0
SEQEND
  5
69F
330
69C
100
AcDbEntity
  8
Ebene 1
370
    18
  0
POLYLINE
  5
6A0
330
1F
100
AcDbEntity
  8
Ebene 1
 62
   179
420
  1709851
370
    18
100
AcDb2dPolyline
 66
     1
 10
0.0
 20
0.0
 30
0.0
  0
VERTEX
  5
6A1
330
6A0
100
AcDbEntity
  8
Ebene 1
 62
   179
420
  1709851
370
    18
100
AcDbVertex
100
AcDb2dVertex
 10
142.6459011145122
 20
-139.7142971113388
 30
0.0
  0
VERTEX
  5
6A2
330
6A0
100
AcDbEntity
  8
Ebene 1
 62
   179
420
  1709851
370
    18
100
AcDbVertex
100
AcDb2dVertex
 10
144.3811957104325
 20
-138.7193535351986
 30
0.0
  0
SEQEND
  5
6A3
330
6A0
100
AcDbEntity
  8
Ebene 1
370
    18
  0
POLYLINE
  5
6A4
330
1F
100
AcDbEntity
  8
Ebene 1
 62
   179
420
  1709851
370
    18
100
AcDb2dPolyline
 66
     1
 10
0.0
 20
0.0
 30
0.0
  0
VERTEX
  5
6A5
330
6A4
100
AcDbEntity
  8
Ebene 1
 62
   179
420
  1709851
370
    18
100
AcDbVertex
100
AcDb2dVertex
 10
141.3336642441805
 20
-140.476352232676
 30
0.0
  0
VERTEX
  5
6A6
330
6A4
100
AcDbEntity
  8
Ebene 1
 62
   179
420
  1709851
370
    18
100
AcDbVertex
100
AcDb2dVertex
 10
141.7780815617777
 20
-140.2224486954131
 30
0.0
  0
SEQEND
  5
6A7
330
6A4
100
AcDbEntity
  8
Ebene 1
370
    18
  0
POLYLINE
  5
6A8
330
1F
100
AcDbEntity
  8
Ebene 1
 62
   179
420
  1709851
370
    18
100
AcDb2dPolyline
 66
     1
 10
0.0
 20
0.0
 30
0.0
  0
VERTEX
  5
6A9
330
6A8
100
AcDbEntity
  8
Ebene 1
 62
   179
420
  1709851
370
    18
100
AcDbVertex
100
AcDb2dVertex
 10
153.6733072532483
 20
-134.8460326811322
 30
0.0
  0
VERTEX
  5
6AA
330
6A8
100
AcDbEntity
  8
Ebene 1
 62
   179
420
  1709851
370
    18
100
AcDbVertex
100
AcDb2dVertex
 10
154.4353623745856
 20
-134.401615363535
 30
0.0
  0
SEQEND
  5
6AB
330
6A8
100
AcDbEntity
  8
Ebene 1
370
    18
  0
POLYLINE
  5
6AC
330
1F
100
AcDbEntity
  8
Ebene 1
 62
   179
420
  1709851
370
    18
100
AcDb2dPolyline
 66
     1
 10
0.0
 20
0.0
 30
0.0
  0
VERTEX
  5
6AD
330
6AC
100
AcDbEntity
  8
Ebene 1
 62
   179
420
  1709851
370
    18
100
AcDbVertex
100
AcDb2dVertex
 10
151.0915526966021
 20
-136.3487833317982
 30
0.0
  0
VERTEX
  5
6AE
330
6AC
100
AcDbEntity
  8
Ebene 1
 62
   179
420
  1709851
370
    18
100
AcDbVertex
100
AcDb2dVertex
 10
152.827191802071
 20
-135.332824673198
 30
0.0
  0
SEQEND
  5
6AF
330
6AC
100
AcDbEntity
  8
Ebene 1
370
    18
  0
POLYLINE
  5
6B0
330
1F
100
AcDbEntity
  8
Ebene 1
 62
   179
420
  1709851
370
    18
100
AcDb2dPolyline
 66
     1
 10
0.0
 20
0.0
 30
0.0
  0
VERTEX
  5
6B1
330
6B0
100
AcDbEntity
  8
Ebene 1
 62
   179
420
  1709851
370
    18
100
AcDbVertex
100
AcDb2dVertex
 10
148.4877495288503
 20
-137.8305189000042
 30
0.0
  0
VERTEX
  5
6B2
330
6B0
100
AcDbEntity
  8
Ebene 1
 62
   179
420
  1709851
370
    18
100
AcDbVertex
100
AcDb2dVertex
 10
150.2233886343192
 20
-136.835575323864
 30
0.0
  0
SEQEND
  5
6B3
330
6B0
100
AcDbEntity
  8
Ebene 1
370
    18
  0
POLYLINE
  5
6B4
330
1F
100
AcDbEntity
  8
Ebene 1
 62
   179
420
  1709851
370
    18
100
AcDb2dPolyline
 66
     1
 10
0.0
 20
0.0
 30
0.0
  0
VERTEX
  5
6B5
330
6B4
100
AcDbEntity
  8
Ebene 1
 62
   179
420
  1709851
370
    18
100
AcDbVertex
100
AcDb2dVertex
 10
145.8839463610985
 20
-139.3332695506702
 30
0.0
  0
VERTEX
  5
6B6
330
6B4
100
AcDbEntity
  8
Ebene 1
 62
   179
420
  1709851
370
    18
100
AcDbVertex
100
AcDb2dVertex
 10
147.6195854665673
 20
-138.33832597453
 30
0.0
  0
SEQEND
  5
6B7
330
6B4
100
AcDbEntity
  8
Ebene 1
370
    18
  0
POLYLINE
  5
6B8
330
1F
100
AcDbEntity
  8
Ebene 1
 62
   179
420
  1709851
370
    18
100
AcDb2dPolyline
 66
     1
 10
0.0
 20
0.0
 30
0.0
  0
VERTEX
  5
6B9
330
6B8
100
AcDbEntity
  8
Ebene 1
 62
   179
420
  1709851
370
    18
100
AcDbVertex
100
AcDb2dVertex
 10
143.3021918044522
 20
-140.8360202013361
 30
0.0
  0
VERTEX
  5
6BA
330
6B8
100
AcDbEntity
  8
Ebene 1
 62
   179
420
  1709851
370
    18
100
AcDbVertex
100
AcDb2dVertex
 10
145.016126808364
 20
-139.8414211347445
 30
0.0
  0
SEQEND
  5
6BB
330
6B8
100
AcDbEntity
  8
Ebene 1
370
    18
  0
POLYLINE
  5
6BC
330
1F
100
AcDbEntity
  8
Ebene 1
 62
   179
420
  1709851
370
    18
100
AcDb2dPolyline
 66
     1
 10
0.0
 20
0.0
 30
0.0
  0
VERTEX
  5
6BD
330
6BC
100
AcDbEntity
  8
Ebene 1
 62
   179
420
  1709851
370
    18
100
AcDbVertex
100
AcDb2dVertex
 10
141.3336642441805
 20
-141.979102883342
 30
0.0
  0
VERTEX
  5
6BE
330
6BC
100
AcDbEntity
  8
Ebene 1
 62
   179
420
  1709851
370
    18
100
AcDbVertex
100
AcDb2dVertex
 10
142.4340277421693
 20
-141.3441717854105
 30
0.0
  0
SEQEND
  5
6BF
330
6BC
100
AcDbEntity
  8
Ebene 1
370
    18
  0
POLYLINE
  5
6C0
330
1F
100
AcDbEntity
  8
Ebene 1
 62
   179
420
  1709851
370
    18
100
AcDb2dPolyline
 66
     1
 10
0.0
 20
0.0
 30
0.0
  0
VERTEX
  5
6C1
330
6C0
100
AcDbEntity
  8
Ebene 1
 62
   179
420
  1709851
370
    18
100
AcDbVertex
100
AcDb2dVertex
 10
152.7000677786653
 20
-139.1427557703358
 30
0.0
  0
VERTEX
  5
6C2
330
6C0
100
AcDbEntity
  8
Ebene 1
 62
   179
420
  1709851
370
    18
100
AcDbVertex
100
AcDb2dVertex
 10
154.4353623745856
 20
-138.1691717862042
 30
0.0
  0
SEQEND
  5
6C3
330
6C0
100
AcDbEntity
  8
Ebene 1
370
    18
  0
POLYLINE
  5
6C4
330
1F
100
AcDbEntity
  8
Ebene 1
 62
   179
420
  1709851
370
    18
100
AcDb2dPolyline
 66
     1
 10
0.0
 20
0.0
 30
0.0
  0
VERTEX
  5
6C5
330
6C4
100
AcDbEntity
  8
Ebene 1
 62
   179
420
  1709851
370
    18
100
AcDbVertex
100
AcDb2dVertex
 10
150.1172796933735
 20
-140.6455064210018
 30
0.0
  0
VERTEX
  5
6C6
330
6C4
100
AcDbEntity
  8
Ebene 1
 62
   179
420
  1709851
370
    18
100
AcDbVertex
100
AcDb2dVertex
 10
151.8529187988423
 20
-139.6509073544102
 30
0.0
  0
SEQEND
  5
6C7
330
6C4
100
AcDbEntity
  8
Ebene 1
370
    18
  0
POLYLINE
  5
6C8
330
1F
100
AcDbEntity
  8
Ebene 1
 62
   179
420
  1709851
370
    18
100
AcDb2dPolyline
 66
     1
 10
0.0
 20
0.0
 30
0.0
  0
VERTEX
  5
6C9
330
6C8
100
AcDbEntity
  8
Ebene 1
 62
   179
420
  1709851
370
    18
100
AcDbVertex
100
AcDb2dVertex
 10
147.5138210351702
 20
-142.1486015812163
 30
0.0
  0
VERTEX
  5
6CA
330
6C8
100
AcDbEntity
  8
Ebene 1
 62
   179
420
  1709851
370
    18
100
AcDbVertex
100
AcDb2dVertex
 10
149.249460140639
 20
-141.1536580050762
 30
0.0
  0
SEQEND
  5
6CB
330
6C8
100
AcDbEntity
  8
Ebene 1
370
    18
  0
POLYLINE
  5
6CC
330
1F
100
AcDbEntity
  8
Ebene 1
 62
   179
420
  1709851
370
    18
100
AcDb2dPolyline
 66
     1
 10
0.0
 20
0.0
 30
0.0
  0
VERTEX
  5
6CD
330
6CC
100
AcDbEntity
  8
Ebene 1
 62
   179
420
  1709851
370
    18
100
AcDbVertex
100
AcDb2dVertex
 10
144.9103623769669
 20
-143.6513522318823
 30
0.0
  0
VERTEX
  5
6CE
330
6CC
100
AcDbEntity
  8
Ebene 1
 62
   179
420
  1709851
370
    18
100
AcDbVertex
100
AcDb2dVertex
 10
146.6460014824357
 20
-142.6564086557422
 30
0.0
  0
SEQEND
  5
6CF
330
6CC
100
AcDbEntity
  8
Ebene 1
370
    18
  0
POLYLINE
  5
6D0
330
1F
100
AcDbEntity
  8
Ebene 1
 62
   179
420
  1709851
370
    18
100
AcDb2dPolyline
 66
     1
 10
0.0
 20
0.0
 30
0.0
  0
VERTEX
  5
6D1
330
6D0
100
AcDbEntity
  8
Ebene 1
 62
   179
420
  1709851
370
    18
100
AcDbVertex
100
AcDb2dVertex
 10
142.3072482283121
 20
-145.1541028825483
 30
0.0
  0
VERTEX
  5
6D2
330
6D0
100
AcDbEntity
  8
Ebene 1
 62
   179
420
  1709851
370
    18
100
AcDbVertex
100
AcDb2dVertex
 10
144.0425428242324
 20
-144.1591593064081
 30
0.0
  0
SEQEND
  5
6D3
330
6D0
100
AcDbEntity
  8
Ebene 1
370
    18
  0
POLYLINE
  5
6D4
330
1F
100
AcDbEntity
  8
Ebene 1
 62
   179
420
  1709851
370
    18
100
AcDb2dPolyline
 66
     1
 10
0.0
 20
0.0
 30
0.0
  0
VERTEX
  5
6D5
330
6D4
100
AcDbEntity
  8
Ebene 1
 62
   179
420
  1709851
370
    18
100
AcDbVertex
100
AcDb2dVertex
 10
141.3336642441805
 20
-145.7256442235512
 30
0.0
  0
VERTEX
  5
6D6
330
6D4
100
AcDbEntity
  8
Ebene 1
 62
   179
420
  1709851
370
    18
100
AcDbVertex
100
AcDb2dVertex
 10
141.4600992484891
 20
-145.6408948746141
 30
0.0
  0
SEQEND
  5
6D7
330
6D4
100
AcDbEntity
  8
Ebene 1
370
    18
  0
POLYLINE
  5
6D8
330
1F
100
AcDbEntity
  8
Ebene 1
 62
   179
420
  1709851
370
    18
100
AcDb2dPolyline
 66
     1
 10
0.0
 20
0.0
 30
0.0
  0
VERTEX
  5
6D9
330
6D8
100
AcDbEntity
  8
Ebene 1
 62
   179
420
  1709851
370
    18
100
AcDbVertex
100
AcDb2dVertex
 10
124.9925428289949
 20
-148.9638617249118
 30
0.0
  0
VERTEX
  5
6DA
330
6D8
100
AcDbEntity
  8
Ebene 1
 62
   179
420
  1709851
370
    18
100
AcDbVertex
100
AcDb2dVertex
 10
124.9925428289949
 20
-148.1599486934288
 30
0.0
  0
SEQEND
  5
6DB
330
6D8
100
AcDbEntity
  8
Ebene 1
370
    18
  0
POLYLINE
  5
6DC
330
1F
100
AcDbEntity
  8
Ebene 1
 62
   179
420
  1709851
370
    18
100
AcDb2dPolyline
 66
     1
 10
0.0
 20
0.0
 30
0.0
  0
VERTEX
  5
6DD
330
6DC
100
AcDbEntity
  8
Ebene 1
 62
   179
420
  1709851
370
    18
100
AcDbVertex
100
AcDb2dVertex
 10
127.744140593064
 20
-148.032824670023
 30
0.0
  0
VERTEX
  5
6DE
330
6DC
100
AcDbEntity
  8
Ebene 1
 62
   179
420
  1709851
370
    18
100
AcDbVertex
100
AcDb2dVertex
 10
129.4797796985328
 20
-149.048611073849
 30
0.0
  0
SEQEND
  5
6DF
330
6DC
100
AcDbEntity
  8
Ebene 1
370
    18
  0
POLYLINE
  5
6E0
330
1F
100
AcDbEntity
  8
Ebene 1
 62
   179
420
  1709851
370
    18
100
AcDb2dPolyline
 66
     1
 10
0.0
 20
0.0
 30
0.0
  0
VERTEX
  5
6E1
330
6E0
100
AcDbEntity
  8
Ebene 1
 62
   179
420
  1709851
370
    18
100
AcDbVertex
100
AcDb2dVertex
 10
133.5225992504735
 20
-138.0420477627985
 30
0.0
  0
VERTEX
  5
6E2
330
6E0
100
AcDbEntity
  8
Ebene 1
 62
   179
420
  1709851
370
    18
100
AcDbVertex
100
AcDb2dVertex
 10
135.2585828654909
 20
-139.0369913389387
 30
0.0
  0
SEQEND
  5
6E3
330
6E0
100
AcDbEntity
  8
Ebene 1
370
    18
  0
POLYLINE
  5
6E4
330
1F
100
AcDbEntity
  8
Ebene 1
 62
   179
420
  1709851
370
    18
100
AcDb2dPolyline
 66
     1
 10
0.0
 20
0.0
 30
0.0
  0
VERTEX
  5
6E5
330
6E4
100
AcDbEntity
  8
Ebene 1
 62
   179
420
  1709851
370
    18
100
AcDbVertex
100
AcDb2dVertex
 10
133.0151366854962
 20
-139.3756442251387
 30
0.0
  0
VERTEX
  5
6E6
330
6E4
100
AcDbEntity
  8
Ebene 1
 62
   179
420
  1709851
370
    18
100
AcDbVertex
100
AcDb2dVertex
 10
132.9727620110276
 20
-139.3966593075988
 30
0.0
  0
SEQEND
  5
6E7
330
6E4
100
AcDbEntity
  8
Ebene 1
370
    18
  0
POLYLINE
  5
6E8
330
1F
100
AcDbEntity
  8
Ebene 1
 62
   179
420
  1709851
370
    18
100
AcDb2dPolyline
 66
     1
 10
0.0
 20
0.0
 30
0.0
  0
VERTEX
  5
6E9
330
6E8
100
AcDbEntity
  8
Ebene 1
 62
   179
420
  1709851
370
    18
100
AcDbVertex
100
AcDb2dVertex
 10
135.8721543714139
 20
-139.3966593075988
 30
0.0
  0
VERTEX
  5
6EA
330
6E8
100
AcDbEntity
  8
Ebene 1
 62
   179
420
  1709851
370
    18
100
AcDbVertex
100
AcDb2dVertex
 10
135.4704562378338
 20
-139.2061455272645
 30
0.0
  0
VERTEX
  5
6EB
330
6E8
100
AcDbEntity
  8
Ebene 1
 62
   179
420
  1709851
370
    18
100
AcDbVertex
100
AcDb2dVertex
 10
134.983664245768
 20
-139.0580064213987
 30
0.0
  0
VERTEX
  5
6EC
330
6E8
100
AcDbEntity
  8
Ebene 1
 62
   179
420
  1709851
370
    18
100
AcDbVertex
100
AcDb2dVertex
 10
134.4965277441536
 20
-139.0156317469301
 30
0.0
  0
VERTEX
  5
6ED
330
6E8
100
AcDbEntity
  8
Ebene 1
 62
   179
420
  1709851
370
    18
100
AcDbVertex
100
AcDb2dVertex
 10
134.0093912425393
 20
-139.0369913389387
 30
0.0
  0
VERTEX
  5
6EE
330
6E8
100
AcDbEntity
  8
Ebene 1
 62
   179
420
  1709851
370
    18
100
AcDbVertex
100
AcDb2dVertex
 10
133.9460014856107
 20
-139.0580064213987
 30
0.0
  0
SEQEND
  5
6EF
330
6E8
100
AcDbEntity
  8
Ebene 1
370
    18
  0
POLYLINE
  5
6F0
330
1F
100
AcDbEntity
  8
Ebene 1
 62
   179
420
  1709851
370
    18
100
AcDb2dPolyline
 66
     1
 10
0.0
 20
0.0
 30
0.0
  0
VERTEX
  5
6F1
330
6F0
100
AcDbEntity
  8
Ebene 1
 62
   179
420
  1709851
370
    18
100
AcDbVertex
100
AcDb2dVertex
 10
137.3115152651513
 20
-141.8943535344049
 30
0.0
  0
VERTEX
  5
6F2
330
6F0
100
AcDbEntity
  8
Ebene 1
 62
   179
420
  1709851
370
    18
100
AcDbVertex
100
AcDb2dVertex
 10
137.2691405906827
 20
-141.4075615423391
 30
0.0
  0
VERTEX
  5
6F3
330
6F0
100
AcDbEntity
  8
Ebene 1
 62
   179
420
  1709851
370
    18
100
AcDbVertex
100
AcDb2dVertex
 10
137.1423610768255
 20
-140.9207695502733
 30
0.0
  0
VERTEX
  5
6F4
330
6F0
100
AcDbEntity
  8
Ebene 1
 62
   179
420
  1709851
370
    18
100
AcDbVertex
100
AcDb2dVertex
 10
136.9304877044827
 20
-140.476352232676
 30
0.0
  0
VERTEX
  5
6F5
330
6F0
100
AcDbEntity
  8
Ebene 1
 62
   179
420
  1709851
370
    18
100
AcDbVertex
100
AcDb2dVertex
 10
136.6552245752112
 20
-140.0739650799989
 30
0.0
  0
VERTEX
  5
6F6
330
6F0
100
AcDbEntity
  8
Ebene 1
 62
   179
420
  1709851
370
    18
100
AcDbVertex
100
AcDb2dVertex
 10
136.6342094927512
 20
-140.0529499975389
 30
0.0
  0
SEQEND
  5
6F7
330
6F0
100
AcDbEntity
  8
Ebene 1
370
    18
  0
POLYLINE
  5
6F8
330
1F
100
AcDbEntity
  8
Ebene 1
 62
   179
420
  1709851
370
    18
100
AcDb2dPolyline
 66
     1
 10
0.0
 20
0.0
 30
0.0
  0
VERTEX
  5
6F9
330
6F8
100
AcDbEntity
  8
Ebene 1
 62
   179
420
  1709851
370
    18
100
AcDbVertex
100
AcDb2dVertex
 10
132.9510579094706
 20
-149.4089680616061
 30
0.0
  0
VERTEX
  5
6FA
330
6F8
100
AcDbEntity
  8
Ebene 1
 62
   179
420
  1709851
370
    18
100
AcDbVertex
100
AcDb2dVertex
 10
132.9727620110276
 20
-149.3876084695976
 30
0.0
  0
SEQEND
  5
6FB
330
6F8
100
AcDbEntity
  8
Ebene 1
370
    18
  0
POLYLINE
  5
6FC
330
1F
100
AcDbEntity
  8
Ebene 1
 62
   179
420
  1709851
370
    18
100
AcDb2dPolyline
 66
     1
 10
0.0
 20
0.0
 30
0.0
  0
VERTEX
  5
6FD
330
6FC
100
AcDbEntity
  8
Ebene 1
 62
   179
420
  1709851
370
    18
100
AcDbVertex
100
AcDb2dVertex
 10
130.0730251410929
 20
-149.3876084695976
 30
0.0
  0
VERTEX
  5
6FE
330
6FC
100
AcDbEntity
  8
Ebene 1
 62
   179
420
  1709851
370
    18
100
AcDbVertex
100
AcDb2dVertex
 10
130.4750677842215
 20
-149.5777777403833
 30
0.0
  0
VERTEX
  5
6FF
330
6FC
100
AcDbEntity
  8
Ebene 1
 62
   179
420
  1709851
370
    18
100
AcDbVertex
100
AcDb2dVertex
 10
130.9615152667388
 20
-149.7259168462491
 30
0.0
  0
VERTEX
  5
700
330
6FC
100
AcDbEntity
  8
Ebene 1
 62
   179
420
  1709851
370
    18
100
AcDbVertex
100
AcDb2dVertex
 10
131.4483072588046
 20
-149.7893066031777
 30
0.0
  0
VERTEX
  5
701
330
6FC
100
AcDbEntity
  8
Ebene 1
 62
   179
420
  1709851
370
    18
100
AcDbVertex
100
AcDb2dVertex
 10
131.9350992508704
 20
-149.7472764382576
 30
0.0
  0
VERTEX
  5
702
330
6FC
100
AcDbEntity
  8
Ebene 1
 62
   179
420
  1709851
370
    18
100
AcDbVertex
100
AcDb2dVertex
 10
131.9988335173475
 20
-149.7472764382576
 30
0.0
  0
SEQEND
  5
703
330
6FC
100
AcDbEntity
  8
Ebene 1
370
    18
  0
POLYLINE
  5
704
330
1F
100
AcDbEntity
  8
Ebene 1
 62
   179
420
  1709851
370
    18
100
AcDb2dPolyline
 66
     1
 10
0.0
 20
0.0
 30
0.0
  0
VERTEX
  5
705
330
704
100
AcDbEntity
  8
Ebene 1
 62
   179
420
  1709851
370
    18
100
AcDbVertex
100
AcDb2dVertex
 10
128.654334820267
 20
-146.8897419880172
 30
0.0
  0
VERTEX
  5
706
330
704
100
AcDbEntity
  8
Ebene 1
 62
   179
420
  1709851
370
    18
100
AcDbVertex
100
AcDb2dVertex
 10
128.6967094947356
 20
-147.376533980083
 30
0.0
  0
VERTEX
  5
707
330
704
100
AcDbEntity
  8
Ebene 1
 62
   179
420
  1709851
370
    18
100
AcDbVertex
100
AcDb2dVertex
 10
128.8238335181413
 20
-147.8633259721488
 30
0.0
  0
VERTEX
  5
708
330
704
100
AcDbEntity
  8
Ebene 1
 62
   179
420
  1709851
370
    18
100
AcDbVertex
100
AcDb2dVertex
 10
129.0146918080241
 20
-148.3080877992945
 30
0.0
  0
VERTEX
  5
709
330
704
100
AcDbEntity
  8
Ebene 1
 62
   179
420
  1709851
370
    18
100
AcDbVertex
100
AcDb2dVertex
 10
129.2892659181985
 20
-148.7311455248832
 30
0.0
  0
VERTEX
  5
70A
330
704
100
AcDbEntity
  8
Ebene 1
 62
   179
420
  1709851
370
    18
100
AcDbVertex
100
AcDb2dVertex
 10
129.3109700197556
 20
-148.7311455248832
 30
0.0
  0
SEQEND
  5
70B
330
704
100
AcDbEntity
  8
Ebene 1
370
    18
  0
POLYLINE
  5
70C
330
1F
100
AcDbEntity
  8
Ebene 1
 62
   179
420
  1709851
370
    18
100
AcDb2dPolyline
 66
     1
 10
0.0
 20
0.0
 30
0.0
  0
VERTEX
  5
70D
330
70C
100
AcDbEntity
  8
Ebene 1
 62
   179
420
  1709851
370
    18
100
AcDbVertex
100
AcDb2dVertex
 10
128.654334820267
 20
-146.8263522310885
 30
0.0
  0
VERTEX
  5
70E
330
70C
100
AcDbEntity
  8
Ebene 1
 62
   179
420
  1709851
370
    18
100
AcDbVertex
100
AcDb2dVertex
 10
128.654334820267
 20
-146.8897419880172
 30
0.0
  0
SEQEND
  5
70F
330
70C
100
AcDbEntity
  8
Ebene 1
370
    18
  0
POLYLINE
  5
710
330
1F
100
AcDbEntity
  8
Ebene 1
 62
   179
420
  1709851
370
    18
100
AcDb2dPolyline
 66
     1
 10
0.0
 20
0.0
 30
0.0
  0
VERTEX
  5
711
330
710
100
AcDbEntity
  8
Ebene 1
 62
   179
420
  1709851
370
    18
100
AcDbVertex
100
AcDb2dVertex
 10
129.1835014868014
 20
-143.8842406866852
 30
0.0
  0
VERTEX
  5
712
330
710
100
AcDbEntity
  8
Ebene 1
 62
   179
420
  1709851
370
    18
100
AcDbVertex
100
AcDb2dVertex
 10
128.929942459087
 20
-144.7096855649511
 30
0.0
  0
VERTEX
  5
713
330
710
100
AcDbEntity
  8
Ebene 1
 62
   179
420
  1709851
370
    18
100
AcDbVertex
100
AcDb2dVertex
 10
128.7600992516641
 20
-145.5351304432169
 30
0.0
  0
VERTEX
  5
714
330
710
100
AcDbEntity
  8
Ebene 1
 62
   179
420
  1709851
370
    18
100
AcDbVertex
100
AcDb2dVertex
 10
128.7177245771956
 20
-145.8314086549484
 30
0.0
  0
SEQEND
  5
715
330
710
100
AcDbEntity
  8
Ebene 1
370
    18
  0
POLYLINE
  5
716
330
1F
100
AcDbEntity
  8
Ebene 1
 62
   179
420
  1709851
370
    18
100
AcDb2dPolyline
 66
     1
 10
0.0
 20
0.0
 30
0.0
  0
VERTEX
  5
717
330
716
100
AcDbEntity
  8
Ebene 1
 62
   179
420
  1709851
370
    18
100
AcDbVertex
100
AcDb2dVertex
 10
130.6862521374673
 20
-141.3228121934019
 30
0.0
  0
VERTEX
  5
718
330
716
100
AcDbEntity
  8
Ebene 1
 62
   179
420
  1709851
370
    18
100
AcDbVertex
100
AcDb2dVertex
 10
130.4113335177444
 20
-141.640449997142
 30
0.0
  0
VERTEX
  5
719
330
716
100
AcDbEntity
  8
Ebene 1
 62
   179
420
  1709851
370
    18
100
AcDbVertex
100
AcDb2dVertex
 10
129.9459011176871
 20
-142.3391153615507
 30
0.0
  0
VERTEX
  5
71A
330
716
100
AcDbEntity
  8
Ebene 1
 62
   179
420
  1709851
370
    18
100
AcDbVertex
100
AcDb2dVertex
 10
129.5858886394785
 20
-142.9740464594822
 30
0.0
  0
SEQEND
  5
71B
330
716
100
AcDbEntity
  8
Ebene 1
370
    18
  0
POLYLINE
  5
71C
330
1F
100
AcDbEntity
  8
Ebene 1
 62
   179
420
  1709851
370
    18
100
AcDb2dPolyline
 66
     1
 10
0.0
 20
0.0
 30
0.0
  0
VERTEX
  5
71D
330
71C
100
AcDbEntity
  8
Ebene 1
 62
   179
420
  1709851
370
    18
100
AcDbVertex
100
AcDb2dVertex
 10
132.9727620110276
 20
-139.3966593075988
 30
0.0
  0
VERTEX
  5
71E
330
71C
100
AcDbEntity
  8
Ebene 1
 62
   179
420
  1709851
370
    18
100
AcDbVertex
100
AcDb2dVertex
 10
132.2530815641589
 20
-139.8624362172045
 30
0.0
  0
VERTEX
  5
71F
330
71C
100
AcDbEntity
  8
Ebene 1
 62
   179
420
  1709851
370
    18
100
AcDbVertex
100
AcDb2dVertex
 10
131.5964463646703
 20
-140.3916028837389
 30
0.0
  0
VERTEX
  5
720
330
71C
100
AcDbEntity
  8
Ebene 1
 62
   179
420
  1709851
370
    18
100
AcDbVertex
100
AcDb2dVertex
 10
131.3852620114245
 20
-140.5821166640732
 30
0.0
  0
SEQEND
  5
721
330
71C
100
AcDbEntity
  8
Ebene 1
370
    18
  0
POLYLINE
  5
722
330
1F
100
AcDbEntity
  8
Ebene 1
 62
   179
420
  1709851
370
    18
100
AcDb2dPolyline
 66
     1
 10
0.0
 20
0.0
 30
0.0
  0
VERTEX
  5
723
330
722
100
AcDbEntity
  8
Ebene 1
 62
   179
420
  1709851
370
    18
100
AcDbVertex
100
AcDb2dVertex
 10
137.3115152651513
 20
-141.958087800882
 30
0.0
  0
VERTEX
  5
724
330
722
100
AcDbEntity
  8
Ebene 1
 62
   179
420
  1709851
370
    18
100
AcDbVertex
100
AcDb2dVertex
 10
137.3115152651513
 20
-141.8943535344049
 30
0.0
  0
SEQEND
  5
725
330
722
100
AcDbEntity
  8
Ebene 1
370
    18
  0
POLYLINE
  5
726
330
1F
100
AcDbEntity
  8
Ebene 1
 62
   179
420
  1709851
370
    18
100
AcDb2dPolyline
 66
     1
 10
0.0
 20
0.0
 30
0.0
  0
VERTEX
  5
727
330
726
100
AcDbEntity
  8
Ebene 1
 62
   179
420
  1709851
370
    18
100
AcDbVertex
100
AcDb2dVertex
 10
136.7613335161569
 20
-144.9001993452854
 30
0.0
  0
VERTEX
  5
728
330
726
100
AcDbEntity
  8
Ebene 1
 62
   179
420
  1709851
370
    18
100
AcDbVertex
100
AcDb2dVertex
 10
137.0155815629683
 20
-144.0957695494795
 30
0.0
  0
VERTEX
  5
729
330
726
100
AcDbEntity
  8
Ebene 1
 62
   179
420
  1709851
370
    18
100
AcDbVertex
100
AcDb2dVertex
 10
137.2060953433026
 20
-143.2489650792051
 30
0.0
  0
VERTEX
  5
72A
330
726
100
AcDbEntity
  8
Ebene 1
 62
   179
420
  1709851
370
    18
100
AcDbVertex
100
AcDb2dVertex
 10
137.2267659162141
 20
-142.9526868674736
 30
0.0
  0
SEQEND
  5
72B
330
726
100
AcDbEntity
  8
Ebene 1
370
    18
  0
POLYLINE
  5
72C
330
1F
100
AcDbEntity
  8
Ebene 1
 62
   179
420
  1709851
370
    18
100
AcDb2dPolyline
 66
     1
 10
0.0
 20
0.0
 30
0.0
  0
VERTEX
  5
72D
330
72C
100
AcDbEntity
  8
Ebene 1
 62
   179
420
  1709851
370
    18
100
AcDbVertex
100
AcDb2dVertex
 10
135.2585828654909
 20
-147.4612833290201
 30
0.0
  0
VERTEX
  5
72E
330
72C
100
AcDbEntity
  8
Ebene 1
 62
   179
420
  1709851
370
    18
100
AcDbVertex
100
AcDb2dVertex
 10
135.5335014852139
 20
-147.1436455252801
 30
0.0
  0
VERTEX
  5
72F
330
72C
100
AcDbEntity
  8
Ebene 1
 62
   179
420
  1709851
370
    18
100
AcDbVertex
100
AcDb2dVertex
 10
136.0202934772797
 20
-146.4453246704199
 30
0.0
  0
VERTEX
  5
730
330
72C
100
AcDbEntity
  8
Ebene 1
 62
   179
420
  1709851
370
    18
100
AcDbVertex
100
AcDb2dVertex
 10
136.3589463634797
 20
-145.8103935724884
 30
0.0
  0
SEQEND
  5
731
330
72C
100
AcDbEntity
  8
Ebene 1
370
    18
  0
POLYLINE
  5
732
330
1F
100
AcDbEntity
  8
Ebene 1
 62
   179
420
  1709851
370
    18
100
AcDb2dPolyline
 66
     1
 10
0.0
 20
0.0
 30
0.0
  0
VERTEX
  5
733
330
732
100
AcDbEntity
  8
Ebene 1
 62
   179
420
  1709851
370
    18
100
AcDbVertex
100
AcDb2dVertex
 10
132.9727620110276
 20
-149.3876084695976
 30
0.0
  0
VERTEX
  5
734
330
732
100
AcDbEntity
  8
Ebene 1
 62
   179
420
  1709851
370
    18
100
AcDbVertex
100
AcDb2dVertex
 10
133.6924424578963
 20
-148.9218315599918
 30
0.0
  0
VERTEX
  5
735
330
732
100
AcDbEntity
  8
Ebene 1
 62
   179
420
  1709851
370
    18
100
AcDbVertex
100
AcDb2dVertex
 10
134.3697482302965
 20
-148.3924926386831
 30
0.0
  0
VERTEX
  5
736
330
732
100
AcDbEntity
  8
Ebene 1
 62
   179
420
  1709851
370
    18
100
AcDbVertex
100
AcDb2dVertex
 10
134.5809325835423
 20
-148.2019788583488
 30
0.0
  0
SEQEND
  5
737
330
732
100
AcDbEntity
  8
Ebene 1
370
    18
  0
POLYLINE
  5
738
330
1F
100
AcDbEntity
  8
Ebene 1
 62
   179
420
  1709851
370
    18
100
AcDb2dPolyline
 66
     1
 10
0.0
 20
0.0
 30
0.0
  0
VERTEX
  5
739
330
738
100
AcDbEntity
  8
Ebene 1
 62
   179
420
  1709851
370
    18
100
AcDbVertex
100
AcDb2dVertex
 10
130.3899739257359
 20
-137.8939086569328
 30
0.0
  0
VERTEX
  5
73A
330
738
100
AcDbEntity
  8
Ebene 1
 62
   179
420
  1709851
370
    18
100
AcDbVertex
100
AcDb2dVertex
 10
130.3693033528243
 20
-137.8939086569328
 30
0.0
  0
SEQEND
  5
73B
330
738
100
AcDbEntity
  8
Ebene 1
370
    18
  0
POLYLINE
  5
73C
330
1F
100
AcDbEntity
  8
Ebene 1
 62
   179
420
  1709851
370
    18
100
AcDb2dPolyline
 66
     1
 10
0.0
 20
0.0
 30
0.0
  0
VERTEX
  5
73D
330
73C
100
AcDbEntity
  8
Ebene 1
 62
   179
420
  1709851
370
    18
100
AcDbVertex
100
AcDb2dVertex
 10
133.2686957132106
 20
-137.8939086569328
 30
0.0
  0
VERTEX
  5
73E
330
73C
100
AcDbEntity
  8
Ebene 1
 62
   179
420
  1709851
370
    18
100
AcDbVertex
100
AcDb2dVertex
 10
132.8246229051619
 20
-137.6823797941384
 30
0.0
  0
VERTEX
  5
73F
330
73C
100
AcDbEntity
  8
Ebene 1
 62
   179
420
  1709851
370
    18
100
AcDbVertex
100
AcDb2dVertex
 10
132.3378309130961
 20
-137.5552557707327
 30
0.0
  0
VERTEX
  5
740
330
73C
100
AcDbEntity
  8
Ebene 1
 62
   179
420
  1709851
370
    18
100
AcDbVertex
100
AcDb2dVertex
 10
131.8506944114818
 20
-137.5128810962642
 30
0.0
  0
VERTEX
  5
741
330
73C
100
AcDbEntity
  8
Ebene 1
 62
   179
420
  1709851
370
    18
100
AcDbVertex
100
AcDb2dVertex
 10
131.3635579098674
 20
-137.5552557707327
 30
0.0
  0
VERTEX
  5
742
330
73C
100
AcDbEntity
  8
Ebene 1
 62
   179
420
  1709851
370
    18
100
AcDbVertex
100
AcDb2dVertex
 10
131.3425428274074
 20
-137.5552557707327
 30
0.0
  0
SEQEND
  5
743
330
73C
100
AcDbEntity
  8
Ebene 1
370
    18
  0
POLYLINE
  5
744
330
1F
100
AcDbEntity
  8
Ebene 1
 62
   179
420
  1709851
370
    18
100
AcDb2dPolyline
 66
     1
 10
0.0
 20
0.0
 30
0.0
  0
VERTEX
  5
745
330
744
100
AcDbEntity
  8
Ebene 1
 62
   179
420
  1709851
370
    18
100
AcDbVertex
100
AcDb2dVertex
 10
127.469221973341
 20
-147.8846855641573
 30
0.0
  0
VERTEX
  5
746
330
744
100
AcDbEntity
  8
Ebene 1
 62
   179
420
  1709851
370
    18
100
AcDbVertex
100
AcDb2dVertex
 10
127.4905815653496
 20
-147.8846855641573
 30
0.0
  0
SEQEND
  5
747
330
744
100
AcDbEntity
  8
Ebene 1
370
    18
  0
POLYLINE
  5
748
330
1F
100
AcDbEntity
  8
Ebene 1
 62
   179
420
  1709851
370
    18
100
AcDb2dPolyline
 66
     1
 10
0.0
 20
0.0
 30
0.0
  0
VERTEX
  5
749
330
748
100
AcDbEntity
  8
Ebene 1
 62
   179
420
  1709851
370
    18
100
AcDbVertex
100
AcDb2dVertex
 10
126.0508761620637
 20
-145.3869913373512
 30
0.0
  0
VERTEX
  5
74A
330
748
100
AcDbEntity
  8
Ebene 1
 62
   179
420
  1709851
370
    18
100
AcDbVertex
100
AcDb2dVertex
 10
126.0935953460808
 20
-145.894798411877
 30
0.0
  0
VERTEX
  5
74B
330
748
100
AcDbEntity
  8
Ebene 1
 62
   179
420
  1709851
370
    18
100
AcDbVertex
100
AcDb2dVertex
 10
126.2207193694865
 20
-146.3605753214828
 30
0.0
  0
VERTEX
  5
74C
330
748
100
AcDbEntity
  8
Ebene 1
 62
   179
420
  1709851
370
    18
100
AcDbVertex
100
AcDb2dVertex
 10
126.4108886402723
 20
-146.80499263908
 30
0.0
  0
VERTEX
  5
74D
330
748
100
AcDbEntity
  8
Ebene 1
 62
   179
420
  1709851
370
    18
100
AcDbVertex
100
AcDb2dVertex
 10
126.7071668520038
 20
-147.2283948742172
 30
0.0
  0
SEQEND
  5
74E
330
748
100
AcDbEntity
  8
Ebene 1
370
    18
  0
POLYLINE
  5
74F
330
1F
100
AcDbEntity
  8
Ebene 1
 62
   179
420
  1709851
370
    18
100
AcDb2dPolyline
 66
     1
 10
0.0
 20
0.0
 30
0.0
  0
VERTEX
  5
750
330
74F
100
AcDbEntity
  8
Ebene 1
 62
   179
420
  1709851
370
    18
100
AcDbVertex
100
AcDb2dVertex
 10
126.0508761620637
 20
-145.2174926394769
 30
0.0
  0
VERTEX
  5
751
330
74F
100
AcDbEntity
  8
Ebene 1
 62
   179
420
  1709851
370
    18
100
AcDbVertex
100
AcDb2dVertex
 10
126.0508761620637
 20
-145.3869913373512
 30
0.0
  0
SEQEND
  5
752
330
74F
100
AcDbEntity
  8
Ebene 1
370
    18
  0
POLYLINE
  5
753
330
1F
100
AcDbEntity
  8
Ebene 1
 62
   179
420
  1709851
370
    18
100
AcDb2dPolyline
 66
     1
 10
0.0
 20
0.0
 30
0.0
  0
VERTEX
  5
754
330
753
100
AcDbEntity
  8
Ebene 1
 62
   179
420
  1709851
370
    18
100
AcDbVertex
100
AcDb2dVertex
 10
126.5800428285981
 20
-142.4025051184792
 30
0.0
  0
VERTEX
  5
755
330
753
100
AcDbEntity
  8
Ebene 1
 62
   179
420
  1709851
370
    18
100
AcDbVertex
100
AcDb2dVertex
 10
126.3261392913351
 20
-143.2069349142851
 30
0.0
  0
VERTEX
  5
756
330
753
100
AcDbEntity
  8
Ebene 1
 62
   179
420
  1709851
370
    18
100
AcDbVertex
100
AcDb2dVertex
 10
126.1566405934608
 20
-144.0323797925509
 30
0.0
  0
VERTEX
  5
757
330
753
100
AcDbEntity
  8
Ebene 1
 62
   179
420
  1709851
370
    18
100
AcDbVertex
100
AcDb2dVertex
 10
126.1142659189923
 20
-144.3286580042824
 30
0.0
  0
SEQEND
  5
758
330
753
100
AcDbEntity
  8
Ebene 1
370
    18
  0
POLYLINE
  5
759
330
1F
100
AcDbEntity
  8
Ebene 1
 62
   179
420
  1709851
370
    18
100
AcDb2dPolyline
 66
     1
 10
0.0
 20
0.0
 30
0.0
  0
VERTEX
  5
75A
330
759
100
AcDbEntity
  8
Ebene 1
 62
   179
420
  1709851
370
    18
100
AcDbVertex
100
AcDb2dVertex
 10
128.1044975808211
 20
-139.820061542736
 30
0.0
  0
VERTEX
  5
75B
330
759
100
AcDbEntity
  8
Ebene 1
 62
   179
420
  1709851
370
    18
100
AcDbVertex
100
AcDb2dVertex
 10
127.8292344515496
 20
-140.137699346476
 30
0.0
  0
VERTEX
  5
75C
330
759
100
AcDbEntity
  8
Ebene 1
 62
   179
420
  1709851
370
    18
100
AcDbVertex
100
AcDb2dVertex
 10
127.3424424594838
 20
-140.8573797933447
 30
0.0
  0
VERTEX
  5
75D
330
759
100
AcDbEntity
  8
Ebene 1
 62
   179
420
  1709851
370
    18
100
AcDbVertex
100
AcDb2dVertex
 10
126.9820854717267
 20
-141.4712958088162
 30
0.0
  0
SEQEND
  5
75E
330
759
100
AcDbEntity
  8
Ebene 1
370
    18
  0
POLYLINE
  5
75F
330
1F
100
AcDbEntity
  8
Ebene 1
 62
   179
420
  1709851
370
    18
100
AcDb2dPolyline
 66
     1
 10
0.0
 20
0.0
 30
0.0
  0
VERTEX
  5
760
330
75F
100
AcDbEntity
  8
Ebene 1
 62
   179
420
  1709851
370
    18
100
AcDbVertex
100
AcDb2dVertex
 10
130.3693033528243
 20
-137.8939086569328
 30
0.0
  0
VERTEX
  5
761
330
75F
100
AcDbEntity
  8
Ebene 1
 62
   179
420
  1709851
370
    18
100
AcDbVertex
100
AcDb2dVertex
 10
129.6496229059557
 20
-138.3596855665386
 30
0.0
  0
VERTEX
  5
762
330
75F
100
AcDbEntity
  8
Ebene 1
 62
   179
420
  1709851
370
    18
100
AcDbVertex
100
AcDb2dVertex
 10
128.992987706467
 20
-138.8888522330729
 30
0.0
  0
VERTEX
  5
763
330
75F
100
AcDbEntity
  8
Ebene 1
 62
   179
420
  1709851
370
    18
100
AcDbVertex
100
AcDb2dVertex
 10
128.7818033532212
 20
-139.1003810958673
 30
0.0
  0
SEQEND
  5
764
330
75F
100
AcDbEntity
  8
Ebene 1
370
    18
  0
POLYLINE
  5
765
330
1F
100
AcDbEntity
  8
Ebene 1
 62
   179
420
  1709851
370
    18
100
AcDb2dPolyline
 66
     1
 10
0.0
 20
0.0
 30
0.0
  0
VERTEX
  5
766
330
765
100
AcDbEntity
  8
Ebene 1
 62
   179
420
  1709851
370
    18
100
AcDbVertex
100
AcDb2dVertex
 10
134.1582193675021
 20
-133.9782131283978
 30
0.0
  0
VERTEX
  5
767
330
765
100
AcDbEntity
  8
Ebene 1
 62
   179
420
  1709851
370
    18
100
AcDbVertex
100
AcDb2dVertex
 10
134.1582193675021
 20
-132.4541028857233
 30
0.0
  0
SEQEND
  5
768
330
765
100
AcDbEntity
  8
Ebene 1
370
    18
  0
POLYLINE
  5
769
330
1F
100
AcDbEntity
  8
Ebene 1
 62
   179
420
  1709851
370
    18
100
AcDb2dPolyline
 66
     1
 10
0.0
 20
0.0
 30
0.0
  0
VERTEX
  5
76A
330
769
100
AcDbEntity
  8
Ebene 1
 62
   179
420
  1709851
370
    18
100
AcDbVertex
100
AcDb2dVertex
 10
134.1582193675021
 20
-136.9837144297298
 30
0.0
  0
VERTEX
  5
76B
330
769
100
AcDbEntity
  8
Ebene 1
 62
   179
420
  1709851
370
    18
100
AcDbVertex
100
AcDb2dVertex
 10
134.1582193675021
 20
-134.9728121949894
 30
0.0
  0
SEQEND
  5
76C
330
769
100
AcDbEntity
  8
Ebene 1
370
    18
  0
POLYLINE
  5
76D
330
1F
100
AcDbEntity
  8
Ebene 1
 62
   179
420
  1709851
370
    18
100
AcDb2dPolyline
 66
     1
 10
0.0
 20
0.0
 30
0.0
  0
VERTEX
  5
76E
330
76D
100
AcDbEntity
  8
Ebene 1
 62
   179
420
  1709851
370
    18
100
AcDbVertex
100
AcDb2dVertex
 10
134.1582193675021
 20
-138.4230753234671
 30
0.0
  0
VERTEX
  5
76F
330
76D
100
AcDbEntity
  8
Ebene 1
 62
   179
420
  1709851
370
    18
100
AcDbVertex
100
AcDb2dVertex
 10
134.1582193675021
 20
-138.4230753234671
 30
0.0
  0
VERTEX
  5
770
330
76D
100
AcDbEntity
  8
Ebene 1
 62
   179
420
  1709851
370
    18
100
AcDbVertex
100
AcDb2dVertex
 10
134.1582193675021
 20
-137.9786580058699
 30
0.0
  0
SEQEND
  5
771
330
76D
100
AcDbEntity
  8
Ebene 1
370
    18
  0
POLYLINE
  5
772
330
1F
100
AcDbEntity
  8
Ebene 1
 62
   179
420
  1709851
370
    18
100
AcDb2dPolyline
 66
     1
 10
0.0
 20
0.0
 30
0.0
  0
VERTEX
  5
773
330
772
100
AcDbEntity
  8
Ebene 1
 62
   179
420
  1709851
370
    18
100
AcDbVertex
100
AcDb2dVertex
 10
125.8603623817294
 20
-146.6568535332143
 30
0.0
  0
VERTEX
  5
774
330
772
100
AcDbEntity
  8
Ebene 1
 62
   179
420
  1709851
370
    18
100
AcDbVertex
100
AcDb2dVertex
 10
126.1566405934608
 20
-146.4876993448885
 30
0.0
  0
SEQEND
  5
775
330
772
100
AcDbEntity
  8
Ebene 1
370
    18
  0
POLYLINE
  5
776
330
1F
100
AcDbEntity
  8
Ebene 1
 62
   179
420
  1709851
370
    18
100
AcDb2dPolyline
 66
     1
 10
0.0
 20
0.0
 30
0.0
  0
VERTEX
  5
777
330
776
100
AcDbEntity
  8
Ebene 1
 62
   179
420
  1709851
370
    18
100
AcDbVertex
100
AcDb2dVertex
 10
124.5484700209462
 20
-147.3978935720915
 30
0.0
  0
VERTEX
  5
778
330
776
100
AcDbEntity
  8
Ebene 1
 62
   179
420
  1709851
370
    18
100
AcDbVertex
100
AcDb2dVertex
 10
124.9925428289949
 20
-147.1436455252801
 30
0.0
  0
SEQEND
  5
779
330
776
100
AcDbEntity
  8
Ebene 1
370
    18
  0
POLYLINE
  5
77A
330
1F
100
AcDbEntity
  8
Ebene 1
 62
   179
420
  1709851
370
    18
100
AcDb2dPolyline
 66
     1
 10
0.0
 20
0.0
 30
0.0
  0
VERTEX
  5
77B
330
77A
100
AcDbEntity
  8
Ebene 1
 62
   179
420
  1709851
370
    18
100
AcDbVertex
100
AcDb2dVertex
 10
125.648833518935
 20
-146.2758259725456
 30
0.0
  0
VERTEX
  5
77C
330
77A
100
AcDbEntity
  8
Ebene 1
 62
   179
420
  1709851
370
    18
100
AcDbVertex
100
AcDb2dVertex
 10
126.1566405934608
 20
-145.9795477608141
 30
0.0
  0
SEQEND
  5
77D
330
77A
100
AcDbEntity
  8
Ebene 1
370
    18
  0
POLYLINE
  5
77E
330
1F
100
AcDbEntity
  8
Ebene 1
 62
   179
420
  1709851
370
    18
100
AcDb2dPolyline
 66
     1
 10
0.0
 20
0.0
 30
0.0
  0
VERTEX
  5
77F
330
77E
100
AcDbEntity
  8
Ebene 1
 62
   179
420
  1709851
370
    18
100
AcDbVertex
100
AcDb2dVertex
 10
123.0457193702802
 20
-147.7789211327601
 30
0.0
  0
VERTEX
  5
780
330
77E
100
AcDbEntity
  8
Ebene 1
 62
   179
420
  1709851
370
    18
100
AcDbVertex
100
AcDb2dVertex
 10
124.7813584757491
 20
-146.78397755662
 30
0.0
  0
SEQEND
  5
781
330
77E
100
AcDbEntity
  8
Ebene 1
370
    18
  0
POLYLINE
  5
782
330
1F
100
AcDbEntity
  8
Ebene 1
 62
   179
420
  1709851
370
    18
100
AcDb2dPolyline
 66
     1
 10
0.0
 20
0.0
 30
0.0
  0
VERTEX
  5
783
330
782
100
AcDbEntity
  8
Ebene 1
 62
   179
420
  1709851
370
    18
100
AcDbVertex
100
AcDb2dVertex
 10
121.3093912457143
 20
-148.7735201993518
 30
0.0
  0
VERTEX
  5
784
330
782
100
AcDbEntity
  8
Ebene 1
 62
   179
420
  1709851
370
    18
100
AcDbVertex
100
AcDb2dVertex
 10
122.1775553079973
 20
-148.2657131248259
 30
0.0
  0
SEQEND
  5
785
330
782
100
AcDbEntity
  8
Ebene 1
370
    18
  0
POLYLINE
  5
786
330
1F
100
AcDbEntity
  8
Ebene 1
 62
   179
420
  1709851
370
    18
100
AcDb2dPolyline
 66
     1
 10
0.0
 20
0.0
 30
0.0
  0
VERTEX
  5
787
330
786
100
AcDbEntity
  8
Ebene 1
 62
   179
420
  1709851
370
    18
100
AcDbVertex
100
AcDb2dVertex
 10
125.2678059582664
 20
-145.6198797921541
 30
0.0
  0
VERTEX
  5
788
330
786
100
AcDbEntity
  8
Ebene 1
 62
   179
420
  1709851
370
    18
100
AcDbVertex
100
AcDb2dVertex
 10
126.0718912445237
 20
-145.1541028825483
 30
0.0
  0
SEQEND
  5
789
330
786
100
AcDbEntity
  8
Ebene 1
370
    18
  0
POLYLINE
  5
78A
330
1F
100
AcDbEntity
  8
Ebene 1
 62
   179
420
  1709851
370
    18
100
AcDb2dPolyline
 66
     1
 10
0.0
 20
0.0
 30
0.0
  0
VERTEX
  5
78B
330
78A
100
AcDbEntity
  8
Ebene 1
 62
   179
420
  1709851
370
    18
100
AcDbVertex
100
AcDb2dVertex
 10
122.6646918096116
 20
-147.1226304428201
 30
0.0
  0
VERTEX
  5
78C
330
78A
100
AcDbEntity
  8
Ebene 1
 62
   179
420
  1709851
370
    18
100
AcDbVertex
100
AcDb2dVertex
 10
124.4003309150805
 20
-146.1276868666799
 30
0.0
  0
SEQEND
  5
78D
330
78A
100
AcDbEntity
  8
Ebene 1
370
    18
  0
POLYLINE
  5
78E
330
1F
100
AcDbEntity
  8
Ebene 1
 62
   179
420
  1709851
370
    18
100
AcDb2dPolyline
 66
     1
 10
0.0
 20
0.0
 30
0.0
  0
VERTEX
  5
78F
330
78E
100
AcDbEntity
  8
Ebene 1
 62
   179
420
  1709851
370
    18
100
AcDbVertex
100
AcDb2dVertex
 10
121.3093912457143
 20
-147.9057006466173
 30
0.0
  0
VERTEX
  5
790
330
78E
100
AcDbEntity
  8
Ebene 1
 62
   179
420
  1709851
370
    18
100
AcDbVertex
100
AcDb2dVertex
 10
121.7965277473287
 20
-147.6094224348859
 30
0.0
  0
SEQEND
  5
791
330
78E
100
AcDbEntity
  8
Ebene 1
370
    18
  0
POLYLINE
  5
792
330
1F
100
AcDbEntity
  8
Ebene 1
 62
   179
420
  1709851
370
    18
100
AcDb2dPolyline
 66
     1
 10
0.0
 20
0.0
 30
0.0
  0
VERTEX
  5
793
330
792
100
AcDbEntity
  8
Ebene 1
 62
   179
420
  1709851
370
    18
100
AcDbVertex
100
AcDb2dVertex
 10
124.7813584757491
 20
-144.7730753218796
 30
0.0
  0
VERTEX
  5
794
330
792
100
AcDbEntity
  8
Ebene 1
 62
   179
420
  1709851
370
    18
100
AcDbVertex
100
AcDb2dVertex
 10
126.1566405934608
 20
-143.9900051180824
 30
0.0
  0
SEQEND
  5
795
330
792
100
AcDbEntity
  8
Ebene 1
370
    18
  0
POLYLINE
  5
796
330
1F
100
AcDbEntity
  8
Ebene 1
 62
   179
420
  1709851
370
    18
100
AcDb2dPolyline
 66
     1
 10
0.0
 20
0.0
 30
0.0
  0
VERTEX
  5
797
330
796
100
AcDbEntity
  8
Ebene 1
 62
   179
420
  1709851
370
    18
100
AcDbVertex
100
AcDb2dVertex
 10
122.1775553079973
 20
-146.2758259725456
 30
0.0
  0
VERTEX
  5
798
330
796
100
AcDbEntity
  8
Ebene 1
 62
   179
420
  1709851
370
    18
100
AcDbVertex
100
AcDb2dVertex
 10
123.9131944134662
 20
-145.281226905954
 30
0.0
  0
SEQEND
  5
799
330
796
100
AcDbEntity
  8
Ebene 1
370
    18
  0
POLYLINE
  5
79A
330
1F
100
AcDbEntity
  8
Ebene 1
 62
   179
420
  1709851
370
    18
100
AcDb2dPolyline
 66
     1
 10
0.0
 20
0.0
 30
0.0
  0
VERTEX
  5
79B
330
79A
100
AcDbEntity
  8
Ebene 1
 62
   179
420
  1709851
370
    18
100
AcDbVertex
100
AcDb2dVertex
 10
120.3358072615827
 20
-147.3341593056144
 30
0.0
  0
VERTEX
  5
79C
330
79A
100
AcDbEntity
  8
Ebene 1
 62
   179
420
  1709851
370
    18
100
AcDbVertex
100
AcDb2dVertex
 10
121.3093912457143
 20
-146.78397755662
 30
0.0
  0
SEQEND
  5
79D
330
79A
100
AcDbEntity
  8
Ebene 1
370
    18
  0
POLYLINE
  5
79E
330
1F
100
AcDbEntity
  8
Ebene 1
 62
   179
420
  1709851
370
    18
100
AcDb2dPolyline
 66
     1
 10
0.0
 20
0.0
 30
0.0
  0
VERTEX
  5
79F
330
79E
100
AcDbEntity
  8
Ebene 1
 62
   179
420
  1709851
370
    18
100
AcDbVertex
100
AcDb2dVertex
 10
132.1896918072304
 20
-133.5971855677292
 30
0.0
  0
VERTEX
  5
7A0
330
79E
100
AcDbEntity
  8
Ebene 1
 62
   179
420
  1709851
370
    18
100
AcDbVertex
100
AcDb2dVertex
 10
133.9253309126992
 20
-132.602241991589
 30
0.0
  0
SEQEND
  5
7A1
330
79E
100
AcDbEntity
  8
Ebene 1
370
    18
  0
POLYLINE
  5
7A2
330
1F
100
AcDbEntity
  8
Ebene 1
 62
   179
420
  1709851
370
    18
100
AcDb2dPolyline
 66
     1
 10
0.0
 20
0.0
 30
0.0
  0
VERTEX
  5
7A3
330
7A2
100
AcDbEntity
  8
Ebene 1
 62
   179
420
  1709851
370
    18
100
AcDbVertex
100
AcDb2dVertex
 10
129.5858886394785
 20
-135.0999362183952
 30
0.0
  0
VERTEX
  5
7A4
330
7A2
100
AcDbEntity
  8
Ebene 1
 62
   179
420
  1709851
370
    18
100
AcDbVertex
100
AcDb2dVertex
 10
131.3215277449474
 20
-134.104992642255
 30
0.0
  0
SEQEND
  5
7A5
330
7A2
100
AcDbEntity
  8
Ebene 1
370
    18
  0
POLYLINE
  5
7A6
330
1F
100
AcDbEntity
  8
Ebene 1
 62
   179
420
  1709851
370
    18
100
AcDb2dPolyline
 66
     1
 10
0.0
 20
0.0
 30
0.0
  0
VERTEX
  5
7A7
330
7A6
100
AcDbEntity
  8
Ebene 1
 62
   179
420
  1709851
370
    18
100
AcDbVertex
100
AcDb2dVertex
 10
133.5015841680135
 20
-132.0730753250546
 30
0.0
  0
VERTEX
  5
7A8
330
7A6
100
AcDbEntity
  8
Ebene 1
 62
   179
420
  1709851
370
    18
100
AcDbVertex
100
AcDb2dVertex
 10
134.1582193675021
 20
-132.4541028857233
 30
0.0
  0
SEQEND
  5
7A9
330
7A6
100
AcDbEntity
  8
Ebene 1
370
    18
  0
POLYLINE
  5
7AA
330
1F
100
AcDbEntity
  8
Ebene 1
 62
   179
420
  1709851
370
    18
100
AcDb2dPolyline
 66
     1
 10
0.0
 20
0.0
 30
0.0
  0
VERTEX
  5
7AB
330
7AA
100
AcDbEntity
  8
Ebene 1
 62
   179
420
  1709851
370
    18
100
AcDbVertex
100
AcDb2dVertex
 10
131.0886392901445
 20
-130.6760891057858
 30
0.0
  0
VERTEX
  5
7AC
330
7AA
100
AcDbEntity
  8
Ebene 1
 62
   179
420
  1709851
370
    18
100
AcDbVertex
100
AcDb2dVertex
 10
131.0886392901445
 20
-130.6760891057858
 30
0.0
  0
VERTEX
  5
7AD
330
7AA
100
AcDbEntity
  8
Ebene 1
 62
   179
420
  1709851
370
    18
100
AcDbVertex
100
AcDb2dVertex
 10
132.6337646152791
 20
-131.5649237409803
 30
0.0
  0
SEQEND
  5
7AE
330
7AA
100
AcDbEntity
  8
Ebene 1
370
    18
  0
POLYLINE
  5
7AF
330
1F
100
AcDbEntity
  8
Ebene 1
 62
   179
420
  1709851
370
    18
100
AcDb2dPolyline
 66
     1
 10
0.0
 20
0.0
 30
0.0
  0
VERTEX
  5
7B0
330
7AF
100
AcDbEntity
  8
Ebene 1
 62
   179
420
  1709851
370
    18
100
AcDbVertex
100
AcDb2dVertex
 10
138.4122232726886
 20
-126.4003810990423
 30
0.0
  0
VERTEX
  5
7B1
330
7AF
100
AcDbEntity
  8
Ebene 1
 62
   179
420
  1709851
370
    18
100
AcDbVertex
100
AcDb2dVertex
 10
140.1478623781575
 20
-125.4054375229021
 30
0.0
  0
SEQEND
  5
7B2
330
7AF
100
AcDbEntity
  8
Ebene 1
370
    18
  0
POLYLINE
  5
7B3
330
1F
100
AcDbEntity
  8
Ebene 1
 62
   179
420
  1709851
370
    18
100
AcDb2dPolyline
 66
     1
 10
0.0
 20
0.0
 30
0.0
  0
VERTEX
  5
7B4
330
7B3
100
AcDbEntity
  8
Ebene 1
 62
   179
420
  1709851
370
    18
100
AcDbVertex
100
AcDb2dVertex
 10
135.8297796969453
 20
-127.9031317497083
 30
0.0
  0
VERTEX
  5
7B5
330
7B3
100
AcDbEntity
  8
Ebene 1
 62
   179
420
  1709851
370
    18
100
AcDbVertex
100
AcDb2dVertex
 10
137.5444037199542
 20
-126.9085326831166
 30
0.0
  0
SEQEND
  5
7B6
330
7B3
100
AcDbEntity
  8
Ebene 1
370
    18
  0
POLYLINE
  5
7B7
330
1F
100
AcDbEntity
  8
Ebene 1
 62
   179
420
  1709851
370
    18
100
AcDb2dPolyline
 66
     1
 10
0.0
 20
0.0
 30
0.0
  0
VERTEX
  5
7B8
330
7B7
100
AcDbEntity
  8
Ebene 1
 62
   179
420
  1709851
370
    18
100
AcDbVertex
100
AcDb2dVertex
 10
133.2266655482906
 20
-129.4058824003742
 30
0.0
  0
VERTEX
  5
7B9
330
7B7
100
AcDbEntity
  8
Ebene 1
 62
   179
420
  1709851
370
    18
100
AcDbVertex
100
AcDb2dVertex
 10
134.9623046537594
 20
-128.4112833337826
 30
0.0
  0
SEQEND
  5
7BA
330
7B7
100
AcDbEntity
  8
Ebene 1
370
    18
  0
POLYLINE
  5
7BB
330
1F
100
AcDbEntity
  8
Ebene 1
 62
   179
420
  1709851
370
    18
100
AcDb2dPolyline
 66
     1
 10
0.0
 20
0.0
 30
0.0
  0
VERTEX
  5
7BC
330
7BB
100
AcDbEntity
  8
Ebene 1
 62
   179
420
  1709851
370
    18
100
AcDbVertex
100
AcDb2dVertex
 10
138.1586642449742
 20
-131.9249362191889
 30
0.0
  0
VERTEX
  5
7BD
330
7BB
100
AcDbEntity
  8
Ebene 1
 62
   179
420
  1709851
370
    18
100
AcDbVertex
100
AcDb2dVertex
 10
139.8729437584346
 20
-130.9299926430488
 30
0.0
  0
SEQEND
  5
7BE
330
7BB
100
AcDbEntity
  8
Ebene 1
370
    18
  0
POLYLINE
  5
7BF
330
1F
100
AcDbEntity
  8
Ebene 1
 62
   179
420
  1709851
370
    18
100
AcDb2dPolyline
 66
     1
 10
0.0
 20
0.0
 30
0.0
  0
VERTEX
  5
7C0
330
7BF
100
AcDbEntity
  8
Ebene 1
 62
   179
420
  1709851
370
    18
100
AcDbVertex
100
AcDb2dVertex
 10
136.9308322140312
 20
-132.6232570740491
 30
0.0
  0
VERTEX
  5
7C1
330
7BF
100
AcDbEntity
  8
Ebene 1
 62
   179
420
  1709851
370
    18
100
AcDbVertex
100
AcDb2dVertex
 10
137.2908446922398
 20
-132.4327432937147
 30
0.0
  0
SEQEND
  5
7C2
330
7BF
100
AcDbEntity
  8
Ebene 1
370
    18
  0
POLYLINE
  5
7C3
330
1F
100
AcDbEntity
  8
Ebene 1
 62
   179
420
  1709851
370
    18
100
AcDb2dPolyline
 66
     1
 10
0.0
 20
0.0
 30
0.0
  0
VERTEX
  5
7C4
330
7C3
100
AcDbEntity
  8
Ebene 1
 62
   179
420
  1709851
370
    18
100
AcDbVertex
100
AcDb2dVertex
 10
134.1582193675021
 20
-134.2321166656607
 30
0.0
  0
VERTEX
  5
7C5
330
7C3
100
AcDbEntity
  8
Ebene 1
 62
   179
420
  1709851
370
    18
100
AcDbVertex
100
AcDb2dVertex
 10
134.3483886382879
 20
-134.1263522342635
 30
0.0
  0
SEQEND
  5
7C6
330
7C3
100
AcDbEntity
  8
Ebene 1
370
    18
  0
POLYLINE
  5
7C7
330
1F
100
AcDbEntity
  8
Ebene 1
 62
   179
420
  1709851
370
    18
100
AcDb2dPolyline
 66
     1
 10
0.0
 20
0.0
 30
0.0
  0
VERTEX
  5
7C8
330
7C7
100
AcDbEntity
  8
Ebene 1
 62
   179
420
  1709851
370
    18
100
AcDbVertex
100
AcDb2dVertex
 10
133.0358072584077
 20
-130.9723673175173
 30
0.0
  0
VERTEX
  5
7C9
330
7C7
100
AcDbEntity
  8
Ebene 1
 62
   179
420
  1709851
370
    18
100
AcDbVertex
100
AcDb2dVertex
 10
133.0358072584077
 20
-129.0672295141742
 30
0.0
  0
SEQEND
  5
7CA
330
7C7
100
AcDbEntity
  8
Ebene 1
370
    18
  0
POLYLINE
  5
7CB
330
1F
100
AcDbEntity
  8
Ebene 1
 62
   179
420
  1709851
370
    18
100
AcDb2dPolyline
 66
     1
 10
0.0
 20
0.0
 30
0.0
  0
VERTEX
  5
7CC
330
7CB
100
AcDbEntity
  8
Ebene 1
 62
   179
420
  1709851
370
    18
100
AcDbVertex
100
AcDb2dVertex
 10
132.8242783956134
 20
-130.9723673175173
 30
0.0
  0
VERTEX
  5
7CD
330
7CB
100
AcDbEntity
  8
Ebene 1
 62
   179
420
  1709851
370
    18
100
AcDbVertex
100
AcDb2dVertex
 10
132.8242783956134
 20
-129.4272419923828
 30
0.0
  0
SEQEND
  5
7CE
330
7CB
100
AcDbEntity
  8
Ebene 1
370
    18
  0
POLYLINE
  5
7CF
330
1F
100
AcDbEntity
  8
Ebene 1
 62
   179
420
  1709851
370
    18
100
AcDb2dPolyline
 66
     1
 10
0.0
 20
0.0
 30
0.0
  0
VERTEX
  5
7D0
330
7CF
100
AcDbEntity
  8
Ebene 1
 62
   179
420
  1709851
370
    18
100
AcDbVertex
100
AcDb2dVertex
 10
128.061778396804
 20
-129.85064422752
 30
0.0
  0
VERTEX
  5
7D1
330
7CF
100
AcDbEntity
  8
Ebene 1
 62
   179
420
  1709851
370
    18
100
AcDbVertex
100
AcDb2dVertex
 10
128.061778396804
 20
-129.85064422752
 30
0.0
  0
VERTEX
  5
7D2
330
7CF
100
AcDbEntity
  8
Ebene 1
 62
   179
420
  1709851
370
    18
100
AcDbVertex
100
AcDb2dVertex
 10
128.061778396804
 20
-128.9828246747855
 30
0.0
  0
SEQEND
  5
7D3
330
7CF
100
AcDbEntity
  8
Ebene 1
370
    18
  0
POLYLINE
  5
7D4
330
1F
100
AcDbEntity
  8
Ebene 1
 62
   179
420
  1709851
370
    18
100
AcDb2dPolyline
 66
     1
 10
0.0
 20
0.0
 30
0.0
  0
VERTEX
  5
7D5
330
7D4
100
AcDbEntity
  8
Ebene 1
 62
   179
420
  1709851
370
    18
100
AcDbVertex
100
AcDb2dVertex
 10
130.1360703884729
 20
-131.8825615447203
 30
0.0
  0
VERTEX
  5
7D6
330
7D4
100
AcDbEntity
  8
Ebene 1
 62
   179
420
  1709851
370
    18
100
AcDbVertex
100
AcDb2dVertex
 10
130.8771104273502
 20
-132.3059637798575
 30
0.0
  0
SEQEND
  5
7D7
330
7D4
100
AcDbEntity
  8
Ebene 1
370
    18
  0
POLYLINE
  5
7D8
330
1F
100
AcDbEntity
  8
Ebene 1
 62
   179
420
  1709851
370
    18
100
AcDb2dPolyline
 66
     1
 10
0.0
 20
0.0
 30
0.0
  0
VERTEX
  5
7D9
330
7D8
100
AcDbEntity
  8
Ebene 1
 62
   179
420
  1709851
370
    18
100
AcDbVertex
100
AcDb2dVertex
 10
134.1582193675021
 20
-133.7029499991264
 30
0.0
  0
VERTEX
  5
7DA
330
7D8
100
AcDbEntity
  8
Ebene 1
 62
   179
420
  1709851
370
    18
100
AcDbVertex
100
AcDb2dVertex
 10
134.3483886382879
 20
-133.8087144305235
 30
0.0
  0
SEQEND
  5
7DB
330
7D8
100
AcDbEntity
  8
Ebene 1
370
    18
  0
POLYLINE
  5
7DC
330
1F
100
AcDbEntity
  8
Ebene 1
 62
   179
420
  1709851
370
    18
100
AcDb2dPolyline
 66
     1
 10
0.0
 20
0.0
 30
0.0
  0
VERTEX
  5
7DD
330
7DC
100
AcDbEntity
  8
Ebene 1
 62
   179
420
  1709851
370
    18
100
AcDbVertex
100
AcDb2dVertex
 10
132.0835828662847
 20
-128.5170477651798
 30
0.0
  0
VERTEX
  5
7DE
330
7DC
100
AcDbEntity
  8
Ebene 1
 62
   179
420
  1709851
370
    18
100
AcDbVertex
100
AcDb2dVertex
 10
133.0358072584077
 20
-129.0672295141742
 30
0.0
  0
SEQEND
  5
7DF
330
7DC
100
AcDbEntity
  8
Ebene 1
370
    18
  0
POLYLINE
  5
7E0
330
1F
100
AcDbEntity
  8
Ebene 1
 62
   179
420
  1709851
370
    18
100
AcDb2dPolyline
 66
     1
 10
0.0
 20
0.0
 30
0.0
  0
VERTEX
  5
7E1
330
7E0
100
AcDbEntity
  8
Ebene 1
 62
   179
420
  1709851
370
    18
100
AcDbVertex
100
AcDb2dVertex
 10
130.2211642469586
 20
-127.4380438591995
 30
0.0
  0
VERTEX
  5
7E2
330
7E0
100
AcDbEntity
  8
Ebene 1
 62
   179
420
  1709851
370
    18
100
AcDbVertex
100
AcDb2dVertex
 10
131.2154188040017
 20
-128.0088961811054
 30
0.0
  0
SEQEND
  5
7E3
330
7E0
100
AcDbEntity
  8
Ebene 1
370
    18
  0
POLYLINE
  5
7E4
330
1F
100
AcDbEntity
  8
Ebene 1
 62
   179
420
  1709851
370
    18
100
AcDb2dPolyline
 66
     1
 10
0.0
 20
0.0
 30
0.0
  0
VERTEX
  5
7E5
330
7E4
100
AcDbEntity
  8
Ebene 1
 62
   179
420
  1709851
370
    18
100
AcDbVertex
100
AcDb2dVertex
 10
129.0146918080241
 20
-128.1360202045111
 30
0.0
  0
VERTEX
  5
7E6
330
7E4
100
AcDbEntity
  8
Ebene 1
 62
   179
420
  1709851
370
    18
100
AcDbVertex
100
AcDb2dVertex
 10
130.2211642469586
 20
-127.4380438591995
 30
0.0
  0
SEQEND
  5
7E7
330
7E4
100
AcDbEntity
  8
Ebene 1
370
    18
  0
POLYLINE
  5
7E8
330
1F
100
AcDbEntity
  8
Ebene 1
 62
   179
420
  1709851
370
    18
100
AcDb2dPolyline
 66
     1
 10
0.0
 20
0.0
 30
0.0
  0
VERTEX
  5
7E9
330
7E8
100
AcDbEntity
  8
Ebene 1
 62
   179
420
  1709851
370
    18
100
AcDbVertex
100
AcDb2dVertex
 10
128.061778396804
 20
-128.6862019535055
 30
0.0
  0
VERTEX
  5
7EA
330
7E8
100
AcDbEntity
  8
Ebene 1
 62
   179
420
  1709851
370
    18
100
AcDbVertex
100
AcDb2dVertex
 10
128.1675428282012
 20
-128.6228121965769
 30
0.0
  0
SEQEND
  5
7EB
330
7E8
100
AcDbEntity
  8
Ebene 1
370
    18
  0
POLYLINE
  5
7EC
330
1F
100
AcDbEntity
  8
Ebene 1
 62
   179
420
  1709851
370
    18
100
AcDb2dPolyline
 66
     1
 10
0.0
 20
0.0
 30
0.0
  0
VERTEX
  5
7ED
330
7EC
100
AcDbEntity
  8
Ebene 1
 62
   179
420
  1709851
370
    18
100
AcDbVertex
100
AcDb2dVertex
 10
128.4214463654641
 20
-128.8767157338399
 30
0.0
  0
VERTEX
  5
7EE
330
7EC
100
AcDbEntity
  8
Ebene 1
 62
   179
420
  1709851
370
    18
100
AcDbVertex
100
AcDb2dVertex
 10
130.1360703884729
 20
-129.8930189019886
 30
0.0
  0
SEQEND
  5
7EF
330
7EC
100
AcDbEntity
  8
Ebene 1
370
    18
  0
POLYLINE
  5
7F0
330
1F
100
AcDbEntity
  8
Ebene 1
 62
   179
420
  1709851
370
    18
100
AcDb2dPolyline
 66
     1
 10
0.0
 20
0.0
 30
0.0
  0
VERTEX
  5
7F1
330
7F0
100
AcDbEntity
  8
Ebene 1
 62
   179
420
  1709851
370
    18
100
AcDbVertex
100
AcDb2dVertex
 10
130.8771104273502
 20
-130.9723673175173
 30
0.0
  0
VERTEX
  5
7F2
330
7F0
100
AcDbEntity
  8
Ebene 1
 62
   179
420
  1709851
370
    18
100
AcDbVertex
100
AcDb2dVertex
 10
130.8771104273502
 20
-130.3160766275772
 30
0.0
  0
SEQEND
  5
7F3
330
7F0
100
AcDbEntity
  8
Ebene 1
370
    18
  0
POLYLINE
  5
7F4
330
1F
100
AcDbEntity
  8
Ebene 1
 62
   179
420
  1709851
370
    18
100
AcDb2dPolyline
 66
     1
 10
0.0
 20
0.0
 30
0.0
  0
VERTEX
  5
7F5
330
7F4
100
AcDbEntity
  8
Ebene 1
 62
   179
420
  1709851
370
    18
100
AcDbVertex
100
AcDb2dVertex
 10
130.8771104273502
 20
-132.3059637798575
 30
0.0
  0
VERTEX
  5
7F6
330
7F4
100
AcDbEntity
  8
Ebene 1
 62
   179
420
  1709851
370
    18
100
AcDbVertex
100
AcDb2dVertex
 10
130.8771104273502
 20
-131.9673108936575
 30
0.0
  0
SEQEND
  5
7F7
330
7F4
100
AcDbEntity
  8
Ebene 1
370
    18
  0
POLYLINE
  5
7F8
330
1F
100
AcDbEntity
  8
Ebene 1
 62
   179
420
  1709851
370
    18
100
AcDb2dPolyline
 66
     1
 10
0.0
 20
0.0
 30
0.0
  0
VERTEX
  5
7F9
330
7F8
100
AcDbEntity
  8
Ebene 1
 62
   179
420
  1709851
370
    18
100
AcDbVertex
100
AcDb2dVertex
 10
131.0886392901445
 20
-130.9723673175173
 30
0.0
  0
VERTEX
  5
7FA
330
7F8
100
AcDbEntity
  8
Ebene 1
 62
   179
420
  1709851
370
    18
100
AcDbVertex
100
AcDb2dVertex
 10
131.0886392901445
 20
-130.443200650983
 30
0.0
  0
SEQEND
  5
7FB
330
7F8
100
AcDbEntity
  8
Ebene 1
370
    18
  0
POLYLINE
  5
7FC
330
1F
100
AcDbEntity
  8
Ebene 1
 62
   179
420
  1709851
370
    18
100
AcDb2dPolyline
 66
     1
 10
0.0
 20
0.0
 30
0.0
  0
VERTEX
  5
7FD
330
7FC
100
AcDbEntity
  8
Ebene 1
 62
   179
420
  1709851
370
    18
100
AcDbVertex
100
AcDb2dVertex
 10
131.0886392901445
 20
-132.1788397564518
 30
0.0
  0
VERTEX
  5
7FE
330
7FC
100
AcDbEntity
  8
Ebene 1
 62
   179
420
  1709851
370
    18
100
AcDbVertex
100
AcDb2dVertex
 10
131.0886392901445
 20
-131.9673108936575
 30
0.0
  0
SEQEND
  5
7FF
330
7FC
100
AcDbEntity
  8
Ebene 1
370
    18
  0
POLYLINE
  5
800
330
1F
100
AcDbEntity
  8
Ebene 1
 62
   179
420
  1709851
370
    18
100
AcDb2dPolyline
 66
     1
 10
0.0
 20
0.0
 30
0.0
  0
VERTEX
  5
801
330
800
100
AcDbEntity
  8
Ebene 1
 62
   179
420
  1709851
370
    18
100
AcDbVertex
100
AcDb2dVertex
 10
131.0886392901445
 20
-130.443200650983
 30
0.0
  0
VERTEX
  5
802
330
800
100
AcDbEntity
  8
Ebene 1
 62
   179
420
  1709851
370
    18
100
AcDbVertex
100
AcDb2dVertex
 10
132.2737521370705
 20
-129.7445352865743
 30
0.0
  0
SEQEND
  5
803
330
800
100
AcDbEntity
  8
Ebene 1
370
    18
  0
POLYLINE
  5
804
330
1F
100
AcDbEntity
  8
Ebene 1
 62
   179
420
  1709851
370
    18
100
AcDb2dPolyline
 66
     1
 10
0.0
 20
0.0
 30
0.0
  0
VERTEX
  5
805
330
804
100
AcDbEntity
  8
Ebene 1
 62
   179
420
  1709851
370
    18
100
AcDbVertex
100
AcDb2dVertex
 10
130.8771104273502
 20
-130.3160766275772
 30
0.0
  0
VERTEX
  5
806
330
804
100
AcDbEntity
  8
Ebene 1
 62
   179
420
  1709851
370
    18
100
AcDbVertex
100
AcDb2dVertex
 10
130.8771104273502
 20
-130.3160766275772
 30
0.0
  0
VERTEX
  5
807
330
804
100
AcDbEntity
  8
Ebene 1
 62
   179
420
  1709851
370
    18
100
AcDbVertex
100
AcDb2dVertex
 10
132.1683322152218
 20
-129.5543660157885
 30
0.0
  0
SEQEND
  5
808
330
804
100
AcDbEntity
  8
Ebene 1
370
    18
  0
POLYLINE
  5
809
330
1F
100
AcDbEntity
  8
Ebene 1
 62
   179
420
  1709851
370
    18
100
AcDb2dPolyline
 66
     1
 10
0.0
 20
0.0
 30
0.0
  0
VERTEX
  5
80A
330
809
100
AcDbEntity
  8
Ebene 1
 62
   179
420
  1709851
370
    18
100
AcDbVertex
100
AcDb2dVertex
 10
136.846082865094
 20
-132.263589105389
 30
0.0
  0
VERTEX
  5
80B
330
809
100
AcDbEntity
  8
Ebene 1
 62
   179
420
  1709851
370
    18
100
AcDbVertex
100
AcDb2dVertex
 10
136.9308322140312
 20
-132.3059637798575
 30
0.0
  0
SEQEND
  5
80C
330
809
100
AcDbEntity
  8
Ebene 1
370
    18
  0
POLYLINE
  5
80D
330
1F
100
AcDbEntity
  8
Ebene 1
 62
   179
420
  1709851
370
    18
100
AcDb2dPolyline
 66
     1
 10
0.0
 20
0.0
 30
0.0
  0
VERTEX
  5
80E
330
80D
100
AcDbEntity
  8
Ebene 1
 62
   179
420
  1709851
370
    18
100
AcDbVertex
100
AcDb2dVertex
 10
134.2636392893507
 20
-130.760838454723
 30
0.0
  0
VERTEX
  5
80F
330
80D
100
AcDbEntity
  8
Ebene 1
 62
   179
420
  1709851
370
    18
100
AcDbVertex
100
AcDb2dVertex
 10
135.9779188028111
 20
-131.7554375213146
 30
0.0
  0
SEQEND
  5
810
330
80D
100
AcDbEntity
  8
Ebene 1
370
    18
  0
POLYLINE
  5
811
330
1F
100
AcDbEntity
  8
Ebene 1
 62
   179
420
  1709851
370
    18
100
AcDb2dPolyline
 66
     1
 10
0.0
 20
0.0
 30
0.0
  0
VERTEX
  5
812
330
811
100
AcDbEntity
  8
Ebene 1
 62
   179
420
  1709851
370
    18
100
AcDbVertex
100
AcDb2dVertex
 10
133.0358072584077
 20
-130.0621730903143
 30
0.0
  0
VERTEX
  5
813
330
811
100
AcDbEntity
  8
Ebene 1
 62
   179
420
  1709851
370
    18
100
AcDbVertex
100
AcDb2dVertex
 10
133.0358072584077
 20
-130.0621730903143
 30
0.0
  0
VERTEX
  5
814
330
811
100
AcDbEntity
  8
Ebene 1
 62
   179
420
  1709851
370
    18
100
AcDbVertex
100
AcDb2dVertex
 10
133.3961642461649
 20
-130.2526868706486
 30
0.0
  0
SEQEND
  5
815
330
811
100
AcDbEntity
  8
Ebene 1
370
    18
  0
POLYLINE
  5
816
330
1F
100
AcDbEntity
  8
Ebene 1
 62
   179
420
  1709851
370
    25
100
AcDb2dPolyline
 66
     1
 10
0.0
 20
0.0
 30
0.0
  0
VERTEX
  5
817
330
816
100
AcDbEntity
  8
Ebene 1
 62
   179
420
  1709851
370
    25
100
AcDbVertex
100
AcDb2dVertex
 10
104.4609795203257
 20
-163.2513617213399
 30
0.0
  0
VERTEX
  5
818
330
816
100
AcDbEntity
  8
Ebene 1
 62
   179
420
  1709851
370
    25
100
AcDbVertex
100
AcDb2dVertex
 10
105.1806599671944
 20
-162.8496635877598
 30
0.0
  0
SEQEND
  5
819
330
816
100
AcDbEntity
  8
Ebene 1
370
    25
  0
POLYLINE
  5
81A
330
1F
100
AcDbEntity
  8
Ebene 1
 62
   179
420
  1709851
370
    25
100
AcDb2dPolyline
 66
     1
 10
0.0
 20
0.0
 30
0.0
  0
VERTEX
  5
81B
330
81A
100
AcDbEntity
  8
Ebene 1
 62
   179
420
  1709851
370
    25
100
AcDbVertex
100
AcDb2dVertex
 10
104.4609795203257
 20
-161.7699706626825
 30
0.0
  0
VERTEX
  5
81C
330
81A
100
AcDbEntity
  8
Ebene 1
 62
   179
420
  1709851
370
    25
100
AcDbVertex
100
AcDb2dVertex
 10
104.7360703948229
 20
-161.6004719648082
 30
0.0
  0
SEQEND
  5
81D
330
81A
100
AcDbEntity
  8
Ebene 1
370
    25
  0
POLYLINE
  5
81E
330
1F
100
AcDbEntity
  8
Ebene 1
 62
   179
420
  1709851
370
    18
100
AcDb2dPolyline
 66
     1
 10
0.0
 20
0.0
 30
0.0
  0
VERTEX
  5
81F
330
81E
100
AcDbEntity
  8
Ebene 1
 62
   179
420
  1709851
370
    18
100
AcDbVertex
100
AcDb2dVertex
 10
105.3289713278344
 20
-162.7435546468141
 30
0.0
  0
VERTEX
  5
820
330
81E
100
AcDbEntity
  8
Ebene 1
 62
   179
420
  1709851
370
    18
100
AcDbVertex
100
AcDb2dVertex
 10
105.9215277512974
 20
-162.4259168430741
 30
0.0
  0
SEQEND
  5
821
330
81E
100
AcDbEntity
  8
Ebene 1
370
    18
  0
POLYLINE
  5
822
330
1F
100
AcDbEntity
  8
Ebene 1
 62
   179
420
  1709851
370
    18
100
AcDb2dPolyline
 66
     1
 10
0.0
 20
0.0
 30
0.0
  0
VERTEX
  5
823
330
822
100
AcDbEntity
  8
Ebene 1
 62
   179
420
  1709851
370
    18
100
AcDbVertex
100
AcDb2dVertex
 10
104.31284041446
 20
-159.611273831625
 30
0.0
  0
VERTEX
  5
824
330
822
100
AcDbEntity
  8
Ebene 1
 62
   179
420
  1709851
370
    18
100
AcDbVertex
100
AcDb2dVertex
 10
105.0960828730315
 20
-159.1661674949307
 30
0.0
  0
SEQEND
  5
825
330
822
100
AcDbEntity
  8
Ebene 1
370
    18
  0
POLYLINE
  5
826
330
1F
100
AcDbEntity
  8
Ebene 1
 62
   179
420
  1709851
370
    18
100
AcDb2dPolyline
 66
     1
 10
0.0
 20
0.0
 30
0.0
  0
VERTEX
  5
827
330
826
100
AcDbEntity
  8
Ebene 1
 62
   179
420
  1709851
370
    18
100
AcDbVertex
100
AcDb2dVertex
 10
105.392361084763
 20
-161.2194444041396
 30
0.0
  0
VERTEX
  5
828
330
826
100
AcDbEntity
  8
Ebene 1
 62
   179
420
  1709851
370
    18
100
AcDbVertex
100
AcDb2dVertex
 10
105.9215277512974
 20
-160.9231661924081
 30
0.0
  0
SEQEND
  5
829
330
826
100
AcDbEntity
  8
Ebene 1
370
    18
  0
INSERT
  5
82B
330
1F
100
AcDbEntity
  8
Ebene 1
100
AcDbBlockReference
  2
block 3
 10
0.0
 20
0.0
 30
0.0
  0
POLYLINE
  5
837
330
1F
100
AcDbEntity
  8
Ebene 1
 62
   179
420
  1709851
370
    18
100
AcDb2dPolyline
 66
     1
 10
0.0
 20
0.0
 30
0.0
  0
VERTEX
  5
838
330
837
100
AcDbEntity
  8
Ebene 1
 62
   179
420
  1709851
370
    18
100
AcDbVertex
100
AcDb2dVertex
 10
65.62011174574775
 20
-105.6571166728045
 30
0.0
  0
VERTEX
  5
839
330
837
100
AcDbEntity
  8
Ebene 1
 62
   179
420
  1709851
370
    18
100
AcDbVertex
100
AcDb2dVertex
 10
67.35575085121663
 20
-106.6520602489446
 30
0.0
  0
SEQEND
  5
83A
330
837
100
AcDbEntity
  8
Ebene 1
370
    18
  0
POLYLINE
  5
83B
330
1F
100
AcDbEntity
  8
Ebene 1
 62
   179
420
  1709851
370
    18
100
AcDb2dPolyline
 66
     1
 10
0.0
 20
0.0
 30
0.0
  0
VERTEX
  5
83C
330
83B
100
AcDbEntity
  8
Ebene 1
 62
   179
420
  1709851
370
    18
100
AcDbVertex
100
AcDb2dVertex
 10
63.01665308754445
 20
-104.1543660221385
 30
0.0
  0
VERTEX
  5
83D
330
83B
100
AcDbEntity
  8
Ebene 1
 62
   179
420
  1709851
370
    18
100
AcDbVertex
100
AcDb2dVertex
 10
64.75229219301332
 20
-105.1493095982786
 30
0.0
  0
SEQEND
  5
83E
330
83B
100
AcDbEntity
  8
Ebene 1
370
    18
  0
POLYLINE
  5
83F
330
1F
100
AcDbEntity
  8
Ebene 1
 62
   179
420
  1709851
370
    18
100
AcDb2dPolyline
 66
     1
 10
0.0
 20
0.0
 30
0.0
  0
VERTEX
  5
840
330
83F
100
AcDbEntity
  8
Ebene 1
 62
   179
420
  1709851
370
    18
100
AcDbVertex
100
AcDb2dVertex
 10
60.41319442934115
 20
-102.6516153714725
 30
0.0
  0
VERTEX
  5
841
330
83F
100
AcDbEntity
  8
Ebene 1
 62
   179
420
  1709851
370
    18
100
AcDbVertex
100
AcDb2dVertex
 10
62.14883353481002
 20
-103.6675740300727
 30
0.0
  0
SEQEND
  5
842
330
83F
100
AcDbEntity
  8
Ebene 1
370
    18
  0
POLYLINE
  5
843
330
1F
100
AcDbEntity
  8
Ebene 1
 62
   179
420
  1709851
370
    18
100
AcDb2dPolyline
 66
     1
 10
0.0
 20
0.0
 30
0.0
  0
VERTEX
  5
844
330
843
100
AcDbEntity
  8
Ebene 1
 62
   179
420
  1709851
370
    18
100
AcDbVertex
100
AcDb2dVertex
 10
58.67738306909802
 20
-101.6566717953324
 30
0.0
  0
VERTEX
  5
845
330
843
100
AcDbEntity
  8
Ebene 1
 62
   179
420
  1709851
370
    18
100
AcDbVertex
100
AcDb2dVertex
 10
58.67738306909802
 20
-101.6566717953324
 30
0.0
  0
VERTEX
  5
846
330
843
100
AcDbEntity
  8
Ebene 1
 62
   179
420
  1709851
370
    18
100
AcDbVertex
100
AcDb2dVertex
 10
59.56638995906674
 20
-102.1648233794067
 30
0.0
  0
SEQEND
  5
847
330
843
100
AcDbEntity
  8
Ebene 1
370
    18
  0
POLYLINE
  5
848
330
1F
100
AcDbEntity
  8
Ebene 1
 62
   179
420
  1709851
370
    18
100
AcDb2dPolyline
 66
     1
 10
0.0
 20
0.0
 30
0.0
  0
VERTEX
  5
849
330
848
100
AcDbEntity
  8
Ebene 1
 62
   179
420
  1709851
370
    18
100
AcDbVertex
100
AcDb2dVertex
 10
63.88481714982741
 20
-108.662962483685
 30
0.0
  0
VERTEX
  5
84A
330
848
100
AcDbEntity
  8
Ebene 1
 62
   179
420
  1709851
370
    18
100
AcDbVertex
100
AcDb2dVertex
 10
65.62011174574775
 20
-109.6575615502766
 30
0.0
  0
SEQEND
  5
84B
330
848
100
AcDbEntity
  8
Ebene 1
370
    18
  0
POLYLINE
  5
84C
330
1F
100
AcDbEntity
  8
Ebene 1
 62
   179
420
  1709851
370
    18
100
AcDb2dPolyline
 66
     1
 10
0.0
 20
0.0
 30
0.0
  0
VERTEX
  5
84D
330
84C
100
AcDbEntity
  8
Ebene 1
 62
   179
420
  1709851
370
    18
100
AcDbVertex
100
AcDb2dVertex
 10
61.28101398207559
 20
-107.160211833019
 30
0.0
  0
VERTEX
  5
84E
330
84C
100
AcDbEntity
  8
Ebene 1
 62
   179
420
  1709851
370
    18
100
AcDbVertex
100
AcDb2dVertex
 10
63.01665308754445
 20
-108.1548108996106
 30
0.0
  0
SEQEND
  5
84F
330
84C
100
AcDbEntity
  8
Ebene 1
370
    18
  0
POLYLINE
  5
850
330
1F
100
AcDbEntity
  8
Ebene 1
 62
   179
420
  1709851
370
    18
100
AcDb2dPolyline
 66
     1
 10
0.0
 20
0.0
 30
0.0
  0
VERTEX
  5
851
330
850
100
AcDbEntity
  8
Ebene 1
 62
   179
420
  1709851
370
    18
100
AcDbVertex
100
AcDb2dVertex
 10
58.6985704063323
 20
-105.6571166728045
 30
0.0
  0
VERTEX
  5
852
330
850
100
AcDbEntity
  8
Ebene 1
 62
   179
420
  1709851
370
    18
100
AcDbVertex
100
AcDb2dVertex
 10
60.41319442934115
 20
-106.6520602489446
 30
0.0
  0
SEQEND
  5
853
330
850
100
AcDbEntity
  8
Ebene 1
370
    18
  0
POLYLINE
  5
854
330
1F
100
AcDbEntity
  8
Ebene 1
 62
   179
420
  1709851
370
    18
100
AcDb2dPolyline
 66
     1
 10
0.0
 20
0.0
 30
0.0
  0
VERTEX
  5
855
330
854
100
AcDbEntity
  8
Ebene 1
 62
   179
420
  1709851
370
    18
100
AcDbVertex
100
AcDb2dVertex
 10
56.94174396362915
 20
-104.6411580142043
 30
0.0
  0
VERTEX
  5
856
330
854
100
AcDbEntity
  8
Ebene 1
 62
   179
420
  1709851
370
    18
100
AcDbVertex
100
AcDb2dVertex
 10
56.94174396362915
 20
-104.6411580142043
 30
0.0
  0
VERTEX
  5
857
330
854
100
AcDbEntity
  8
Ebene 1
 62
   179
420
  1709851
370
    18
100
AcDbVertex
100
AcDb2dVertex
 10
57.83075085359787
 20
-105.1493095982786
 30
0.0
  0
SEQEND
  5
858
330
854
100
AcDbEntity
  8
Ebene 1
370
    18
  0
POLYLINE
  5
859
330
1F
100
AcDbEntity
  8
Ebene 1
 62
   179
420
  1709851
370
    18
100
AcDb2dPolyline
 66
     1
 10
0.0
 20
0.0
 30
0.0
  0
VERTEX
  5
85A
330
859
100
AcDbEntity
  8
Ebene 1
 62
   179
420
  1709851
370
    18
100
AcDbVertex
100
AcDb2dVertex
 10
64.96399331058193
 20
-136.7721855669354
 30
0.0
  0
VERTEX
  5
85B
330
859
100
AcDbEntity
  8
Ebene 1
 62
   179
420
  1709851
370
    18
100
AcDbVertex
100
AcDb2dVertex
 10
66.4245415415536
 20
-137.6189900372098
 30
0.0
  0
SEQEND
  5
85C
330
859
100
AcDbEntity
  8
Ebene 1
370
    18
  0
POLYLINE
  5
85D
330
1F
100
AcDbEntity
  8
Ebene 1
 62
   179
420
  1709851
370
    18
100
AcDb2dPolyline
 66
     1
 10
0.0
 20
0.0
 30
0.0
  0
VERTEX
  5
85E
330
85D
100
AcDbEntity
  8
Ebene 1
 62
   179
420
  1709851
370
    18
100
AcDbVertex
100
AcDb2dVertex
 10
62.36053465237862
 20
-135.2904499987295
 30
0.0
  0
VERTEX
  5
85F
330
85D
100
AcDbEntity
  8
Ebene 1
 62
   179
420
  1709851
370
    18
100
AcDbVertex
100
AcDb2dVertex
 10
64.09617375784748
 20
-136.2853935748696
 30
0.0
  0
SEQEND
  5
860
330
85D
100
AcDbEntity
  8
Ebene 1
370
    18
  0
POLYLINE
  5
861
330
1F
100
AcDbEntity
  8
Ebene 1
 62
   179
420
  1709851
370
    18
100
AcDb2dPolyline
 66
     1
 10
0.0
 20
0.0
 30
0.0
  0
VERTEX
  5
862
330
861
100
AcDbEntity
  8
Ebene 1
 62
   179
420
  1709851
370
    18
100
AcDbVertex
100
AcDb2dVertex
 10
59.77809107663534
 20
-133.7876993480635
 30
0.0
  0
VERTEX
  5
863
330
861
100
AcDbEntity
  8
Ebene 1
 62
   179
420
  1709851
370
    18
100
AcDbVertex
100
AcDb2dVertex
 10
61.51373018210421
 20
-134.7826429242037
 30
0.0
  0
SEQEND
  5
864
330
861
100
AcDbEntity
  8
Ebene 1
370
    18
  0
POLYLINE
  5
865
330
1F
100
AcDbEntity
  8
Ebene 1
 62
   179
420
  1709851
370
    18
100
AcDb2dPolyline
 66
     1
 10
0.0
 20
0.0
 30
0.0
  0
VERTEX
  5
866
330
865
100
AcDbEntity
  8
Ebene 1
 62
   179
420
  1709851
370
    18
100
AcDbVertex
100
AcDb2dVertex
 10
57.17463241843204
 20
-132.2849486973975
 30
0.0
  0
VERTEX
  5
867
330
865
100
AcDbEntity
  8
Ebene 1
 62
   179
420
  1709851
370
    18
100
AcDbVertex
100
AcDb2dVertex
 10
58.91027152390091
 20
-133.2795477639891
 30
0.0
  0
SEQEND
  5
868
330
865
100
AcDbEntity
  8
Ebene 1
370
    18
  0
POLYLINE
  5
869
330
1F
100
AcDbEntity
  8
Ebene 1
 62
   179
420
  1709851
370
    18
100
AcDb2dPolyline
 66
     1
 10
0.0
 20
0.0
 30
0.0
  0
VERTEX
  5
86A
330
869
100
AcDbEntity
  8
Ebene 1
 62
   179
420
  1709851
370
    18
100
AcDbVertex
100
AcDb2dVertex
 10
66.69963241605079
 20
-133.7876993480635
 30
0.0
  0
VERTEX
  5
86B
330
869
100
AcDbEntity
  8
Ebene 1
 62
   179
420
  1709851
370
    18
100
AcDbVertex
100
AcDb2dVertex
 10
68.16018064702246
 20
-134.6131442263294
 30
0.0
  0
SEQEND
  5
86C
330
869
100
AcDbEntity
  8
Ebene 1
370
    18
  0
POLYLINE
  5
86D
330
1F
100
AcDbEntity
  8
Ebene 1
 62
   179
420
  1709851
370
    18
100
AcDb2dPolyline
 66
     1
 10
0.0
 20
0.0
 30
0.0
  0
VERTEX
  5
86E
330
86D
100
AcDbEntity
  8
Ebene 1
 62
   179
420
  1709851
370
    18
100
AcDbVertex
100
AcDb2dVertex
 10
64.09617375784748
 20
-132.2849486973975
 30
0.0
  0
VERTEX
  5
86F
330
86D
100
AcDbEntity
  8
Ebene 1
 62
   179
420
  1709851
370
    18
100
AcDbVertex
100
AcDb2dVertex
 10
65.83181286331636
 20
-133.2795477639891
 30
0.0
  0
SEQEND
  5
870
330
86D
100
AcDbEntity
  8
Ebene 1
370
    18
  0
POLYLINE
  5
871
330
1F
100
AcDbEntity
  8
Ebene 1
 62
   179
420
  1709851
370
    18
100
AcDb2dPolyline
 66
     1
 10
0.0
 20
0.0
 30
0.0
  0
VERTEX
  5
872
330
871
100
AcDbEntity
  8
Ebene 1
 62
   179
420
  1709851
370
    18
100
AcDbVertex
100
AcDb2dVertex
 10
61.51373018210421
 20
-130.7821980467315
 30
0.0
  0
VERTEX
  5
873
330
871
100
AcDbEntity
  8
Ebene 1
 62
   179
420
  1709851
370
    18
100
AcDbVertex
100
AcDb2dVertex
 10
63.22835420511306
 20
-131.7767971133232
 30
0.0
  0
SEQEND
  5
874
330
871
100
AcDbEntity
  8
Ebene 1
370
    18
  0
POLYLINE
  5
875
330
1F
100
AcDbEntity
  8
Ebene 1
 62
   179
420
  1709851
370
    18
100
AcDb2dPolyline
 66
     1
 10
0.0
 20
0.0
 30
0.0
  0
VERTEX
  5
876
330
875
100
AcDbEntity
  8
Ebene 1
 62
   179
420
  1709851
370
    18
100
AcDbVertex
100
AcDb2dVertex
 10
58.91027152390091
 20
-129.279102886517
 30
0.0
  0
VERTEX
  5
877
330
875
100
AcDbEntity
  8
Ebene 1
 62
   179
420
  1709851
370
    18
100
AcDbVertex
100
AcDb2dVertex
 10
60.64591062936977
 20
-130.2740464626572
 30
0.0
  0
SEQEND
  5
878
330
875
100
AcDbEntity
  8
Ebene 1
370
    18
  0
POLYLINE
  5
879
330
1F
100
AcDbEntity
  8
Ebene 1
 62
   179
420
  1709851
370
    18
100
AcDb2dPolyline
 66
     1
 10
0.0
 20
0.0
 30
0.0
  0
VERTEX
  5
87A
330
879
100
AcDbEntity
  8
Ebene 1
 62
   179
420
  1709851
370
    18
100
AcDbVertex
100
AcDb2dVertex
 10
72.64741751656037
 20
-100.0905313877378
 30
0.0
  0
VERTEX
  5
87B
330
879
100
AcDbEntity
  8
Ebene 1
 62
   179
420
  1709851
370
    18
100
AcDbVertex
100
AcDb2dVertex
 10
71.54670950902305
 20
-99.45525578025772
 30
0.0
  0
SEQEND
  5
87C
330
879
100
AcDbEntity
  8
Ebene 1
370
    18
  0
POLYLINE
  5
87D
330
1F
100
AcDbEntity
  8
Ebene 1
 62
   179
420
  1709851
370
    18
100
AcDb2dPolyline
 66
     1
 10
0.0
 20
0.0
 30
0.0
  0
VERTEX
  5
87E
330
87D
100
AcDbEntity
  8
Ebene 1
 62
   179
420
  1709851
370
    18
100
AcDbVertex
100
AcDb2dVertex
 10
63.96904973444177
 20
-105.0855753318015
 30
0.0
  0
VERTEX
  5
87F
330
87D
100
AcDbEntity
  8
Ebene 1
 62
   179
420
  1709851
370
    18
100
AcDbVertex
100
AcDb2dVertex
 10
62.88970131891299
 20
-104.4720038258785
 30
0.0
  0
VERTEX
  5
880
330
87D
100
AcDbEntity
  8
Ebene 1
 62
   179
420
  1709851
370
    18
100
AcDbVertex
100
AcDb2dVertex
 10
71.54670950902305
 20
-99.45525578025772
 30
0.0
  0
SEQEND
  5
881
330
87D
100
AcDbEntity
  8
Ebene 1
370
    18
  0
POLYLINE
  5
882
330
1F
100
AcDbEntity
  8
Ebene 1
 62
   179
420
  1709851
370
    18
100
AcDb2dPolyline
 66
     1
 10
0.0
 20
0.0
 30
0.0
  0
VERTEX
  5
883
330
882
100
AcDbEntity
  8
Ebene 1
 62
   179
420
  1709851
370
    18
100
AcDbVertex
100
AcDb2dVertex
 10
63.96904973444177
 20
-145.0907131256197
 30
0.0
  0
VERTEX
  5
884
330
882
100
AcDbEntity
  8
Ebene 1
 62
   179
420
  1709851
370
    18
100
AcDbVertex
100
AcDb2dVertex
 10
62.88970131891299
 20
-144.4557820276881
 30
0.0
  0
VERTEX
  5
885
330
882
100
AcDbEntity
  8
Ebene 1
 62
   179
420
  1709851
370
    18
100
AcDbVertex
100
AcDb2dVertex
 10
62.88970131891299
 20
-104.4720038258785
 30
0.0
  0
SEQEND
  5
886
330
882
100
AcDbEntity
  8
Ebene 1
370
    18
  0
POLYLINE
  5
887
330
1F
100
AcDbEntity
  8
Ebene 1
 62
   179
420
  1709851
370
    18
100
AcDb2dPolyline
 66
     1
 10
0.0
 20
0.0
 30
0.0
  0
VERTEX
  5
888
330
887
100
AcDbEntity
  8
Ebene 1
 62
   179
420
  1709851
370
    18
100
AcDbVertex
100
AcDb2dVertex
 10
83.46363930205077
 20
-107.0964775665419
 30
0.0
  0
VERTEX
  5
889
330
887
100
AcDbEntity
  8
Ebene 1
 62
   179
420
  1709851
370
    18
100
AcDbVertex
100
AcDb2dVertex
 10
72.64741751656037
 20
-100.8312269170665
 30
0.0
  0
SEQEND
  5
88A
330
887
100
AcDbEntity
  8
Ebene 1
370
    18
  0
POLYLINE
  5
88B
330
1F
100
AcDbEntity
  8
Ebene 1
 62
   179
420
  1709851
370
    18
100
AcDb2dPolyline
 66
     1
 10
0.0
 20
0.0
 30
0.0
  0
VERTEX
  5
88C
330
88B
100
AcDbEntity
  8
Ebene 1
 62
   179
420
  1709851
370
    18
100
AcDbVertex
100
AcDb2dVertex
 10
83.46363930205077
 20
-106.3344224452046
 30
0.0
  0
VERTEX
  5
88D
330
88B
100
AcDbEntity
  8
Ebene 1
 62
   179
420
  1709851
370
    18
100
AcDbVertex
100
AcDb2dVertex
 10
72.64741751656037
 20
-100.0905313877378
 30
0.0
  0
SEQEND
  5
88E
330
88B
100
AcDbEntity
  8
Ebene 1
370
    18
  0
POLYLINE
  5
88F
330
1F
100
AcDbEntity
  8
Ebene 1
 62
   179
420
  1709851
370
    18
100
AcDb2dPolyline
 66
     1
 10
0.0
 20
0.0
 30
0.0
  0
VERTEX
  5
890
330
88F
100
AcDbEntity
  8
Ebene 1
 62
   179
420
  1709851
370
    18
100
AcDbVertex
100
AcDb2dVertex
 10
72.64741751656037
 20
-140.8363647108847
 30
0.0
  0
VERTEX
  5
891
330
88F
100
AcDbEntity
  8
Ebene 1
 62
   179
420
  1709851
370
    18
100
AcDbVertex
100
AcDb2dVertex
 10
83.46363930205077
 20
-147.0802557683515
 30
0.0
  0
SEQEND
  5
892
330
88F
100
AcDbEntity
  8
Ebene 1
370
    18
  0
POLYLINE
  5
893
330
1F
100
AcDbEntity
  8
Ebene 1
 62
   179
420
  1709851
370
    18
100
AcDb2dPolyline
 66
     1
 10
0.0
 20
0.0
 30
0.0
  0
VERTEX
  5
894
330
893
100
AcDbEntity
  8
Ebene 1
 62
   179
420
  1709851
370
    18
100
AcDbVertex
100
AcDb2dVertex
 10
83.46363930205077
 20
-158.1291937538705
 30
0.0
  0
VERTEX
  5
895
330
893
100
AcDbEntity
  8
Ebene 1
 62
   179
420
  1709851
370
    18
100
AcDbVertex
100
AcDb2dVertex
 10
83.46363930205077
 20
-103.8367282183985
 30
0.0
  0
SEQEND
  5
896
330
893
100
AcDbEntity
  8
Ebene 1
370
    18
  0
ENDSEC
  0
SECTION
  2
OBJECTS
  0
DICTIONARY
  5
C
330
0
100
AcDbDictionary
281
     1
  3
ACAD_GROUP
350
D
  3
ACAD_LAYOUT
350
1A
  3
ACAD_MLINESTYLE
350
17
  3
ACAD_PLOTSETTINGS
350
19
  3
ACAD_PLOTSTYLENAME
350
E
  3
ACAD_TABLESTYLE
350
897
  3
ACAD_VISUALSTYLE
350
2A
  0
DICTIONARY
  5
D
102
{ACAD_REACTORS
330
C
102
}
330
C
100
AcDbDictionary
281
     1
  0
DICTIONARY
  5
1A
102
{ACAD_REACTORS
330
C
102
}
330
C
100
AcDbDictionary
281
     1
  3
Layout1
350
1E
  3
Layout2
350
26
  3
Model
350
22
  0
DICTIONARY
  5
17
102
{ACAD_REACTORS
330
C
102
}
330
C
100
AcDbDictionary
281
     1
  3
Standard
350
18
  0
DICTIONARY
  5
19
102
{ACAD_REACTORS
330
C
102
}
330
C
100
AcDbDictionary
281
     1
  0
ACDBDICTIONARYWDFLT
  5
E
102
{ACAD_REACTORS
330
C
102
}
330
C
100
AcDbDictionary
281
     1
  3
Normal
350
F
100
AcDbDictionaryWithDefault
340
F
  0
DICTIONARY
  5
897
102
{ACAD_REACTORS
330
C
102
}
330
C
100
AcDbDictionary
281
     1
  0
DICTIONARY
  5
2A
102
{ACAD_REACTORS
330
C
102
}
330
C
100
AcDbDictionary
281
     1
  3
2dWireframe
350
2F
  3
3D Hidden
350
31
  3
3dWireframe
350
30
  3
Basic
350
32
  3
Brighten
350
36
  3
ColorChange
350
3A
  3
Conceptual
350
34
  3
Dim
350
35
  3
Facepattern
350
39
  3
Flat
350
2B
  3
FlatWithEdges
350
2C
  3
Gouraud
350
2D
  3
GouraudWithEdges
350
2E
  3
Linepattern
350
38
  3
Realistic
350
33
  3
Thicken
350
37
  0
LAYOUT
  5
1E
102
{ACAD_REACTORS
330
1A
102
}
330
1A
100
AcDbPlotSettings
  1

  2
none_device
  4

  6

 40
0.0
 41
0.0
 42
0.0
 43
0.0
 44
0.0
 45
0.0
 46
0.0
 47
0.0
 48
0.0
 49
0.0
140
0.0
141
0.0
142
1.0
143
1.0
 70
   688
 72
     0
 73
     0
 74
     5
  7

 75
    16
 76
     0
 77
     2
 78
   300
147
1.0
148
0.0
149
0.0
100
AcDbLayout
  1
Layout1
 70
     1
 71
     1
 10
0.0
 20
0.0
 11
12.0
 21
9.0
 12
0.0
 22
0.0
 32
0.0
 14
1.000000000000000E+20
 24
1.000000000000000E+20
 34
1.000000000000000E+20
 15
-1.000000000000000E+20
 25
-1.000000000000000E+20
 35
-1.000000000000000E+20
146
0.0
 13
0.0
 23
0.0
 33
0.0
 16
1.0
 26
0.0
 36
0.0
 17
0.0
 27
1.0
 37
0.0
 76
     0
330
1B
  0
LAYOUT
  5
26
102
{ACAD_REACTORS
330
1A
102
}
330
1A
100
AcDbPlotSettings
  1

  2
none_device
  4

  6

 40
0.0
 41
0.0
 42
0.0
 43
0.0
 44
0.0
 45
0.0
 46
0.0
 47
0.0
 48
0.0
 49
0.0
140
0.0
141
0.0
142
1.0
143
1.0
 70
   688
 72
     0
 73
     0
 74
     5
  7

 75
    16
 76
     0
 77
     2
 78
   300
147
1.0
148
0.0
149
0.0
100
AcDbLayout
  1
Layout2
 70
     1
 71
     2
 10
0.0
 20
0.0
 11
0.0
 21
0.0
 12
0.0
 22
0.0
 32
0.0
 14
0.0
 24
0.0
 34
0.0
 15
0.0
 25
0.0
 35
0.0
146
0.0
 13
0.0
 23
0.0
 33
0.0
 16
1.0
 26
0.0
 36
0.0
 17
0.0
 27
1.0
 37
0.0
 76
     0
330
23
  0
LAYOUT
  5
22
102
{ACAD_REACTORS
330
1A
102
}
330
1A
100
AcDbPlotSettings
  1

  2
none_device
  4

  6

 40
0.0
 41
0.0
 42
0.0
 43
0.0
 44
0.0
 45
0.0
 46
0.0
 47
0.0
 48
0.0
 49
0.0
140
0.0
141
0.0
142
1.0
143
1.0
 70
  1712
 72
     0
 73
     0
 74
     0
  7

 75
     0
 76
     0
 77
     2
 78
   300
147
1.0
148
0.0
149
0.0
100
AcDbLayout
  1
Model
 70
     1
 71
     0
 10
0.0
 20
0.0
 11
12.0
 21
9.0
 12
0.0
 22
0.0
 32
0.0
 14
1.000000000000000E+20
 24
1.000000000000000E+20
 34
1.000000000000000E+20
 15
-1.000000000000000E+20
 25
-1.000000000000000E+20
 35
-1.000000000000000E+20
146
0.0
 13
0.0
 23
0.0
 33
0.0
 16
1.0
 26
0.0
 36
0.0
 17
0.0
 27
1.0
 37
0.0
 76
     0
330
1F
331
29
  0
MLINESTYLE
  5
18
102
{ACAD_REACTORS
330
17
102
}
330
17
100
AcDbMlineStyle
  2
Standard
 70
     0
  3

 62
   256
 51
90.0
 52
90.0
 71
     2
 49
0.5
 62
   256
  6
BYLAYER
 49
-0.5
 62
   256
  6
BYLAYER
  0
ACDBPLACEHOLDER
  5
F
102
{ACAD_REACTORS
330
E
102
}
330
E
  0
VISUALSTYLE
  5
2F
102
{ACAD_REACTORS
330
2A
102
}
330
2A
100
AcDbVisualStyle
  2
2dWireframe
 70
     4
 71
     0
 72
     2
 73
     0
 90
        0
 40
-0.6
 41
-30.0
 62
     5
 63
     7
421
 16777215
 74
     1
 91
        4
 64
     7
 65
   257
 75
     1
175
     1
 42
1.0
 92
        0
 66
   257
 43
1.0
 76
     1
 77
     6
 78
     2
 67
     7
 79
     5
170
     0
171
     0
290
     0
174
     0
 93
        1
 44
0.0
173
     0
291
     0
 45
0.0
1001
ACAD
1000
AcDbSavedByObjectVersion
1070
     0
  0
VISUALSTYLE
  5
31
102
{ACAD_REACTORS
330
2A
102
}
330
2A
100
AcDbVisualStyle
  2
3D Hidden
 70
     6
 71
     1
 72
     2
 73
     2
 90
        0
 40
-0.6
 41
-30.0
 62
     5
 63
     7
421
 16777215
 74
     2
 91
        2
 64
     7
 65
   257
 75
     2
175
     1
 42
40.0
 92
        0
 66
   257
 43
1.0
 76
     1
 77
     6
 78
     2
 67
     7
 79
     3
170
     0
171
     0
290
     0
174
     0
 93
        1
 44
0.0
173
     0
291
     0
 45
0.0
1001
ACAD
1000
AcDbSavedByObjectVersion
1070
     0
  0
VISUALSTYLE
  5
30
102
{ACAD_REACTORS
330
2A
102
}
330
2A
100
AcDbVisualStyle
  2
3dWireframe
 70
     5
 71
     0
 72
     2
 73
     0
 90
        0
 40
-0.6
 41
-30.0
 62
     5
 63
     7
421
 16777215
 74
     1
 91
        4
 64
     7
 65
   257
 75
     1
175
     1
 42
1.0
 92
        0
 66
   257
 43
1.0
 76
     1
 77
     6
 78
     2
 67
     7
 79
     5
170
     0
171
     0
290
     0
174
     0
 93
        1
 44
0.0
173
     0
291
     0
 45
0.0
1001
ACAD
1000
AcDbSavedByObjectVersion
1070
     0
  0
VISUALSTYLE
  5
32
102
{ACAD_REACTORS
330
2A
102
}
330
2A
100
AcDbVisualStyle
  2
Basic
 70
     7
 71
     1
 72
     0
 73
     1
 90
        0
 40
-0.6
 41
-30.0
 62
     5
 63
     7
421
 16777215
 74
     0
 91
        4
 64
     7
 65
   257
 75
     1
175
     1
 42
1.0
 92
        8
 66
     7
 43
1.0
 76
     1
 77
     6
 78
     2
 67
     7
 79
     5
170
     0
171
     0
290
     0
174
     0
 93
        1
 44
0.0
173
     0
291
     1
 45
0.0
1001
ACAD
1000
AcDbSavedByObjectVersion
1070
     0
  0
VISUALSTYLE
  5
36
102
{ACAD_REACTORS
330
2A
102
}
330
2A
100
AcDbVisualStyle
  2
Brighten
 70
    12
 71
     2
 72
     2
 73
     0
 90
        0
 40
-0.6
 41
-30.0
 62
     5
 63
     7
421
 16777215
 74
     1
 91
        4
 64
     7
 65
   257
 75
     1
175
     1
 42
1.0
 92
        8
 66
     7
 43
1.0
 76
     1
 77
     6
 78
     2
 67
     7
 79
     5
170
     0
171
     0
290
     0
174
     0
 93
        1
 44
50.0
173
     0
291
     1
 45
0.0
1001
ACAD
1000
AcDbSavedByObjectVersion
1070
     0
  0
VISUALSTYLE
  5
3A
102
{ACAD_REACTORS
330
2A
102
}
330
2A
100
AcDbVisualStyle
  2
ColorChange
 70
    16
 71
     2
 72
     2
 73
     3
 90
        0
 40
-0.6
 41
-30.0
 62
     5
 63
     8
421
  8421504
 74
     1
 91
        4
 64
     7
 65
   257
 75
     1
175
     1
 42
1.0
 92
        8
 66
     8
424
  8421504
 43
1.0
 76
     1
 77
     6
 78
     2
 67
     7
 79
     5
170
     0
171
     0
290
     0
174
     0
 93
        1
 44
0.0
173
     0
291
     1
 45
0.0
1001
ACAD
1000
AcDbSavedByObjectVersion
1070
     0
  0
VISUALSTYLE
  5
34
102
{ACAD_REACTORS
330
2A
102
}
330
2A
100
AcDbVisualStyle
  2
Conceptual
 70
     9
 71
     3
 72
     2
 73
     0
 90
        0
 40
-0.6
 41
-30.0
 62
     5
 63
     7
421
 16777215
 74
     2
 91
        2
 64
     7
 65
   257
 75
     1
175
     1
 42
40.0
 92
        8
 66
     7
 43
1.0
 76
     1
 77
     6
 78
     2
 67
     7
 79
     3
170
     0
171
     0
290
     0
174
     0
 93
        1
 44
0.0
173
     0
291
     0
 45
0.0
1001
ACAD
1000
AcDbSavedByObjectVersion
1070
     0
  0
VISUALSTYLE
  5
35
102
{ACAD_REACTORS
330
2A
102
}
330
2A
100
AcDbVisualStyle
  2
Dim
 70
    11
 71
     2
 72
     2
 73
     0
 90
        0
 40
-0.6
 41
-30.0
 62
     5
 63
     7
421
 16777215
 74
     1
 91
        4
 64
     7
 65
   257
 75
     1
175
     1
 42
1.0
 92
        8
 66
     7
 43
1.0
 76
     1
 77
     6
 78
     2
 67
     7
 79
     5
170
     0
171
     0
290
     0
174
     0
 93
        1
 44
-50.0
173
     0
291
     1
 45
0.0
1001
ACAD
1000
AcDbSavedByObjectVersion
1070
     0
  0
VISUALSTYLE
  5
39
102
{ACAD_REACTORS
330
2A
102
}
330
2A
100
AcDbVisualStyle
  2
Facepattern
 70
    15
 71
     2
 72
     2
 73
     0
 90
        0
 40
-0.6
 41
-30.0
 62
     5
 63
     7
421
 16777215
 74
     1
 91
        4
 64
     7
 65
   257
 75
     1
175
     1
 42
1.0
 92
        8
 66
     7
 43
1.0
 76
     1
 77
     6
 78
     2
 67
     7
 79
     5
170
     0
171
     0
290
     0
174
     0
 93
        1
 44
0.0
173
     0
291
     1
 45
0.0
1001
ACAD
1000
AcDbSavedByObjectVersion
1070
     0
  0
VISUALSTYLE
  5
2B
102
{ACAD_REACTORS
330
2A
102
}
330
2A
100
AcDbVisualStyle
  2
Flat
 70
     0
 71
     2
 72
     1
 73
     1
 90
        2
 40
-0.6
 41
30.0
 62
     5
 63
     7
421
 16777215
 74
     0
 91
        4
 64
     7
 65
   257
 75
     1
175
     1
 42
1.0
 92
        8
 66
     7
 43
1.0
 76
     1
 77
     6
 78
     2
 67
     7
 79
     5
170
     0
171
     0
290
     0
174
     0
 93
       13
 44
0.0
173
     0
291
     1
 45
0.0
1001
ACAD
1000
AcDbSavedByObjectVersion
1070
     0
  0
VISUALSTYLE
  5
2C
102
{ACAD_REACTORS
330
2A
102
}
330
2A
100
AcDbVisualStyle
  2
FlatWithEdges
 70
     1
 71
     2
 72
     1
 73
     1
 90
        2
 40
-0.6
 41
30.0
 62
     5
 63
     7
421
 16777215
 74
     1
 91
        4
 64
     7
 65
   257
 75
     1
175
     1
 42
1.0
 92
        0
 66
   257
 43
1.0
 76
     1
 77
     6
 78
     2
 67
     7
 79
     5
170
     0
171
     0
290
     0
174
     0
 93
       13
 44
0.0
173
     0
291
     1
 45
0.0
1001
ACAD
1000
AcDbSavedByObjectVersion
1070
     0
  0
VISUALSTYLE
  5
2D
102
{ACAD_REACTORS
330
2A
102
}
330
2A
100
AcDbVisualStyle
  2
Gouraud
 70
     2
 71
     2
 72
     2
 73
     1
 90
        2
 40
-0.6
 41
30.0
 62
     5
 63
     7
421
 16777215
 74
     0
 91
        4
 64
     7
 65
   257
 75
     1
175
     1
 42
1.0
 92
        0
 66
     7
 43
1.0
 76
     1
 77
     6
 78
     2
 67
     7
 79
     5
170
     0
171
     0
290
     0
174
     0
 93
       13
 44
0.0
173
     0
291
     1
 45
0.0
1001
ACAD
1000
AcDbSavedByObjectVersion
1070
     0
  0
VISUALSTYLE
  5
2E
102
{ACAD_REACTORS
330
2A
102
}
330
2A
100
AcDbVisualStyle
  2
GouraudWithEdges
 70
     3
 71
     2
 72
     2
 73
     1
 90
        2
 40
-0.6
 41
30.0
 62
     5
 63
     7
421
 16777215
 74
     1
 91
        4
 64
     7
 65
   257
 75
     1
175
     1
 42
1.0
 92
        0
 66
   257
 43
1.0
 76
     1
 77
     6
 78
     2
 67
     7
 79
     5
170
     0
171
     0
290
     0
174
     0
 93
       13
 44
0.0
173
     0
291
     1
 45
0.0
1001
ACAD
1000
AcDbSavedByObjectVersion
1070
     0
  0
VISUALSTYLE
  5
38
102
{ACAD_REACTORS
330
2A
102
}
330
2A
100
AcDbVisualStyle
  2
Linepattern
 70
    14
 71
     2
 72
     2
 73
     0
 90
        0
 40
-0.6
 41
-30.0
 62
     5
 63
     7
421
 16777215
 74
     1
 91
        4
 64
     7
 65
   257
 75
     7
175
     7
 42
1.0
 92
        8
 66
     7
 43
1.0
 76
     1
 77
     6
 78
     2
 67
     7
 79
     5
170
     0
171
     0
290
     0
174
     0
 93
        1
 44
0.0
173
     0
291
     1
 45
0.0
1001
ACAD
1000
AcDbSavedByObjectVersion
1070
     0
  0
VISUALSTYLE
  5
33
102
{ACAD_REACTORS
330
2A
102
}
330
2A
100
AcDbVisualStyle
  2
Realistic
 70
     8
 71
     2
 72
     2
 73
     0
 90
        0
 40
-0.6
 41
-30.0
 62
     5
 63
     7
421
 16777215
 74
     1
 91
        0
 64
     7
 65
   257
 75
     1
175
     1
 42
1.0
 92
        8
 66
     8
424
  7895160
 43
1.0
 76
     1
 77
     6
 78
     2
 67
     7
 79
     5
170
     0
171
     0
290
     0
174
     0
 93
       13
 44
0.0
173
     0
291
     0
 45
0.0
1001
ACAD
1000
AcDbSavedByObjectVersion
1070
     0
  0
VISUALSTYLE
  5
37
102
{ACAD_REACTORS
330
2A
102
}
330
2A
100
AcDbVisualStyle
  2
Thicken
 70
    13
 71
     2
 72
     2
 73
     0
 90
        0
 40
-0.6
 41
-30.0
 62
     5
 63
     7
421
 16777215
 74
     1
 91
        4
 64
     7
 65
   257
 75
     1
175
     1
 42
1.0
 92
       12
 66
     7
 43
1.0
 76
     1
 77
     6
 78
     2
 67
     7
 79
     5
170
     0
171
     0
290
     0
174
     0
 93
        1
 44
0.0
173
     0
291
     1
 45
0.0
1001
ACAD
1000
AcDbSavedByObjectVersion
1070
     0
  0
ENDSEC
  0
EOF
