  0
SECTION
  2
HEADER
  9
$ACADVER
  1
AC1018
  9
$ACADMAINTVER
 70
     0
  9
$DWGCODEPAGE
  3
ANSI_932
  9
$INSBASE
 10
0.0
 20
0.0
 30
0.0
  9
$EXTMIN
 10
1.000000000000000E+20
 20
1.000000000000000E+20
 30
1.000000000000000E+20
  9
$EXTMAX
 10
-1.000000000000000E+20
 20
-1.000000000000000E+20
 30
-1.000000000000000E+20
  9
$LIMMIN
 10
0.0
 20
0.0
  9
$LIMMAX
 10
12.0
 20
9.0
  9
$ORTHOMODE
 70
     0
  9
$REGENMODE
 70
     1
  9
$FILLMODE
 70
     1
  9
$QTEXTMODE
 70
     0
  9
$MIRRTEXT
 70
     1
  9
$LTSCALE
 40
1.0
  9
$ATTMODE
 70
     1
  9
$TEXTSIZE
 40
0.2
  9
$TRACEWID
 40
0.05
  9
$TEXTSTYLE
  7
Standard
  9
$CLAYER
  8
0
  9
$CELTYPE
  6
ByLayer
  9
$CECOLOR
 62
   256
  9
$CELTSCALE
 40
1.0
  9
$DISPSILH
 70
     0
  9
$DIMSCALE
 40
1.0
  9
$DIMASZ
 40
0.18
  9
$DIMEXO
 40
0.0625
  9
$DIMDLI
 40
0.38
  9
$DIMRND
 40
0.0
  9
$DIMDLE
 40
0.0
  9
$DIMEXE
 40
0.18
  9
$DIMTP
 40
0.0
  9
$DIMTM
 40
0.0
  9
$DIMTXT
 40
0.18
  9
$DIMCEN
 40
0.09
  9
$DIMTSZ
 40
0.0
  9
$DIMTOL
 70
     0
  9
$DIMLIM
 70
     0
  9
$DIMTIH
 70
     1
  9
$DIMTOH
 70
     1
  9
$DIMSE1
 70
     0
  9
$DIMSE2
 70
     0
  9
$DIMTAD
 70
     0
  9
$DIMZIN
 70
     0
  9
$DIMBLK
  1

  9
$DIMASO
 70
     1
  9
$DIMSHO
 70
     1
  9
$DIMPOST
  1

  9
$DIMAPOST
  1

  9
$DIMALT
 70
     0
  9
$DIMALTD
 70
     2
  9
$DIMALTF
 40
25.4
  9
$DIMLFAC
 40
1.0
  9
$DIMTOFL
 70
     0
  9
$DIMTVP
 40
0.0
  9
$DIMTIX
 70
     0
  9
$DIMSOXD
 70
     0
  9
$DIMSAH
 70
     0
  9
$DIMBLK1
  1

  9
$DIMBLK2
  1

  9
$DIMSTYLE
  2
Standard
  9
$DIMCLRD
 70
     0
  9
$DIMCLRE
 70
     0
  9
$DIMCLRT
 70
     0
  9
$DIMTFAC
 40
1.0
  9
$DIMGAP
 40
0.09
  9
$DIMJUST
 70
     0
  9
$DIMSD1
 70
     0
  9
$DIMSD2
 70
     0
  9
$DIMTOLJ
 70
     1
  9
$DIMTZIN
 70
     0
  9
$DIMALTZ
 70
     0
  9
$DIMALTTZ
 70
     0
  9
$DIMUPT
 70
     0
  9
$DIMDEC
 70
     4
  9
$DIMTDEC
 70
     4
  9
$DIMALTU
 70
     2
  9
$DIMALTTD
 70
     2
  9
$DIMTXSTY
  7
Standard
  9
$DIMAUNIT
 70
     0
  9
$DIMADEC
 70
     0
  9
$DIMALTRND
 40
0.0
  9
$DIMAZIN
 70
     0
  9
$DIMDSEP
 70
    46
  9
$DIMATFIT
 70
     3
  9
$DIMFRAC
 70
     0
  9
$DIMLDRBLK
  1

  9
$DIMLUNIT
 70
     2
  9
$DIMLWD
 70
    -2
  9
$DIMLWE
 70
    -2
  9
$DIMTMOVE
 70
     0
  9
$LUNITS
 70
     2
  9
$LUPREC
 70
     4
  9
$SKETCHINC
 40
0.1
  9
$FILLETRAD
 40
0.5
  9
$AUNITS
 70
     0
  9
$AUPREC
 70
     0
  9
$MENU
  1
.
  9
$ELEVATION
 40
0.0
  9
$PELEVATION
 40
0.0
  9
$THICKNESS
 40
0.0
  9
$LIMCHECK
 70
     0
  9
$CHAMFERA
 40
0.5
  9
$CHAMFERB
 40
0.5
  9
$CHAMFERC
 40
1.0
  9
$CHAMFERD
 40
0.0
  9
$SKPOLY
 70
     0
  9
$TDCREATE
 40
2456077.604293982
  9
$TDUCREATE
 40
2456077.562627315
  9
$TDUPDATE
 40
2456077.604293993
  9
$TDUUPDATE
 40
2456077.562627326
  9
$TDINDWG
 40
0.0000000116
  9
$TDUSRTIMER
 40
0.0000000116
  9
$USRTIMER
 70
     1
  9
$ANGBASE
 50
0.0
  9
$ANGDIR
 70
     0
  9
$PDMODE
 70
     0
  9
$PDSIZE
 40
0.0
  9
$PLINEWID
 40
0.0
  9
$SPLFRAME
 70
     0
  9
$SPLINETYPE
 70
     6
  9
$SPLINESEGS
 70
     8
  9
$HANDSEED
  5
5C5
  9
$SURFTAB1
 70
     6
  9
$SURFTAB2
 70
     6
  9
$SURFTYPE
 70
     6
  9
$SURFU
 70
     6
  9
$SURFV
 70
     6
  9
$UCSBASE
  2

  9
$UCSNAME
  2

  9
$UCSORG
 10
0.0
 20
0.0
 30
0.0
  9
$UCSXDIR
 10
1.0
 20
0.0
 30
0.0
  9
$UCSYDIR
 10
0.0
 20
1.0
 30
0.0
  9
$UCSORTHOREF
  2

  9
$UCSORTHOVIEW
 70
     0
  9
$UCSORGTOP
 10
0.0
 20
0.0
 30
0.0
  9
$UCSORGBOTTOM
 10
0.0
 20
0.0
 30
0.0
  9
$UCSORGLEFT
 10
0.0
 20
0.0
 30
0.0
  9
$UCSORGRIGHT
 10
0.0
 20
0.0
 30
0.0
  9
$UCSORGFRONT
 10
0.0
 20
0.0
 30
0.0
  9
$UCSORGBACK
 10
0.0
 20
0.0
 30
0.0
  9
$PUCSBASE
  2

  9
$PUCSNAME
  2

  9
$PUCSORG
 10
0.0
 20
0.0
 30
0.0
  9
$PUCSXDIR
 10
1.0
 20
0.0
 30
0.0
  9
$PUCSYDIR
 10
0.0
 20
1.0
 30
0.0
  9
$PUCSORTHOREF
  2

  9
$PUCSORTHOVIEW
 70
     0
  9
$PUCSORGTOP
 10
0.0
 20
0.0
 30
0.0
  9
$PUCSORGBOTTOM
 10
0.0
 20
0.0
 30
0.0
  9
$PUCSORGLEFT
 10
0.0
 20
0.0
 30
0.0
  9
$PUCSORGRIGHT
 10
0.0
 20
0.0
 30
0.0
  9
$PUCSORGFRONT
 10
0.0
 20
0.0
 30
0.0
  9
$PUCSORGBACK
 10
0.0
 20
0.0
 30
0.0
  9
$USERI1
 70
     0
  9
$USERI2
 70
     0
  9
$USERI3
 70
     0
  9
$USERI4
 70
     0
  9
$USERI5
 70
     0
  9
$USERR1
 40
0.0
  9
$USERR2
 40
0.0
  9
$USERR3
 40
0.0
  9
$USERR4
 40
0.0
  9
$USERR5
 40
0.0
  9
$WORLDVIEW
 70
     1
  9
$SHADEDGE
 70
     3
  9
$SHADEDIF
 70
    70
  9
$TILEMODE
 70
     1
  9
$MAXACTVP
 70
    64
  9
$PINSBASE
 10
0.0
 20
0.0
 30
0.0
  9
$PLIMCHECK
 70
     0
  9
$PEXTMIN
 10
1.000000000000000E+20
 20
1.000000000000000E+20
 30
1.000000000000000E+20
  9
$PEXTMAX
 10
-1.000000000000000E+20
 20
-1.000000000000000E+20
 30
-1.000000000000000E+20
  9
$PLIMMIN
 10
0.0
 20
0.0
  9
$PLIMMAX
 10
12.0
 20
9.0
  9
$UNITMODE
 70
     0
  9
$VISRETAIN
 70
     1
  9
$PLINEGEN
 70
     0
  9
$PSLTSCALE
 70
     1
  9
$TREEDEPTH
 70
  3020
  9
$CMLSTYLE
  2
Standard
  9
$CMLJUST
 70
     0
  9
$CMLSCALE
 40
1.0
  9
$PROXYGRAPHICS
 70
     1
  9
$MEASUREMENT
 70
     0
  9
$CELWEIGHT
370
    -1
  9
$ENDCAPS
280
     0
  9
$JOINSTYLE
280
     0
  9
$LWDISPLAY
290
     1
  9
$INSUNITS
 70
     1
  9
$HYPERLINKBASE
  1

  9
$STYLESHEET
  1

  9
$XEDIT
290
     1
  9
$CEPSNTYPE
380
     0
  9
$PSTYLEMODE
290
     1
  9
$FINGERPRINTGUID
  2
{2DA82095-DB2E-A04F-F573-4FC404D9B981}
  9
$VERSIONGUID
  2
{FAEB1C32-E019-11D5-929B-00C0DF256EC4}
  9
$EXTNAMES
290
     1
  9
$PSVPSCALE
 40
0.0
  9
$OLESTARTUP
290
     0
  9
$SORTENTS
280
   127
  9
$INDEXCTL
280
     0
  9
$HIDETEXT
280
     1
  9
$XCLIPFRAME
290
     0
  9
$HALOGAP
280
     0
  9
$OBSCOLOR
 70
   257
  9
$OBSLTYPE
280
     0
  9
$INTERSECTIONDISPLAY
280
     0
  9
$INTERSECTIONCOLOR
 70
   257
  9
$DIMASSOC
280
     2
  9
$PROJECTNAME
  1

  0
ENDSEC
  0
SECTION
  2
CLASSES
  0
CLASS
  1
ACDBDICTIONARYWDFLT
  2
AcDbDictionaryWithDefault
  3
ObjectDBX Classes
 90
        0
 91
        3
280
     0
281
     0
  0
CLASS
  1
VISUALSTYLE
  2
AcDbVisualStyle
  3
ObjectDBX Classes
 90
     4095
 91
        3
280
     0
281
     0
  0
ENDSEC
  0
SECTION
  2
TABLES
  0
TABLE
  2
VPORT
  5
8
330
0
100
AcDbSymbolTable
 70
     1
  0
VPORT
  5
29
330
8
100
AcDbSymbolTableRecord
100
AcDbViewportTableRecord
  2
*Active
 70
     0
 10
0.0
 20
0.0
 11
1.0
 21
1.0
 12
0.0
 22
0.0
 13
0.0
 23
0.0
 14
0.5
 24
0.5
 15
0.5
 25
0.5
 16
0.0
 26
0.0
 36
1.0
 17
105.0008259828644
 27
-148.4999796178229
 37
0.0
 40
296.9999592356459
 41
0.7070763662937379
 42
50.0
 43
0.0
 44
0.0
 50
0.0
 51
0.0
 71
     0
 72
   100
 73
     1
 74
     3
 75
     0
 76
     0
 77
     0
 78
     0
281
     0
 65
     1
110
0.0
120
0.0
130
0.0
111
1.0
121
0.0
131
0.0
112
0.0
122
1.0
132
0.0
 79
     0
146
0.0
  0
ENDTAB
  0
TABLE
  2
LTYPE
  5
5
330
0
100
AcDbSymbolTable
 70
     1
  0
LTYPE
  5
14
330
5
100
AcDbSymbolTableRecord
100
AcDbLinetypeTableRecord
  2
ByBlock
 70
     0
  3

 72
    65
 73
     0
 40
0.0
  0
LTYPE
  5
15
330
5
100
AcDbSymbolTableRecord
100
AcDbLinetypeTableRecord
  2
ByLayer
 70
     0
  3

 72
    65
 73
     0
 40
0.0
  0
LTYPE
  5
16
330
5
100
AcDbSymbolTableRecord
100
AcDbLinetypeTableRecord
  2
Continuous
 70
     0
  3
Solid line
 72
    65
 73
     0
 40
0.0
  0
ENDTAB
  0
TABLE
  2
LAYER
  5
2
330
0
100
AcDbSymbolTable
 70
     2
  0
LAYER
  5
10
330
2
100
AcDbSymbolTableRecord
100
AcDbLayerTableRecord
  2
0
 70
     0
 62
     7
  6
Continuous
370
    -3
390
F
  0
LAYER
  5
3B
330
2
100
AcDbSymbolTableRecord
100
AcDbLayerTableRecord
  2
Ebene 1
 70
     0
 62
     7
  6
Continuous
370
    -3
390
F
  0
ENDTAB
  0
TABLE
  2
STYLE
  5
3
330
0
100
AcDbSymbolTable
 70
     1
  0
STYLE
  5
11
330
3
100
AcDbSymbolTableRecord
100
AcDbTextStyleTableRecord
  2
Standard
 70
     0
 40
0.0
 41
1.0
 50
0.0
 71
     0
 42
0.2
  3
txt
  4

  0
ENDTAB
  0
TABLE
  2
VIEW
  5
6
330
0
100
AcDbSymbolTable
 70
     0
  0
ENDTAB
  0
TABLE
  2
UCS
  5
7
330
0
100
AcDbSymbolTable
 70
     0
  0
ENDTAB
  0
TABLE
  2
APPID
  5
9
330
0
100
AcDbSymbolTable
 70
     1
  0
APPID
  5
12
330
9
100
AcDbSymbolTableRecord
100
AcDbRegAppTableRecord
  2
ACAD
 70
     0
  0
ENDTAB
  0
TABLE
  2
DIMSTYLE
  5
A
330
0
100
AcDbSymbolTable
 70
     1
100
AcDbDimStyleTable
  0
DIMSTYLE
105
27
330
A
100
AcDbSymbolTableRecord
100
AcDbDimStyleTableRecord
  2
Standard
 70
     0
340
11
  0
ENDTAB
  0
TABLE
  2
BLOCK_RECORD
  5
1
330
0
100
AcDbSymbolTable
 70
     4
  0
BLOCK_RECORD
  5
1F
330
1
100
AcDbSymbolTableRecord
100
AcDbBlockTableRecord
  2
*Model_Space
340
22
  0
BLOCK_RECORD
  5
1B
330
1
100
AcDbSymbolTableRecord
100
AcDbBlockTableRecord
  2
*Paper_Space
340
1E
  0
BLOCK_RECORD
  5
23
330
1
100
AcDbSymbolTableRecord
100
AcDbBlockTableRecord
  2
*Paper_Space0
340
26
  0
BLOCK_RECORD
  5
3C
330
1
100
AcDbSymbolTableRecord
100
AcDbBlockTableRecord
  2
block 2
340
0
102
{BLKREFS
331
3D
102
}
  0
BLOCK_RECORD
  5
147
330
1
100
AcDbSymbolTableRecord
100
AcDbBlockTableRecord
  2
block 3
340
0
102
{BLKREFS
331
148
102
}
  0
BLOCK_RECORD
  5
291
330
1
100
AcDbSymbolTableRecord
100
AcDbBlockTableRecord
  2
block 4
340
0
102
{BLKREFS
331
292
102
}
  0
ENDTAB
  0
ENDSEC
  0
SECTION
  2
BLOCKS
  0
BLOCK
  5
20
330
1F
100
AcDbEntity
  8
0
100
AcDbBlockBegin
  2
*Model_Space
 70
     0
 71
     0
 10
0.0
 20
0.0
 30
0.0
  3
*Model_Space
  1

  0
ENDBLK
  5
21
330
1F
100
AcDbEntity
  8
0
100
AcDbBlockEnd
  0
BLOCK
  5
1C
330
1B
100
AcDbEntity
 67
     1
  8
0
100
AcDbBlockBegin
  2
*Paper_Space
 70
     0
 71
     0
 10
0.0
 20
0.0
 30
0.0
  3
*Paper_Space
  1

  0
ENDBLK
  5
1D
330
1B
100
AcDbEntity
 67
     1
  8
0
100
AcDbBlockEnd
  0
BLOCK
  5
24
330
23
100
AcDbEntity
  8
0
100
AcDbBlockBegin
  2
*Paper_Space0
 70
     0
 71
     0
 10
0.0
 20
0.0
 30
0.0
  3
*Paper_Space0
  1

  0
ENDBLK
  5
25
330
23
100
AcDbEntity
  8
0
100
AcDbBlockEnd
  0
BLOCK
  5
3E
330
3C
100
AcDbEntity
  8
0
100
AcDbBlockBegin
  2
block 2
 70
     0
 71
     0
 10
0.0
 20
0.0
 30
0.0
  3
block 2
  1

  0
POLYLINE
  5
40
330
3C
100
AcDbEntity
  8
Ebene 1
 62
   179
420
  1709851
370
    18
100
AcDb2dPolyline
 66
     1
 10
0.0
 20
0.0
 30
0.0
  0
VERTEX
  5
41
330
40
100
AcDbEntity
  8
Ebene 1
 62
   179
420
  1709851
370
    18
100
AcDbVertex
100
AcDb2dVertex
 10
77.41008977014401
 20
-85.84850665171496
 30
0.0
  0
VERTEX
  5
42
330
40
100
AcDbEntity
  8
Ebene 1
 62
   179
420
  1709851
370
    18
100
AcDbVertex
100
AcDb2dVertex
 10
86.04608287779403
 20
-77.21268579883919
 30
0.0
  0
SEQEND
  5
43
330
40
100
AcDbEntity
  8
Ebene 1
370
    18
  0
POLYLINE
  5
44
330
3C
100
AcDbEntity
  8
Ebene 1
 62
   179
420
  1709851
370
    18
100
AcDb2dPolyline
 66
     1
 10
0.0
 20
0.0
 30
0.0
  0
VERTEX
  5
45
330
44
100
AcDbEntity
  8
Ebene 1
 62
   179
420
  1709851
370
    18
100
AcDbVertex
100
AcDb2dVertex
 10
33.404679353628
 20
-129.8540893230052
 30
0.0
  0
VERTEX
  5
46
330
44
100
AcDbEntity
  8
Ebene 1
 62
   179
420
  1709851
370
    18
100
AcDbVertex
100
AcDb2dVertex
 10
46.04111733875014
 20
-117.2174790831088
 30
0.0
  0
SEQEND
  5
47
330
44
100
AcDbEntity
  8
Ebene 1
370
    18
  0
POLYLINE
  5
48
330
3C
100
AcDbEntity
  8
Ebene 1
 62
   179
420
  1709851
370
    18
100
AcDb2dPolyline
 66
     1
 10
0.0
 20
0.0
 30
0.0
  0
VERTEX
  5
49
330
48
100
AcDbEntity
  8
Ebene 1
 62
   179
420
  1709851
370
    18
100
AcDbVertex
100
AcDb2dVertex
 10
77.41008977014401
 20
-99.98786754227734
 30
0.0
  0
VERTEX
  5
4A
330
48
100
AcDbEntity
  8
Ebene 1
 62
   179
420
  1709851
370
    18
100
AcDbVertex
100
AcDb2dVertex
 10
100.1854437683564
 20
-77.21268579883919
 30
0.0
  0
SEQEND
  5
4B
330
48
100
AcDbEntity
  8
Ebene 1
370
    18
  0
POLYLINE
  5
4C
330
3C
100
AcDbEntity
  8
Ebene 1
 62
   179
420
  1709851
370
    18
100
AcDb2dPolyline
 66
     1
 10
0.0
 20
0.0
 30
0.0
  0
VERTEX
  5
4D
330
4C
100
AcDbEntity
  8
Ebene 1
 62
   179
420
  1709851
370
    18
100
AcDbVertex
100
AcDb2dVertex
 10
33.404679353628
 20
-143.9934502135676
 30
0.0
  0
VERTEX
  5
4E
330
4C
100
AcDbEntity
  8
Ebene 1
 62
   179
420
  1709851
370
    18
100
AcDbVertex
100
AcDb2dVertex
 10
60.18047822931252
 20
-117.2174790831088
 30
0.0
  0
SEQEND
  5
4F
330
4C
100
AcDbEntity
  8
Ebene 1
370
    18
  0
POLYLINE
  5
50
330
3C
100
AcDbEntity
  8
Ebene 1
 62
   179
420
  1709851
370
    18
100
AcDb2dPolyline
 66
     1
 10
0.0
 20
0.0
 30
0.0
  0
VERTEX
  5
51
330
50
100
AcDbEntity
  8
Ebene 1
 62
   179
420
  1709851
370
    18
100
AcDbVertex
100
AcDb2dVertex
 10
77.41008977014401
 20
-114.1485880248483
 30
0.0
  0
VERTEX
  5
52
330
50
100
AcDbEntity
  8
Ebene 1
 62
   179
420
  1709851
370
    18
100
AcDbVertex
100
AcDb2dVertex
 10
114.3248046589188
 20
-77.21268579883919
 30
0.0
  0
SEQEND
  5
53
330
50
100
AcDbEntity
  8
Ebene 1
370
    18
  0
POLYLINE
  5
54
330
3C
100
AcDbEntity
  8
Ebene 1
 62
   179
420
  1709851
370
    18
100
AcDb2dPolyline
 66
     1
 10
0.0
 20
0.0
 30
0.0
  0
VERTEX
  5
55
330
54
100
AcDbEntity
  8
Ebene 1
 62
   179
420
  1709851
370
    18
100
AcDbVertex
100
AcDb2dVertex
 10
33.404679353628
 20
-158.1326388493557
 30
0.0
  0
VERTEX
  5
56
330
54
100
AcDbEntity
  8
Ebene 1
 62
   179
420
  1709851
370
    18
100
AcDbVertex
100
AcDb2dVertex
 10
74.34085420233492
 20
-117.2174790831088
 30
0.0
  0
SEQEND
  5
57
330
54
100
AcDbEntity
  8
Ebene 1
370
    18
  0
POLYLINE
  5
58
330
3C
100
AcDbEntity
  8
Ebene 1
 62
   179
420
  1709851
370
    18
100
AcDb2dPolyline
 66
     1
 10
0.0
 20
0.0
 30
0.0
  0
VERTEX
  5
59
330
58
100
AcDbEntity
  8
Ebene 1
 62
   179
420
  1709851
370
    18
100
AcDbVertex
100
AcDb2dVertex
 10
33.404679353628
 20
-172.2719997399181
 30
0.0
  0
VERTEX
  5
5A
330
58
100
AcDbEntity
  8
Ebene 1
 62
   179
420
  1709851
370
    18
100
AcDbVertex
100
AcDb2dVertex
 10
128.4641655494812
 20
-77.21268579883919
 30
0.0
  0
SEQEND
  5
5B
330
58
100
AcDbEntity
  8
Ebene 1
370
    18
  0
POLYLINE
  5
5C
330
3C
100
AcDbEntity
  8
Ebene 1
 62
   179
420
  1709851
370
    18
100
AcDb2dPolyline
 66
     1
 10
0.0
 20
0.0
 30
0.0
  0
VERTEX
  5
5D
330
5C
100
AcDbEntity
  8
Ebene 1
 62
   179
420
  1709851
370
    18
100
AcDbVertex
100
AcDb2dVertex
 10
42.61204154750671
 20
-177.2039984366018
 30
0.0
  0
VERTEX
  5
5E
330
5C
100
AcDbEntity
  8
Ebene 1
 62
   179
420
  1709851
370
    18
100
AcDbVertex
100
AcDb2dVertex
 10
137.396609123637
 20
-82.41960311524579
 30
0.0
  0
SEQEND
  5
5F
330
5C
100
AcDbEntity
  8
Ebene 1
370
    18
  0
POLYLINE
  5
60
330
3C
100
AcDbEntity
  8
Ebene 1
 62
   179
420
  1709851
370
    18
100
AcDb2dPolyline
 66
     1
 10
0.0
 20
0.0
 30
0.0
  0
VERTEX
  5
61
330
60
100
AcDbEntity
  8
Ebene 1
 62
   179
420
  1709851
370
    18
100
AcDbVertex
100
AcDb2dVertex
 10
56.7514024380691
 20
-177.2039984366018
 30
0.0
  0
VERTEX
  5
62
330
60
100
AcDbEntity
  8
Ebene 1
 62
   179
420
  1709851
370
    18
100
AcDbVertex
100
AcDb2dVertex
 10
137.396609123637
 20
-96.55896400580818
 30
0.0
  0
SEQEND
  5
63
330
60
100
AcDbEntity
  8
Ebene 1
370
    18
  0
POLYLINE
  5
64
330
3C
100
AcDbEntity
  8
Ebene 1
 62
   179
420
  1709851
370
    18
100
AcDb2dPolyline
 66
     1
 10
0.0
 20
0.0
 30
0.0
  0
VERTEX
  5
65
330
64
100
AcDbEntity
  8
Ebene 1
 62
   179
420
  1709851
370
    18
100
AcDbVertex
100
AcDb2dVertex
 10
70.89076332863148
 20
-177.2039984366018
 30
0.0
  0
VERTEX
  5
66
330
64
100
AcDbEntity
  8
Ebene 1
 62
   179
420
  1709851
370
    18
100
AcDbVertex
100
AcDb2dVertex
 10
137.396609123637
 20
-110.6983248963706
 30
0.0
  0
SEQEND
  5
67
330
64
100
AcDbEntity
  8
Ebene 1
370
    18
  0
POLYLINE
  5
68
330
3C
100
AcDbEntity
  8
Ebene 1
 62
   179
420
  1709851
370
    18
100
AcDb2dPolyline
 66
     1
 10
0.0
 20
0.0
 30
0.0
  0
VERTEX
  5
69
330
68
100
AcDbEntity
  8
Ebene 1
 62
   179
420
  1709851
370
    18
100
AcDbVertex
100
AcDb2dVertex
 10
85.05131155642815
 20
-177.2039984366018
 30
0.0
  0
VERTEX
  5
6A
330
68
100
AcDbEntity
  8
Ebene 1
 62
   179
420
  1709851
370
    18
100
AcDbVertex
100
AcDb2dVertex
 10
137.396609123637
 20
-124.858700869393
 30
0.0
  0
SEQEND
  5
6B
330
68
100
AcDbEntity
  8
Ebene 1
370
    18
  0
POLYLINE
  5
6C
330
3C
100
AcDbEntity
  8
Ebene 1
 62
   179
420
  1709851
370
    18
100
AcDb2dPolyline
 66
     1
 10
0.0
 20
0.0
 30
0.0
  0
VERTEX
  5
6D
330
6C
100
AcDbEntity
  8
Ebene 1
 62
   179
420
  1709851
370
    18
100
AcDbVertex
100
AcDb2dVertex
 10
99.19067244699053
 20
-177.2039984366018
 30
0.0
  0
VERTEX
  5
6E
330
6C
100
AcDbEntity
  8
Ebene 1
 62
   179
420
  1709851
370
    18
100
AcDbVertex
100
AcDb2dVertex
 10
137.396609123637
 20
-138.9980617599554
 30
0.0
  0
SEQEND
  5
6F
330
6C
100
AcDbEntity
  8
Ebene 1
370
    18
  0
POLYLINE
  5
70
330
3C
100
AcDbEntity
  8
Ebene 1
 62
   179
420
  1709851
370
    18
100
AcDb2dPolyline
 66
     1
 10
0.0
 20
0.0
 30
0.0
  0
VERTEX
  5
71
330
70
100
AcDbEntity
  8
Ebene 1
 62
   179
420
  1709851
370
    18
100
AcDbVertex
100
AcDb2dVertex
 10
113.3298610827786
 20
-177.2039984366018
 30
0.0
  0
VERTEX
  5
72
330
70
100
AcDbEntity
  8
Ebene 1
 62
   179
420
  1709851
370
    18
100
AcDbVertex
100
AcDb2dVertex
 10
137.396609123637
 20
-153.1372503957435
 30
0.0
  0
SEQEND
  5
73
330
70
100
AcDbEntity
  8
Ebene 1
370
    18
  0
POLYLINE
  5
74
330
3C
100
AcDbEntity
  8
Ebene 1
 62
   179
420
  1709851
370
    18
100
AcDb2dPolyline
 66
     1
 10
0.0
 20
0.0
 30
0.0
  0
VERTEX
  5
75
330
74
100
AcDbEntity
  8
Ebene 1
 62
   179
420
  1709851
370
    18
100
AcDbVertex
100
AcDb2dVertex
 10
127.469221973341
 20
-177.2039984366018
 30
0.0
  0
VERTEX
  5
76
330
74
100
AcDbEntity
  8
Ebene 1
 62
   179
420
  1709851
370
    18
100
AcDbVertex
100
AcDb2dVertex
 10
137.396609123637
 20
-167.2766112863059
 30
0.0
  0
SEQEND
  5
77
330
74
100
AcDbEntity
  8
Ebene 1
370
    18
  0
POLYLINE
  5
78
330
3C
100
AcDbEntity
  8
Ebene 1
 62
   179
420
  1709851
370
    18
100
AcDb2dPolyline
 66
     1
 10
0.0
 20
0.0
 30
0.0
  0
VERTEX
  5
79
330
78
100
AcDbEntity
  8
Ebene 1
 62
   179
420
  1709851
370
    18
100
AcDbVertex
100
AcDb2dVertex
 10
77.41008977014401
 20
-78.77882620643376
 30
0.0
  0
VERTEX
  5
7A
330
78
100
AcDbEntity
  8
Ebene 1
 62
   179
420
  1709851
370
    18
100
AcDbVertex
100
AcDb2dVertex
 10
78.97640243251284
 20
-77.21268579883919
 30
0.0
  0
SEQEND
  5
7B
330
78
100
AcDbEntity
  8
Ebene 1
370
    18
  0
POLYLINE
  5
7C
330
3C
100
AcDbEntity
  8
Ebene 1
 62
   179
420
  1709851
370
    18
100
AcDb2dPolyline
 66
     1
 10
0.0
 20
0.0
 30
0.0
  0
VERTEX
  5
7D
330
7C
100
AcDbEntity
  8
Ebene 1
 62
   179
420
  1709851
370
    18
100
AcDbVertex
100
AcDb2dVertex
 10
33.404679353628
 20
-122.784408877724
 30
0.0
  0
VERTEX
  5
7E
330
7C
100
AcDbEntity
  8
Ebene 1
 62
   179
420
  1709851
370
    18
100
AcDbVertex
100
AcDb2dVertex
 10
38.97143689346895
 20
-117.2174790831088
 30
0.0
  0
SEQEND
  5
7F
330
7C
100
AcDbEntity
  8
Ebene 1
370
    18
  0
POLYLINE
  5
80
330
3C
100
AcDbEntity
  8
Ebene 1
 62
   179
420
  1709851
370
    18
100
AcDb2dPolyline
 66
     1
 10
0.0
 20
0.0
 30
0.0
  0
VERTEX
  5
81
330
80
100
AcDbEntity
  8
Ebene 1
 62
   179
420
  1709851
370
    18
100
AcDbVertex
100
AcDb2dVertex
 10
77.41008977014401
 20
-92.91818709699615
 30
0.0
  0
VERTEX
  5
82
330
80
100
AcDbEntity
  8
Ebene 1
 62
   179
420
  1709851
370
    18
100
AcDbVertex
100
AcDb2dVertex
 10
93.11576332307523
 20
-77.21268579883919
 30
0.0
  0
SEQEND
  5
83
330
80
100
AcDbEntity
  8
Ebene 1
370
    18
  0
POLYLINE
  5
84
330
3C
100
AcDbEntity
  8
Ebene 1
 62
   179
420
  1709851
370
    18
100
AcDb2dPolyline
 66
     1
 10
0.0
 20
0.0
 30
0.0
  0
VERTEX
  5
85
330
84
100
AcDbEntity
  8
Ebene 1
 62
   179
420
  1709851
370
    18
100
AcDbVertex
100
AcDb2dVertex
 10
33.404679353628
 20
-136.9237697682864
 30
0.0
  0
VERTEX
  5
86
330
84
100
AcDbEntity
  8
Ebene 1
 62
   179
420
  1709851
370
    18
100
AcDbVertex
100
AcDb2dVertex
 10
53.11079778403133
 20
-117.2174790831088
 30
0.0
  0
SEQEND
  5
87
330
84
100
AcDbEntity
  8
Ebene 1
370
    18
  0
POLYLINE
  5
88
330
3C
100
AcDbEntity
  8
Ebene 1
 62
   179
420
  1709851
370
    18
100
AcDb2dPolyline
 66
     1
 10
0.0
 20
0.0
 30
0.0
  0
VERTEX
  5
89
330
88
100
AcDbEntity
  8
Ebene 1
 62
   179
420
  1709851
370
    18
100
AcDbVertex
100
AcDb2dVertex
 10
77.41008977014401
 20
-107.0789075795671
 30
0.0
  0
VERTEX
  5
8A
330
88
100
AcDbEntity
  8
Ebene 1
 62
   179
420
  1709851
370
    18
100
AcDbVertex
100
AcDb2dVertex
 10
107.2551242136376
 20
-77.21268579883919
 30
0.0
  0
SEQEND
  5
8B
330
88
100
AcDbEntity
  8
Ebene 1
370
    18
  0
POLYLINE
  5
8C
330
3C
100
AcDbEntity
  8
Ebene 1
 62
   179
420
  1709851
370
    18
100
AcDb2dPolyline
 66
     1
 10
0.0
 20
0.0
 30
0.0
  0
VERTEX
  5
8D
330
8C
100
AcDbEntity
  8
Ebene 1
 62
   179
420
  1709851
370
    18
100
AcDbVertex
100
AcDb2dVertex
 10
33.404679353628
 20
-151.0633029136231
 30
0.0
  0
VERTEX
  5
8E
330
8C
100
AcDbEntity
  8
Ebene 1
 62
   179
420
  1709851
370
    18
100
AcDbVertex
100
AcDb2dVertex
 10
67.25015867459372
 20
-117.2174790831088
 30
0.0
  0
SEQEND
  5
8F
330
8C
100
AcDbEntity
  8
Ebene 1
370
    18
  0
POLYLINE
  5
90
330
3C
100
AcDbEntity
  8
Ebene 1
 62
   179
420
  1709851
370
    18
100
AcDb2dPolyline
 66
     1
 10
0.0
 20
0.0
 30
0.0
  0
VERTEX
  5
91
330
90
100
AcDbEntity
  8
Ebene 1
 62
   179
420
  1709851
370
    18
100
AcDbVertex
100
AcDb2dVertex
 10
33.404679353628
 20
-165.2026638041854
 30
0.0
  0
VERTEX
  5
92
330
90
100
AcDbEntity
  8
Ebene 1
 62
   179
420
  1709851
370
    18
100
AcDbVertex
100
AcDb2dVertex
 10
121.3944851042
 20
-77.21268579883919
 30
0.0
  0
SEQEND
  5
93
330
90
100
AcDbEntity
  8
Ebene 1
370
    18
  0
POLYLINE
  5
94
330
3C
100
AcDbEntity
  8
Ebene 1
 62
   179
420
  1709851
370
    18
100
AcDb2dPolyline
 66
     1
 10
0.0
 20
0.0
 30
0.0
  0
VERTEX
  5
95
330
94
100
AcDbEntity
  8
Ebene 1
 62
   179
420
  1709851
370
    18
100
AcDbVertex
100
AcDb2dVertex
 10
35.54236110222552
 20
-177.2039984366018
 30
0.0
  0
VERTEX
  5
96
330
94
100
AcDbEntity
  8
Ebene 1
 62
   179
420
  1709851
370
    18
100
AcDbVertex
100
AcDb2dVertex
 10
135.5338459947624
 20
-77.21268579883919
 30
0.0
  0
SEQEND
  5
97
330
94
100
AcDbEntity
  8
Ebene 1
370
    18
  0
POLYLINE
  5
98
330
3C
100
AcDbEntity
  8
Ebene 1
 62
   179
420
  1709851
370
    18
100
AcDb2dPolyline
 66
     1
 10
0.0
 20
0.0
 30
0.0
  0
VERTEX
  5
99
330
98
100
AcDbEntity
  8
Ebene 1
 62
   179
420
  1709851
370
    18
100
AcDbVertex
100
AcDb2dVertex
 10
49.68172199278791
 20
-177.2039984366018
 30
0.0
  0
VERTEX
  5
9A
330
98
100
AcDbEntity
  8
Ebene 1
 62
   179
420
  1709851
370
    18
100
AcDbVertex
100
AcDb2dVertex
 10
137.396609123637
 20
-89.48928356052699
 30
0.0
  0
SEQEND
  5
9B
330
98
100
AcDbEntity
  8
Ebene 1
370
    18
  0
POLYLINE
  5
9C
330
3C
100
AcDbEntity
  8
Ebene 1
 62
   179
420
  1709851
370
    18
100
AcDb2dPolyline
 66
     1
 10
0.0
 20
0.0
 30
0.0
  0
VERTEX
  5
9D
330
9C
100
AcDbEntity
  8
Ebene 1
 62
   179
420
  1709851
370
    18
100
AcDbVertex
100
AcDb2dVertex
 10
63.82108288335029
 20
-177.2039984366018
 30
0.0
  0
VERTEX
  5
9E
330
9C
100
AcDbEntity
  8
Ebene 1
 62
   179
420
  1709851
370
    18
100
AcDbVertex
100
AcDb2dVertex
 10
137.396609123637
 20
-103.6286444510894
 30
0.0
  0
SEQEND
  5
9F
330
9C
100
AcDbEntity
  8
Ebene 1
370
    18
  0
POLYLINE
  5
A0
330
3C
100
AcDbEntity
  8
Ebene 1
 62
   179
420
  1709851
370
    18
100
AcDb2dPolyline
 66
     1
 10
0.0
 20
0.0
 30
0.0
  0
VERTEX
  5
A1
330
A0
100
AcDbEntity
  8
Ebene 1
 62
   179
420
  1709851
370
    18
100
AcDbVertex
100
AcDb2dVertex
 10
77.96044377391267
 20
-177.2039984366018
 30
0.0
  0
VERTEX
  5
A2
330
A0
100
AcDbEntity
  8
Ebene 1
 62
   179
420
  1709851
370
    18
100
AcDbVertex
100
AcDb2dVertex
 10
137.396609123637
 20
-117.7680053416518
 30
0.0
  0
SEQEND
  5
A3
330
A0
100
AcDbEntity
  8
Ebene 1
370
    18
  0
POLYLINE
  5
A4
330
3C
100
AcDbEntity
  8
Ebene 1
 62
   179
420
  1709851
370
    18
100
AcDb2dPolyline
 66
     1
 10
0.0
 20
0.0
 30
0.0
  0
VERTEX
  5
A5
330
A4
100
AcDbEntity
  8
Ebene 1
 62
   179
420
  1709851
370
    18
100
AcDbVertex
100
AcDb2dVertex
 10
92.12099200170934
 20
-177.2039984366018
 30
0.0
  0
VERTEX
  5
A6
330
A4
100
AcDbEntity
  8
Ebene 1
 62
   179
420
  1709851
370
    18
100
AcDbVertex
100
AcDb2dVertex
 10
137.396609123637
 20
-131.9283813146742
 30
0.0
  0
SEQEND
  5
A7
330
A4
100
AcDbEntity
  8
Ebene 1
370
    18
  0
POLYLINE
  5
A8
330
3C
100
AcDbEntity
  8
Ebene 1
 62
   179
420
  1709851
370
    18
100
AcDb2dPolyline
 66
     1
 10
0.0
 20
0.0
 30
0.0
  0
VERTEX
  5
A9
330
A8
100
AcDbEntity
  8
Ebene 1
 62
   179
420
  1709851
370
    18
100
AcDbVertex
100
AcDb2dVertex
 10
106.2601806374975
 20
-177.2039984366018
 30
0.0
  0
VERTEX
  5
AA
330
A8
100
AcDbEntity
  8
Ebene 1
 62
   179
420
  1709851
370
    18
100
AcDbVertex
100
AcDb2dVertex
 10
137.396609123637
 20
-146.0677422052366
 30
0.0
  0
SEQEND
  5
AB
330
A8
100
AcDbEntity
  8
Ebene 1
370
    18
  0
POLYLINE
  5
AC
330
3C
100
AcDbEntity
  8
Ebene 1
 62
   179
420
  1709851
370
    18
100
AcDb2dPolyline
 66
     1
 10
0.0
 20
0.0
 30
0.0
  0
VERTEX
  5
AD
330
AC
100
AcDbEntity
  8
Ebene 1
 62
   179
420
  1709851
370
    18
100
AcDbVertex
100
AcDb2dVertex
 10
120.3995415280598
 20
-177.2039984366018
 30
0.0
  0
VERTEX
  5
AE
330
AC
100
AcDbEntity
  8
Ebene 1
 62
   179
420
  1709851
370
    18
100
AcDbVertex
100
AcDb2dVertex
 10
137.396609123637
 20
-160.2072753505732
 30
0.0
  0
SEQEND
  5
AF
330
AC
100
AcDbEntity
  8
Ebene 1
370
    18
  0
POLYLINE
  5
B0
330
3C
100
AcDbEntity
  8
Ebene 1
 62
   179
420
  1709851
370
    18
100
AcDb2dPolyline
 66
     1
 10
0.0
 20
0.0
 30
0.0
  0
VERTEX
  5
B1
330
B0
100
AcDbEntity
  8
Ebene 1
 62
   179
420
  1709851
370
    18
100
AcDbVertex
100
AcDb2dVertex
 10
134.5389024186222
 20
-177.2039984366018
 30
0.0
  0
VERTEX
  5
B2
330
B0
100
AcDbEntity
  8
Ebene 1
 62
   179
420
  1709851
370
    18
100
AcDbVertex
100
AcDb2dVertex
 10
137.396609123637
 20
-174.3466362411356
 30
0.0
  0
SEQEND
  5
B3
330
B0
100
AcDbEntity
  8
Ebene 1
370
    18
  0
POLYLINE
  5
B4
330
3C
100
AcDbEntity
  8
Ebene 1
370
     0
100
AcDb2dPolyline
 66
     1
 10
0.0
 20
0.0
 30
0.0
  0
VERTEX
  5
B5
330
B4
100
AcDbEntity
  8
Ebene 1
370
     0
100
AcDbVertex
100
AcDb2dVertex
 10
33.16111110282083
 20
-215.155859321211
 30
0.0
  0
VERTEX
  5
B6
330
B4
100
AcDbEntity
  8
Ebene 1
370
     0
100
AcDbVertex
100
AcDb2dVertex
 10
175.3484700082462
 20
-215.155859321211
 30
0.0
  0
VERTEX
  5
B7
330
B4
100
AcDbEntity
  8
Ebene 1
370
     0
100
AcDbVertex
100
AcDb2dVertex
 10
175.3484700082462
 20
-76.96911754803203
 30
0.0
  0
VERTEX
  5
B8
330
B4
100
AcDbEntity
  8
Ebene 1
370
     0
100
AcDbVertex
100
AcDb2dVertex
 10
33.16111110282083
 20
-76.96911754803203
 30
0.0
  0
VERTEX
  5
B9
330
B4
100
AcDbEntity
  8
Ebene 1
370
     0
100
AcDbVertex
100
AcDb2dVertex
 10
33.16111110282083
 20
-215.155859321211
 30
0.0
  0
SEQEND
  5
BA
330
B4
100
AcDbEntity
  8
Ebene 1
370
     0
  0
ENDBLK
  5
3F
330
3C
100
AcDbEntity
  8
0
100
AcDbBlockEnd
  0
BLOCK
  5
149
330
147
100
AcDbEntity
  8
0
100
AcDbBlockBegin
  2
block 3
 70
     0
 71
     0
 10
0.0
 20
0.0
 30
0.0
  3
block 3
  1

  0
POLYLINE
  5
14B
330
147
100
AcDbEntity
  8
Ebene 1
 62
   179
420
  1709851
370
    50
100
AcDb2dPolyline
 66
     1
 10
0.0
 20
0.0
 30
0.0
  0
VERTEX
  5
14C
330
14B
100
AcDbEntity
  8
Ebene 1
 62
   179
420
  1709851
370
    50
100
AcDbVertex
100
AcDb2dVertex
 10
33.40450709885373
 20
-117.2174790831088
 30
0.0
  0
VERTEX
  5
14D
330
14B
100
AcDbEntity
  8
Ebene 1
 62
   179
420
  1709851
370
    50
100
AcDbVertex
100
AcDb2dVertex
 10
77.41008977014401
 20
-117.2174790831088
 30
0.0
  0
SEQEND
  5
14E
330
14B
100
AcDbEntity
  8
Ebene 1
370
    50
  0
POLYLINE
  5
14F
330
147
100
AcDbEntity
  8
Ebene 1
 62
   179
420
  1709851
370
    50
100
AcDb2dPolyline
 66
     1
 10
0.0
 20
0.0
 30
0.0
  0
VERTEX
  5
150
330
14F
100
AcDbEntity
  8
Ebene 1
 62
   179
420
  1709851
370
    50
100
AcDbVertex
100
AcDb2dVertex
 10
137.3962646140884
 20
-77.21268579883919
 30
0.0
  0
VERTEX
  5
151
330
14F
100
AcDbEntity
  8
Ebene 1
 62
   179
420
  1709851
370
    50
100
AcDbVertex
100
AcDb2dVertex
 10
137.3962646140884
 20
-177.2039984366018
 30
0.0
  0
SEQEND
  5
152
330
14F
100
AcDbEntity
  8
Ebene 1
370
    50
  0
POLYLINE
  5
153
330
147
100
AcDbEntity
  8
Ebene 1
 62
   179
420
  1709851
370
    50
100
AcDb2dPolyline
 66
     1
 10
0.0
 20
0.0
 30
0.0
  0
VERTEX
  5
154
330
153
100
AcDbEntity
  8
Ebene 1
 62
   179
420
  1709851
370
    50
100
AcDbVertex
100
AcDb2dVertex
 10
77.41008977014401
 20
-77.21268579883919
 30
0.0
  0
VERTEX
  5
155
330
153
100
AcDbEntity
  8
Ebene 1
 62
   179
420
  1709851
370
    50
100
AcDbVertex
100
AcDb2dVertex
 10
77.41008977014401
 20
-117.2174790831088
 30
0.0
  0
SEQEND
  5
156
330
153
100
AcDbEntity
  8
Ebene 1
370
    50
  0
POLYLINE
  5
157
330
147
100
AcDbEntity
  8
Ebene 1
 62
   179
420
  1709851
370
    50
100
AcDb2dPolyline
 66
     1
 10
0.0
 20
0.0
 30
0.0
  0
VERTEX
  5
158
330
157
100
AcDbEntity
  8
Ebene 1
 62
   179
420
  1709851
370
    50
100
AcDbVertex
100
AcDb2dVertex
 10
33.40450709885373
 20
-177.2039984366018
 30
0.0
  0
VERTEX
  5
159
330
157
100
AcDbEntity
  8
Ebene 1
 62
   179
420
  1709851
370
    50
100
AcDbVertex
100
AcDb2dVertex
 10
137.3962646140884
 20
-177.2039984366018
 30
0.0
  0
SEQEND
  5
15A
330
157
100
AcDbEntity
  8
Ebene 1
370
    50
  0
POLYLINE
  5
15B
330
147
100
AcDbEntity
  8
Ebene 1
370
     0
100
AcDb2dPolyline
 66
     1
 10
0.0
 20
0.0
 30
0.0
  0
VERTEX
  5
15C
330
15B
100
AcDbEntity
  8
Ebene 1
370
     0
100
AcDbVertex
100
AcDb2dVertex
 10
33.16111110282083
 20
-215.155859321211
 30
0.0
  0
VERTEX
  5
15D
330
15B
100
AcDbEntity
  8
Ebene 1
370
     0
100
AcDbVertex
100
AcDb2dVertex
 10
175.3484700082462
 20
-215.155859321211
 30
0.0
  0
VERTEX
  5
15E
330
15B
100
AcDbEntity
  8
Ebene 1
370
     0
100
AcDbVertex
100
AcDb2dVertex
 10
175.3484700082462
 20
-76.96911754803203
 30
0.0
  0
VERTEX
  5
15F
330
15B
100
AcDbEntity
  8
Ebene 1
370
     0
100
AcDbVertex
100
AcDb2dVertex
 10
33.16111110282083
 20
-76.96911754803203
 30
0.0
  0
VERTEX
  5
160
330
15B
100
AcDbEntity
  8
Ebene 1
370
     0
100
AcDbVertex
100
AcDb2dVertex
 10
33.16111110282083
 20
-215.155859321211
 30
0.0
  0
SEQEND
  5
161
330
15B
100
AcDbEntity
  8
Ebene 1
370
     0
  0
ENDBLK
  5
14A
330
147
100
AcDbEntity
  8
0
100
AcDbBlockEnd
  0
BLOCK
  5
293
330
291
100
AcDbEntity
  8
0
100
AcDbBlockBegin
  2
block 4
 70
     0
 71
     0
 10
0.0
 20
0.0
 30
0.0
  3
block 4
  1

  0
POLYLINE
  5
295
330
291
100
AcDbEntity
  8
Ebene 1
 62
   179
420
  1709851
370
    18
100
AcDb2dPolyline
 66
     1
 10
0.0
 20
0.0
 30
0.0
  0
VERTEX
  5
296
330
295
100
AcDbEntity
  8
Ebene 1
 62
   179
420
  1709851
370
    18
100
AcDbVertex
100
AcDb2dVertex
 10
33.40433484407947
 20
-120.4558688392437
 30
0.0
  0
VERTEX
  5
297
330
295
100
AcDbEntity
  8
Ebene 1
 62
   179
420
  1709851
370
    18
100
AcDbVertex
100
AcDb2dVertex
 10
33.40433484407947
 20
-113.4499226604396
 30
0.0
  0
SEQEND
  5
298
330
295
100
AcDbEntity
  8
Ebene 1
370
    18
  0
POLYLINE
  5
299
330
291
100
AcDbEntity
  8
Ebene 1
 62
   179
420
  1709851
370
    18
100
AcDb2dPolyline
 66
     1
 10
0.0
 20
0.0
 30
0.0
  0
VERTEX
  5
29A
330
299
100
AcDbEntity
  8
Ebene 1
 62
   179
420
  1709851
370
    18
100
AcDbVertex
100
AcDb2dVertex
 10
33.40433484407947
 20
-122.466771073984
 30
0.0
  0
VERTEX
  5
29B
330
299
100
AcDbEntity
  8
Ebene 1
 62
   179
420
  1709851
370
    18
100
AcDbVertex
100
AcDb2dVertex
 10
33.40433484407947
 20
-121.4508124153838
 30
0.0
  0
SEQEND
  5
29C
330
299
100
AcDbEntity
  8
Ebene 1
370
    18
  0
POLYLINE
  5
29D
330
291
100
AcDbEntity
  8
Ebene 1
 62
   179
420
  1709851
370
    18
100
AcDb2dPolyline
 66
     1
 10
0.0
 20
0.0
 30
0.0
  0
VERTEX
  5
29E
330
29D
100
AcDbEntity
  8
Ebene 1
 62
   179
420
  1709851
370
    18
100
AcDbVertex
100
AcDb2dVertex
 10
33.40433484407947
 20
-130.4466457464682
 30
0.0
  0
VERTEX
  5
29F
330
29D
100
AcDbEntity
  8
Ebene 1
 62
   179
420
  1709851
370
    18
100
AcDbVertex
100
AcDb2dVertex
 10
33.40433484407947
 20
-123.4617146501242
 30
0.0
  0
SEQEND
  5
2A0
330
29D
100
AcDbEntity
  8
Ebene 1
370
    18
  0
POLYLINE
  5
2A1
330
291
100
AcDbEntity
  8
Ebene 1
 62
   179
420
  1709851
370
    18
100
AcDb2dPolyline
 66
     1
 10
0.0
 20
0.0
 30
0.0
  0
VERTEX
  5
2A2
330
2A1
100
AcDbEntity
  8
Ebene 1
 62
   179
420
  1709851
370
    18
100
AcDbVertex
100
AcDb2dVertex
 10
33.40433484407947
 20
-132.4575479812085
 30
0.0
  0
VERTEX
  5
2A3
330
2A1
100
AcDbEntity
  8
Ebene 1
 62
   179
420
  1709851
370
    18
100
AcDbVertex
100
AcDb2dVertex
 10
33.40433484407947
 20
-131.4626044050684
 30
0.0
  0
SEQEND
  5
2A4
330
2A1
100
AcDbEntity
  8
Ebene 1
370
    18
  0
POLYLINE
  5
2A5
330
291
100
AcDbEntity
  8
Ebene 1
 62
   179
420
  1709851
370
    18
100
AcDb2dPolyline
 66
     1
 10
0.0
 20
0.0
 30
0.0
  0
VERTEX
  5
2A6
330
2A5
100
AcDbEntity
  8
Ebene 1
 62
   179
420
  1709851
370
    18
100
AcDbVertex
100
AcDb2dVertex
 10
33.40433484407947
 20
-140.4584377361527
 30
0.0
  0
VERTEX
  5
2A7
330
2A5
100
AcDbEntity
  8
Ebene 1
 62
   179
420
  1709851
370
    18
100
AcDbVertex
100
AcDb2dVertex
 10
33.40433484407947
 20
-133.4524915573487
 30
0.0
  0
SEQEND
  5
2A8
330
2A5
100
AcDbEntity
  8
Ebene 1
370
    18
  0
POLYLINE
  5
2A9
330
291
100
AcDbEntity
  8
Ebene 1
 62
   179
420
  1709851
370
    18
100
AcDb2dPolyline
 66
     1
 10
0.0
 20
0.0
 30
0.0
  0
VERTEX
  5
2AA
330
2A9
100
AcDbEntity
  8
Ebene 1
 62
   179
420
  1709851
370
    18
100
AcDbVertex
100
AcDb2dVertex
 10
33.40433484407947
 20
-142.4483248884331
 30
0.0
  0
VERTEX
  5
2AB
330
2A9
100
AcDbEntity
  8
Ebene 1
 62
   179
420
  1709851
370
    18
100
AcDbVertex
100
AcDb2dVertex
 10
33.40433484407947
 20
-141.4533813122929
 30
0.0
  0
SEQEND
  5
2AC
330
2A9
100
AcDbEntity
  8
Ebene 1
370
    18
  0
POLYLINE
  5
2AD
330
291
100
AcDbEntity
  8
Ebene 1
 62
   179
420
  1709851
370
    18
100
AcDb2dPolyline
 66
     1
 10
0.0
 20
0.0
 30
0.0
  0
VERTEX
  5
2AE
330
2AD
100
AcDbEntity
  8
Ebene 1
 62
   179
420
  1709851
370
    18
100
AcDbVertex
100
AcDb2dVertex
 10
33.40433484407947
 20
-150.4493868981515
 30
0.0
  0
VERTEX
  5
2AF
330
2AD
100
AcDbEntity
  8
Ebene 1
 62
   179
420
  1709851
370
    18
100
AcDbVertex
100
AcDb2dVertex
 10
33.40433484407947
 20
-143.4642835470332
 30
0.0
  0
SEQEND
  5
2B0
330
2AD
100
AcDbEntity
  8
Ebene 1
370
    18
  0
POLYLINE
  5
2B1
330
291
100
AcDbEntity
  8
Ebene 1
 62
   179
420
  1709851
370
    18
100
AcDb2dPolyline
 66
     1
 10
0.0
 20
0.0
 30
0.0
  0
VERTEX
  5
2B2
330
2B1
100
AcDbEntity
  8
Ebene 1
 62
   179
420
  1709851
370
    18
100
AcDbVertex
100
AcDb2dVertex
 10
33.40433484407947
 20
-152.4606336424404
 30
0.0
  0
VERTEX
  5
2B3
330
2B1
100
AcDbEntity
  8
Ebene 1
 62
   179
420
  1709851
370
    18
100
AcDbVertex
100
AcDb2dVertex
 10
33.40433484407947
 20
-151.4443304742917
 30
0.0
  0
SEQEND
  5
2B4
330
2B1
100
AcDbEntity
  8
Ebene 1
370
    18
  0
POLYLINE
  5
2B5
330
291
100
AcDbEntity
  8
Ebene 1
 62
   179
420
  1709851
370
    18
100
AcDb2dPolyline
 66
     1
 10
0.0
 20
0.0
 30
0.0
  0
VERTEX
  5
2B6
330
2B5
100
AcDbEntity
  8
Ebene 1
 62
   179
420
  1709851
370
    18
100
AcDbVertex
100
AcDb2dVertex
 10
33.40433484407947
 20
-160.4608343782876
 30
0.0
  0
VERTEX
  5
2B7
330
2B5
100
AcDbEntity
  8
Ebene 1
 62
   179
420
  1709851
370
    18
100
AcDbVertex
100
AcDb2dVertex
 10
33.40433484407947
 20
-153.4548881994835
 30
0.0
  0
SEQEND
  5
2B8
330
2B5
100
AcDbEntity
  8
Ebene 1
370
    18
  0
POLYLINE
  5
2B9
330
291
100
AcDbEntity
  8
Ebene 1
 62
   179
420
  1709851
370
    18
100
AcDb2dPolyline
 66
     1
 10
0.0
 20
0.0
 30
0.0
  0
VERTEX
  5
2BA
330
2B9
100
AcDbEntity
  8
Ebene 1
 62
   179
420
  1709851
370
    18
100
AcDbVertex
100
AcDb2dVertex
 10
33.40433484407947
 20
-162.4507215305679
 30
0.0
  0
VERTEX
  5
2BB
330
2B9
100
AcDbEntity
  8
Ebene 1
 62
   179
420
  1709851
370
    18
100
AcDbVertex
100
AcDb2dVertex
 10
33.40433484407947
 20
-161.4564669735248
 30
0.0
  0
SEQEND
  5
2BC
330
2B9
100
AcDbEntity
  8
Ebene 1
370
    18
  0
POLYLINE
  5
2BD
330
291
100
AcDbEntity
  8
Ebene 1
 62
   179
420
  1709851
370
    18
100
AcDb2dPolyline
 66
     1
 10
0.0
 20
0.0
 30
0.0
  0
VERTEX
  5
2BE
330
2BD
100
AcDbEntity
  8
Ebene 1
 62
   179
420
  1709851
370
    18
100
AcDbVertex
100
AcDb2dVertex
 10
33.40433484407947
 20
-170.4523003046092
 30
0.0
  0
VERTEX
  5
2BF
330
2BD
100
AcDbEntity
  8
Ebene 1
 62
   179
420
  1709851
370
    18
100
AcDbVertex
100
AcDb2dVertex
 10
33.40433484407947
 20
-163.445665106708
 30
0.0
  0
SEQEND
  5
2C0
330
2BD
100
AcDbEntity
  8
Ebene 1
370
    18
  0
POLYLINE
  5
2C1
330
291
100
AcDbEntity
  8
Ebene 1
 62
   179
420
  1709851
370
    18
100
AcDb2dPolyline
 66
     1
 10
0.0
 20
0.0
 30
0.0
  0
VERTEX
  5
2C2
330
2C1
100
AcDbEntity
  8
Ebene 1
 62
   179
420
  1709851
370
    18
100
AcDbVertex
100
AcDb2dVertex
 10
33.40433484407947
 20
-172.462858029801
 30
0.0
  0
VERTEX
  5
2C3
330
2C1
100
AcDbEntity
  8
Ebene 1
 62
   179
420
  1709851
370
    18
100
AcDbVertex
100
AcDb2dVertex
 10
33.40433484407947
 20
-171.4465548616523
 30
0.0
  0
SEQEND
  5
2C4
330
2C1
100
AcDbEntity
  8
Ebene 1
370
    18
  0
POLYLINE
  5
2C5
330
291
100
AcDbEntity
  8
Ebene 1
 62
   179
420
  1709851
370
    18
100
AcDb2dPolyline
 66
     1
 10
0.0
 20
0.0
 30
0.0
  0
VERTEX
  5
2C6
330
2C5
100
AcDbEntity
  8
Ebene 1
 62
   179
420
  1709851
370
    18
100
AcDbVertex
100
AcDb2dVertex
 10
33.40433484407947
 20
-180.4423881927366
 30
0.0
  0
VERTEX
  5
2C7
330
2C5
100
AcDbEntity
  8
Ebene 1
 62
   179
420
  1709851
370
    18
100
AcDbVertex
100
AcDb2dVertex
 10
33.40433484407947
 20
-173.4571125868441
 30
0.0
  0
SEQEND
  5
2C8
330
2C5
100
AcDbEntity
  8
Ebene 1
370
    18
  0
POLYLINE
  5
2C9
330
291
100
AcDbEntity
  8
Ebene 1
 62
   179
420
  1709851
370
    18
100
AcDb2dPolyline
 66
     1
 10
0.0
 20
0.0
 30
0.0
  0
VERTEX
  5
2CA
330
2C9
100
AcDbEntity
  8
Ebene 1
 62
   179
420
  1709851
370
    18
100
AcDbVertex
100
AcDb2dVertex
 10
33.40433484407947
 20
-182.4529459179284
 30
0.0
  0
VERTEX
  5
2CB
330
2C9
100
AcDbEntity
  8
Ebene 1
 62
   179
420
  1709851
370
    18
100
AcDbVertex
100
AcDb2dVertex
 10
33.40433484407947
 20
-181.4586913608853
 30
0.0
  0
SEQEND
  5
2CC
330
2C9
100
AcDbEntity
  8
Ebene 1
370
    18
  0
POLYLINE
  5
2CD
330
291
100
AcDbEntity
  8
Ebene 1
 62
   179
420
  1709851
370
    18
100
AcDb2dPolyline
 66
     1
 10
0.0
 20
0.0
 30
0.0
  0
VERTEX
  5
2CE
330
2CD
100
AcDbEntity
  8
Ebene 1
 62
   179
420
  1709851
370
    18
100
AcDbVertex
100
AcDb2dVertex
 10
33.40433484407947
 20
-190.4545246919697
 30
0.0
  0
VERTEX
  5
2CF
330
2CD
100
AcDbEntity
  8
Ebene 1
 62
   179
420
  1709851
370
    18
100
AcDbVertex
100
AcDb2dVertex
 10
33.40433484407947
 20
-183.4478894940686
 30
0.0
  0
SEQEND
  5
2D0
330
2CD
100
AcDbEntity
  8
Ebene 1
370
    18
  0
POLYLINE
  5
2D1
330
291
100
AcDbEntity
  8
Ebene 1
 62
   179
420
  1709851
370
    18
100
AcDb2dPolyline
 66
     1
 10
0.0
 20
0.0
 30
0.0
  0
VERTEX
  5
2D2
330
2D1
100
AcDbEntity
  8
Ebene 1
 62
   179
420
  1709851
370
    18
100
AcDbVertex
100
AcDb2dVertex
 10
33.40433484407947
 20
-192.443722825153
 30
0.0
  0
VERTEX
  5
2D3
330
2D1
100
AcDbEntity
  8
Ebene 1
 62
   179
420
  1709851
370
    18
100
AcDbVertex
100
AcDb2dVertex
 10
33.40433484407947
 20
-191.4487792490128
 30
0.0
  0
SEQEND
  5
2D4
330
2D1
100
AcDbEntity
  8
Ebene 1
370
    18
  0
POLYLINE
  5
2D5
330
291
100
AcDbEntity
  8
Ebene 1
 62
   179
420
  1709851
370
    18
100
AcDb2dPolyline
 66
     1
 10
0.0
 20
0.0
 30
0.0
  0
VERTEX
  5
2D6
330
2D5
100
AcDbEntity
  8
Ebene 1
 62
   179
420
  1709851
370
    18
100
AcDbVertex
100
AcDb2dVertex
 10
33.40433484407947
 20
-200.4446125800972
 30
0.0
  0
VERTEX
  5
2D7
330
2D5
100
AcDbEntity
  8
Ebene 1
 62
   179
420
  1709851
370
    18
100
AcDbVertex
100
AcDb2dVertex
 10
33.40433484407947
 20
-193.4600259933017
 30
0.0
  0
SEQEND
  5
2D8
330
2D5
100
AcDbEntity
  8
Ebene 1
370
    18
  0
POLYLINE
  5
2D9
330
291
100
AcDbEntity
  8
Ebene 1
 62
   179
420
  1709851
370
    18
100
AcDb2dPolyline
 66
     1
 10
0.0
 20
0.0
 30
0.0
  0
VERTEX
  5
2DA
330
2D9
100
AcDbEntity
  8
Ebene 1
 62
   179
420
  1709851
370
    18
100
AcDbVertex
100
AcDb2dVertex
 10
33.40433484407947
 20
-202.455859324386
 30
0.0
  0
VERTEX
  5
2DB
330
2D9
100
AcDbEntity
  8
Ebene 1
 62
   179
420
  1709851
370
    18
100
AcDbVertex
100
AcDb2dVertex
 10
33.40433484407947
 20
-201.4395561562373
 30
0.0
  0
SEQEND
  5
2DC
330
2D9
100
AcDbEntity
  8
Ebene 1
370
    18
  0
POLYLINE
  5
2DD
330
291
100
AcDbEntity
  8
Ebene 1
 62
   179
420
  1709851
370
    18
100
AcDb2dPolyline
 66
     1
 10
0.0
 20
0.0
 30
0.0
  0
VERTEX
  5
2DE
330
2DD
100
AcDbEntity
  8
Ebene 1
 62
   179
420
  1709851
370
    18
100
AcDbVertex
100
AcDb2dVertex
 10
33.40433484407947
 20
-210.4567490793303
 30
0.0
  0
VERTEX
  5
2DF
330
2DD
100
AcDbEntity
  8
Ebene 1
 62
   179
420
  1709851
370
    18
100
AcDbVertex
100
AcDb2dVertex
 10
33.40433484407947
 20
-203.4508029005262
 30
0.0
  0
SEQEND
  5
2E0
330
2DD
100
AcDbEntity
  8
Ebene 1
370
    18
  0
POLYLINE
  5
2E1
330
291
100
AcDbEntity
  8
Ebene 1
 62
   179
420
  1709851
370
    18
100
AcDb2dPolyline
 66
     1
 10
0.0
 20
0.0
 30
0.0
  0
VERTEX
  5
2E2
330
2E1
100
AcDbEntity
  8
Ebene 1
 62
   179
420
  1709851
370
    18
100
AcDbVertex
100
AcDb2dVertex
 10
33.40433484407947
 20
-212.4466362316106
 30
0.0
  0
VERTEX
  5
2E3
330
2E1
100
AcDbEntity
  8
Ebene 1
 62
   179
420
  1709851
370
    18
100
AcDbVertex
100
AcDb2dVertex
 10
33.40433484407947
 20
-211.4516926554704
 30
0.0
  0
SEQEND
  5
2E4
330
2E1
100
AcDbEntity
  8
Ebene 1
370
    18
  0
POLYLINE
  5
2E5
330
291
100
AcDbEntity
  8
Ebene 1
 62
   179
420
  1709851
370
    18
100
AcDb2dPolyline
 66
     1
 10
0.0
 20
0.0
 30
0.0
  0
VERTEX
  5
2E6
330
2E5
100
AcDbEntity
  8
Ebene 1
 62
   179
420
  1709851
370
    18
100
AcDbVertex
100
AcDb2dVertex
 10
33.40433484407947
 20
-215.0711099722739
 30
0.0
  0
VERTEX
  5
2E7
330
2E5
100
AcDbEntity
  8
Ebene 1
 62
   179
420
  1709851
370
    18
100
AcDbVertex
100
AcDb2dVertex
 10
33.40433484407947
 20
-215.0711099722739
 30
0.0
  0
VERTEX
  5
2E8
330
2E5
100
AcDbEntity
  8
Ebene 1
 62
   179
420
  1709851
370
    18
100
AcDbVertex
100
AcDb2dVertex
 10
33.40433484407947
 20
-213.4408907886537
 30
0.0
  0
SEQEND
  5
2E9
330
2E5
100
AcDbEntity
  8
Ebene 1
370
    18
  0
POLYLINE
  5
2EA
330
291
100
AcDbEntity
  8
Ebene 1
 62
   179
420
  1709851
370
    18
100
AcDb2dPolyline
 66
     1
 10
0.0
 20
0.0
 30
0.0
  0
VERTEX
  5
2EB
330
2EA
100
AcDbEntity
  8
Ebene 1
 62
   179
420
  1709851
370
    18
100
AcDbVertex
100
AcDb2dVertex
 10
154.4143472921256
 20
-158.7251952728187
 30
0.0
  0
VERTEX
  5
2EC
330
2EA
100
AcDbEntity
  8
Ebene 1
 62
   179
420
  1709851
370
    18
100
AcDbVertex
100
AcDb2dVertex
 10
154.4143472921256
 20
-155.5081651086924
 30
0.0
  0
SEQEND
  5
2ED
330
2EA
100
AcDbEntity
  8
Ebene 1
370
    18
  0
POLYLINE
  5
2EE
330
291
100
AcDbEntity
  8
Ebene 1
 62
   179
420
  1709851
370
    18
100
AcDb2dPolyline
 66
     1
 10
0.0
 20
0.0
 30
0.0
  0
VERTEX
  5
2EF
330
2EE
100
AcDbEntity
  8
Ebene 1
 62
   179
420
  1709851
370
    18
100
AcDbVertex
100
AcDb2dVertex
 10
160.0022921692008
 20
-157.1170247003041
 30
0.0
  0
VERTEX
  5
2F0
330
2EE
100
AcDbEntity
  8
Ebene 1
 62
   179
420
  1709851
370
    18
100
AcDbVertex
100
AcDb2dVertex
 10
156.4042344444059
 20
-157.1170247003041
 30
0.0
  0
VERTEX
  5
2F1
330
2EE
100
AcDbEntity
  8
Ebene 1
 62
   179
420
  1709851
370
    18
100
AcDbVertex
100
AcDb2dVertex
 10
156.4042344444059
 20
-157.7095811237671
 30
0.0
  0
VERTEX
  5
2F2
330
2EE
100
AcDbEntity
  8
Ebene 1
 62
   179
420
  1709851
370
    18
100
AcDbVertex
100
AcDb2dVertex
 10
137.3962646140884
 20
-157.7095811237671
 30
0.0
  0
SEQEND
  5
2F3
330
2EE
100
AcDbEntity
  8
Ebene 1
370
    18
  0
POLYLINE
  5
2F4
330
291
100
AcDbEntity
  8
Ebene 1
 62
   179
420
  1709851
370
    18
100
AcDb2dPolyline
 66
     1
 10
0.0
 20
0.0
 30
0.0
  0
VERTEX
  5
2F5
330
2F4
100
AcDbEntity
  8
Ebene 1
 62
   179
420
  1709851
370
    18
100
AcDbVertex
100
AcDb2dVertex
 10
139.0051242057001
 20
-157.1170247003041
 30
0.0
  0
VERTEX
  5
2F6
330
2F4
100
AcDbEntity
  8
Ebene 1
 62
   179
420
  1709851
370
    18
100
AcDbVertex
100
AcDb2dVertex
 10
156.4042344444059
 20
-157.1170247003041
 30
0.0
  0
SEQEND
  5
2F7
330
2F4
100
AcDbEntity
  8
Ebene 1
370
    18
  0
POLYLINE
  5
2F8
330
291
100
AcDbEntity
  8
Ebene 1
 62
   179
420
  1709851
370
    18
100
AcDb2dPolyline
 66
     1
 10
0.0
 20
0.0
 30
0.0
  0
VERTEX
  5
2F9
330
2F8
100
AcDbEntity
  8
Ebene 1
 62
   179
420
  1709851
370
    18
100
AcDbVertex
100
AcDb2dVertex
 10
161.6111517608125
 20
-155.9098632422725
 30
0.0
  0
VERTEX
  5
2FA
330
2F8
100
AcDbEntity
  8
Ebene 1
 62
   179
420
  1709851
370
    18
100
AcDbVertex
100
AcDb2dVertex
 10
159.0076931026092
 20
-155.9098632422725
 30
0.0
  0
SEQEND
  5
2FB
330
2F8
100
AcDbEntity
  8
Ebene 1
370
    18
  0
POLYLINE
  5
2FC
330
291
100
AcDbEntity
  8
Ebene 1
 62
   179
420
  1709851
370
    18
100
AcDb2dPolyline
 66
     1
 10
0.0
 20
0.0
 30
0.0
  0
VERTEX
  5
2FD
330
2FC
100
AcDbEntity
  8
Ebene 1
 62
   179
420
  1709851
370
    18
100
AcDbVertex
100
AcDb2dVertex
 10
160.5951931022123
 20
-150.8090548668116
 30
0.0
  0
VERTEX
  5
2FE
330
2FC
100
AcDbEntity
  8
Ebene 1
 62
   179
420
  1709851
370
    18
100
AcDbVertex
100
AcDb2dVertex
 10
160.5951931022123
 20
-162.810389499228
 30
0.0
  0
SEQEND
  5
2FF
330
2FC
100
AcDbEntity
  8
Ebene 1
370
    18
  0
POLYLINE
  5
300
330
291
100
AcDbEntity
  8
Ebene 1
 62
   179
420
  1709851
370
    18
100
AcDb2dPolyline
 66
     1
 10
0.0
 20
0.0
 30
0.0
  0
VERTEX
  5
301
330
300
100
AcDbEntity
  8
Ebene 1
 62
   179
420
  1709851
370
    18
100
AcDbVertex
100
AcDb2dVertex
 10
160.0022921692008
 20
-156.5237792577441
 30
0.0
  0
VERTEX
  5
302
330
300
100
AcDbEntity
  8
Ebene 1
 62
   179
420
  1709851
370
    18
100
AcDbVertex
100
AcDb2dVertex
 10
160.0022921692008
 20
-150.8090548668116
 30
0.0
  0
SEQEND
  5
303
330
300
100
AcDbEntity
  8
Ebene 1
370
    18
  0
POLYLINE
  5
304
330
291
100
AcDbEntity
  8
Ebene 1
 62
   179
420
  1709851
370
    18
100
AcDb2dPolyline
 66
     1
 10
0.0
 20
0.0
 30
0.0
  0
VERTEX
  5
305
330
304
100
AcDbEntity
  8
Ebene 1
 62
   179
420
  1709851
370
    18
100
AcDbVertex
100
AcDb2dVertex
 10
160.0022921692008
 20
-150.8090548668116
 30
0.0
  0
VERTEX
  5
306
330
304
100
AcDbEntity
  8
Ebene 1
 62
   179
420
  1709851
370
    18
100
AcDbVertex
100
AcDb2dVertex
 10
160.5951931022123
 20
-150.8090548668116
 30
0.0
  0
SEQEND
  5
307
330
304
100
AcDbEntity
  8
Ebene 1
370
    18
  0
POLYLINE
  5
308
330
291
100
AcDbEntity
  8
Ebene 1
 62
   179
420
  1709851
370
    18
100
AcDb2dPolyline
 66
     1
 10
0.0
 20
0.0
 30
0.0
  0
VERTEX
  5
309
330
308
100
AcDbEntity
  8
Ebene 1
 62
   179
420
  1709851
370
    18
100
AcDbVertex
100
AcDb2dVertex
 10
160.5951931022123
 20
-162.810389499228
 30
0.0
  0
VERTEX
  5
30A
330
308
100
AcDbEntity
  8
Ebene 1
 62
   179
420
  1709851
370
    18
100
AcDbVertex
100
AcDb2dVertex
 10
160.0022921692008
 20
-162.810389499228
 30
0.0
  0
SEQEND
  5
30B
330
308
100
AcDbEntity
  8
Ebene 1
370
    18
  0
POLYLINE
  5
30C
330
291
100
AcDbEntity
  8
Ebene 1
 62
   179
420
  1709851
370
    18
100
AcDb2dPolyline
 66
     1
 10
0.0
 20
0.0
 30
0.0
  0
VERTEX
  5
30D
330
30C
100
AcDbEntity
  8
Ebene 1
 62
   179
420
  1709851
370
    18
100
AcDbVertex
100
AcDb2dVertex
 10
160.0022921692008
 20
-162.810389499228
 30
0.0
  0
VERTEX
  5
30E
330
30C
100
AcDbEntity
  8
Ebene 1
 62
   179
420
  1709851
370
    18
100
AcDbVertex
100
AcDb2dVertex
 10
160.0022921692008
 20
-157.1170247003041
 30
0.0
  0
SEQEND
  5
30F
330
30C
100
AcDbEntity
  8
Ebene 1
370
    18
  0
POLYLINE
  5
310
330
291
100
AcDbEntity
  8
Ebene 1
 62
   179
420
  1709851
370
    18
100
AcDb2dPolyline
 66
     1
 10
0.0
 20
0.0
 30
0.0
  0
VERTEX
  5
311
330
310
100
AcDbEntity
  8
Ebene 1
 62
   179
420
  1709851
370
    18
100
AcDbVertex
100
AcDb2dVertex
 10
138.4125677822371
 20
-149.6239420198857
 30
0.0
  0
VERTEX
  5
312
330
310
100
AcDbEntity
  8
Ebene 1
 62
   179
420
  1709851
370
    18
100
AcDbVertex
100
AcDb2dVertex
 10
138.4125677822371
 20
-157.7095811237671
 30
0.0
  0
SEQEND
  5
313
330
310
100
AcDbEntity
  8
Ebene 1
370
    18
  0
POLYLINE
  5
314
330
291
100
AcDbEntity
  8
Ebene 1
 62
   179
420
  1709851
370
    18
100
AcDb2dPolyline
 66
     1
 10
0.0
 20
0.0
 30
0.0
  0
VERTEX
  5
315
330
314
100
AcDbEntity
  8
Ebene 1
 62
   179
420
  1709851
370
    18
100
AcDbVertex
100
AcDb2dVertex
 10
150.6044161949878
 20
-157.1170247003041
 30
0.0
  0
VERTEX
  5
316
330
314
100
AcDbEntity
  8
Ebene 1
 62
   179
420
  1709851
370
    18
100
AcDbVertex
100
AcDb2dVertex
 10
150.6044161949878
 20
-156.5237792577441
 30
0.0
  0
VERTEX
  5
317
330
314
100
AcDbEntity
  8
Ebene 1
 62
   179
420
  1709851
370
    18
100
AcDbVertex
100
AcDb2dVertex
 10
160.0022921692008
 20
-156.5237792577441
 30
0.0
  0
SEQEND
  5
318
330
314
100
AcDbEntity
  8
Ebene 1
370
    18
  0
POLYLINE
  5
319
330
291
100
AcDbEntity
  8
Ebene 1
 62
   179
420
  1709851
370
    18
100
AcDb2dPolyline
 66
     1
 10
0.0
 20
0.0
 30
0.0
  0
VERTEX
  5
31A
330
319
100
AcDbEntity
  8
Ebene 1
 62
   179
420
  1709851
370
    18
100
AcDbVertex
100
AcDb2dVertex
 10
138.4125677822371
 20
-149.6239420198857
 30
0.0
  0
VERTEX
  5
31B
330
319
100
AcDbEntity
  8
Ebene 1
 62
   179
420
  1709851
370
    18
100
AcDbVertex
100
AcDb2dVertex
 10
137.3962646140884
 20
-149.6239420198857
 30
0.0
  0
SEQEND
  5
31C
330
319
100
AcDbEntity
  8
Ebene 1
370
    18
  0
POLYLINE
  5
31D
330
291
100
AcDbEntity
  8
Ebene 1
 62
   179
420
  1709851
370
    18
100
AcDb2dPolyline
 66
     1
 10
0.0
 20
0.0
 30
0.0
  0
VERTEX
  5
31E
330
31D
100
AcDbEntity
  8
Ebene 1
 62
   179
420
  1709851
370
    18
100
AcDbVertex
100
AcDb2dVertex
 10
138.4125677822371
 20
-149.6239420198857
 30
0.0
  0
VERTEX
  5
31F
330
31D
100
AcDbEntity
  8
Ebene 1
 62
   179
420
  1709851
370
    18
100
AcDbVertex
100
AcDb2dVertex
 10
139.0051242057001
 20
-149.6239420198857
 30
0.0
  0
VERTEX
  5
320
330
31D
100
AcDbEntity
  8
Ebene 1
 62
   179
420
  1709851
370
    18
100
AcDbVertex
100
AcDb2dVertex
 10
139.0051242057001
 20
-157.1170247003041
 30
0.0
  0
SEQEND
  5
321
330
31D
100
AcDbEntity
  8
Ebene 1
370
    18
  0
POLYLINE
  5
322
330
291
100
AcDbEntity
  8
Ebene 1
 62
   179
420
  1709851
370
    25
100
AcDb2dPolyline
 66
     1
 10
0.0
 20
0.0
 30
0.0
  0
VERTEX
  5
323
330
322
100
AcDbEntity
  8
Ebene 1
 62
   179
420
  1709851
370
    25
100
AcDbVertex
100
AcDb2dVertex
 10
33.40450709885373
 20
-209.6099446090558
 30
0.0
  0
VERTEX
  5
324
330
322
100
AcDbEntity
  8
Ebene 1
 62
   179
420
  1709851
370
    25
100
AcDbVertex
100
AcDb2dVertex
 10
51.41736109825678
 20
-209.6099446090558
 30
0.0
  0
SEQEND
  5
325
330
322
100
AcDbEntity
  8
Ebene 1
370
    25
  0
POLYLINE
  5
326
330
291
100
AcDbEntity
  8
Ebene 1
 62
   179
420
  1709851
370
    25
100
AcDb2dPolyline
 66
     1
 10
0.0
 20
0.0
 30
0.0
  0
VERTEX
  5
327
330
326
100
AcDbEntity
  8
Ebene 1
 62
   179
420
  1709851
370
    25
100
AcDbVertex
100
AcDb2dVertex
 10
51.41736109825678
 20
-211.2188042006675
 30
0.0
  0
VERTEX
  5
328
330
326
100
AcDbEntity
  8
Ebene 1
 62
   179
420
  1709851
370
    25
100
AcDbVertex
100
AcDb2dVertex
 10
33.40450709885373
 20
-211.2188042006675
 30
0.0
  0
SEQEND
  5
329
330
326
100
AcDbEntity
  8
Ebene 1
370
    25
  0
POLYLINE
  5
32A
330
291
100
AcDbEntity
  8
Ebene 1
 62
   179
420
  1709851
370
    18
100
AcDb2dPolyline
 66
     1
 10
0.0
 20
0.0
 30
0.0
  0
VERTEX
  5
32B
330
32A
100
AcDbEntity
  8
Ebene 1
 62
   179
420
  1709851
370
    18
100
AcDbVertex
100
AcDb2dVertex
 10
174.8613335066319
 20
-77.21268579883919
 30
0.0
  0
VERTEX
  5
32C
330
32A
100
AcDbEntity
  8
Ebene 1
 62
   179
420
  1709851
370
    18
100
AcDbVertex
100
AcDb2dVertex
 10
175.2637206593091
 20
-77.21268579883919
 30
0.0
  0
SEQEND
  5
32D
330
32A
100
AcDbEntity
  8
Ebene 1
370
    18
  0
POLYLINE
  5
32E
330
291
100
AcDbEntity
  8
Ebene 1
 62
   179
420
  1709851
370
    18
100
AcDb2dPolyline
 66
     1
 10
0.0
 20
0.0
 30
0.0
  0
VERTEX
  5
32F
330
32E
100
AcDbEntity
  8
Ebene 1
 62
   179
420
  1709851
370
    18
100
AcDbVertex
100
AcDb2dVertex
 10
166.8604437516877
 20
-77.21268579883919
 30
0.0
  0
VERTEX
  5
330
330
32E
100
AcDbEntity
  8
Ebene 1
 62
   179
420
  1709851
370
    18
100
AcDbVertex
100
AcDb2dVertex
 10
173.8453748480317
 20
-77.21268579883919
 30
0.0
  0
SEQEND
  5
331
330
32E
100
AcDbEntity
  8
Ebene 1
370
    18
  0
POLYLINE
  5
332
330
291
100
AcDbEntity
  8
Ebene 1
 62
   179
420
  1709851
370
    18
100
AcDb2dPolyline
 66
     1
 10
0.0
 20
0.0
 30
0.0
  0
VERTEX
  5
333
330
332
100
AcDbEntity
  8
Ebene 1
 62
   179
420
  1709851
370
    18
100
AcDbVertex
100
AcDb2dVertex
 10
164.8495415169473
 20
-77.21268579883919
 30
0.0
  0
VERTEX
  5
334
330
332
100
AcDbEntity
  8
Ebene 1
 62
   179
420
  1709851
370
    18
100
AcDbVertex
100
AcDb2dVertex
 10
165.8655001755475
 20
-77.21268579883919
 30
0.0
  0
SEQEND
  5
335
330
332
100
AcDbEntity
  8
Ebene 1
370
    18
  0
POLYLINE
  5
336
330
291
100
AcDbEntity
  8
Ebene 1
 62
   179
420
  1709851
370
    18
100
AcDb2dPolyline
 66
     1
 10
0.0
 20
0.0
 30
0.0
  0
VERTEX
  5
337
330
336
100
AcDbEntity
  8
Ebene 1
 62
   179
420
  1709851
370
    18
100
AcDbVertex
100
AcDb2dVertex
 10
156.8486517620031
 20
-77.21268579883919
 30
0.0
  0
VERTEX
  5
338
330
336
100
AcDbEntity
  8
Ebene 1
 62
   179
420
  1709851
370
    18
100
AcDbVertex
100
AcDb2dVertex
 10
163.8545979408072
 20
-77.21268579883919
 30
0.0
  0
SEQEND
  5
339
330
336
100
AcDbEntity
  8
Ebene 1
370
    18
  0
POLYLINE
  5
33A
330
291
100
AcDbEntity
  8
Ebene 1
 62
   179
420
  1709851
370
    18
100
AcDb2dPolyline
 66
     1
 10
0.0
 20
0.0
 30
0.0
  0
VERTEX
  5
33B
330
33A
100
AcDbEntity
  8
Ebene 1
 62
   179
420
  1709851
370
    18
100
AcDbVertex
100
AcDb2dVertex
 10
154.8587646097228
 20
-77.21268579883919
 30
0.0
  0
VERTEX
  5
33C
330
33A
100
AcDbEntity
  8
Ebene 1
 62
   179
420
  1709851
370
    18
100
AcDbVertex
100
AcDb2dVertex
 10
155.853708185863
 20
-77.21268579883919
 30
0.0
  0
SEQEND
  5
33D
330
33A
100
AcDbEntity
  8
Ebene 1
370
    18
  0
POLYLINE
  5
33E
330
291
100
AcDbEntity
  8
Ebene 1
 62
   179
420
  1709851
370
    18
100
AcDb2dPolyline
 66
     1
 10
0.0
 20
0.0
 30
0.0
  0
VERTEX
  5
33F
330
33E
100
AcDbEntity
  8
Ebene 1
 62
   179
420
  1709851
370
    18
100
AcDbVertex
100
AcDb2dVertex
 10
146.8578748547786
 20
-77.21268579883919
 30
0.0
  0
VERTEX
  5
340
330
33E
100
AcDbEntity
  8
Ebene 1
 62
   179
420
  1709851
370
    18
100
AcDbVertex
100
AcDb2dVertex
 10
153.8641655431312
 20
-77.21268579883919
 30
0.0
  0
SEQEND
  5
341
330
33E
100
AcDbEntity
  8
Ebene 1
370
    18
  0
POLYLINE
  5
342
330
291
100
AcDbEntity
  8
Ebene 1
 62
   179
420
  1709851
370
    18
100
AcDb2dPolyline
 66
     1
 10
0.0
 20
0.0
 30
0.0
  0
VERTEX
  5
343
330
342
100
AcDbEntity
  8
Ebene 1
 62
   179
420
  1709851
370
    18
100
AcDbVertex
100
AcDb2dVertex
 10
144.8683322120468
 20
-77.21268579883919
 30
0.0
  0
VERTEX
  5
344
330
342
100
AcDbEntity
  8
Ebene 1
 62
   179
420
  1709851
370
    18
100
AcDbVertex
100
AcDb2dVertex
 10
145.8629312786384
 20
-77.21268579883919
 30
0.0
  0
SEQEND
  5
345
330
342
100
AcDbEntity
  8
Ebene 1
370
    18
  0
POLYLINE
  5
346
330
291
100
AcDbEntity
  8
Ebene 1
 62
   179
420
  1709851
370
    18
100
AcDb2dPolyline
 66
     1
 10
0.0
 20
0.0
 30
0.0
  0
VERTEX
  5
347
330
346
100
AcDbEntity
  8
Ebene 1
 62
   179
420
  1709851
370
    18
100
AcDbVertex
100
AcDb2dVertex
 10
136.8670979475541
 20
-77.21268579883919
 30
0.0
  0
VERTEX
  5
348
330
346
100
AcDbEntity
  8
Ebene 1
 62
   179
420
  1709851
370
    18
100
AcDbVertex
100
AcDb2dVertex
 10
143.8523735534466
 20
-77.21268579883919
 30
0.0
  0
SEQEND
  5
349
330
346
100
AcDbEntity
  8
Ebene 1
370
    18
  0
POLYLINE
  5
34A
330
291
100
AcDbEntity
  8
Ebene 1
 62
   179
420
  1709851
370
    18
100
AcDb2dPolyline
 66
     1
 10
0.0
 20
0.0
 30
0.0
  0
VERTEX
  5
34B
330
34A
100
AcDbEntity
  8
Ebene 1
 62
   179
420
  1709851
370
    18
100
AcDbVertex
100
AcDb2dVertex
 10
134.8568847319108
 20
-77.21268579883919
 30
0.0
  0
VERTEX
  5
34C
330
34A
100
AcDbEntity
  8
Ebene 1
 62
   179
420
  1709851
370
    18
100
AcDbVertex
100
AcDb2dVertex
 10
135.8511392889539
 20
-77.21268579883919
 30
0.0
  0
SEQEND
  5
34D
330
34A
100
AcDbEntity
  8
Ebene 1
370
    18
  0
POLYLINE
  5
34E
330
291
100
AcDbEntity
  8
Ebene 1
 62
   179
420
  1709851
370
    18
100
AcDb2dPolyline
 66
     1
 10
0.0
 20
0.0
 30
0.0
  0
VERTEX
  5
34F
330
34E
100
AcDbEntity
  8
Ebene 1
 62
   179
420
  1709851
370
    18
100
AcDbVertex
100
AcDb2dVertex
 10
126.8553059578695
 20
-77.21268579883919
 30
0.0
  0
VERTEX
  5
350
330
34E
100
AcDbEntity
  8
Ebene 1
 62
   179
420
  1709851
370
    18
100
AcDbVertex
100
AcDb2dVertex
 10
133.8615966462221
 20
-77.21268579883919
 30
0.0
  0
SEQEND
  5
351
330
34E
100
AcDbEntity
  8
Ebene 1
370
    18
  0
POLYLINE
  5
352
330
291
100
AcDbEntity
  8
Ebene 1
 62
   179
420
  1709851
370
    18
100
AcDb2dPolyline
 66
     1
 10
0.0
 20
0.0
 30
0.0
  0
VERTEX
  5
353
330
352
100
AcDbEntity
  8
Ebene 1
 62
   179
420
  1709851
370
    18
100
AcDbVertex
100
AcDb2dVertex
 10
124.8657633151377
 20
-77.21268579883919
 30
0.0
  0
VERTEX
  5
354
330
352
100
AcDbEntity
  8
Ebene 1
 62
   179
420
  1709851
370
    18
100
AcDbVertex
100
AcDb2dVertex
 10
125.8610514008264
 20
-77.21268579883919
 30
0.0
  0
SEQEND
  5
355
330
352
100
AcDbEntity
  8
Ebene 1
370
    18
  0
POLYLINE
  5
356
330
291
100
AcDbEntity
  8
Ebene 1
 62
   179
420
  1709851
370
    18
100
AcDb2dPolyline
 66
     1
 10
0.0
 20
0.0
 30
0.0
  0
VERTEX
  5
357
330
356
100
AcDbEntity
  8
Ebene 1
 62
   179
420
  1709851
370
    18
100
AcDbVertex
100
AcDb2dVertex
 10
116.865218069742
 20
-77.21268579883919
 30
0.0
  0
VERTEX
  5
358
330
356
100
AcDbEntity
  8
Ebene 1
 62
   179
420
  1709851
370
    18
100
AcDbVertex
100
AcDb2dVertex
 10
123.8498046565376
 20
-77.21268579883919
 30
0.0
  0
SEQEND
  5
359
330
356
100
AcDbEntity
  8
Ebene 1
370
    18
  0
POLYLINE
  5
35A
330
291
100
AcDbEntity
  8
Ebene 1
 62
   179
420
  1709851
370
    18
100
AcDb2dPolyline
 66
     1
 10
0.0
 20
0.0
 30
0.0
  0
VERTEX
  5
35B
330
35A
100
AcDbEntity
  8
Ebene 1
 62
   179
420
  1709851
370
    18
100
AcDbVertex
100
AcDb2dVertex
 10
114.8539713254532
 20
-77.21268579883919
 30
0.0
  0
VERTEX
  5
35C
330
35A
100
AcDbEntity
  8
Ebene 1
 62
   179
420
  1709851
370
    18
100
AcDbVertex
100
AcDb2dVertex
 10
115.8699299840534
 20
-77.21268579883919
 30
0.0
  0
SEQEND
  5
35D
330
35A
100
AcDbEntity
  8
Ebene 1
370
    18
  0
POLYLINE
  5
35E
330
291
100
AcDbEntity
  8
Ebene 1
 62
   179
420
  1709851
370
    18
100
AcDb2dPolyline
 66
     1
 10
0.0
 20
0.0
 30
0.0
  0
VERTEX
  5
35F
330
35E
100
AcDbEntity
  8
Ebene 1
 62
   179
420
  1709851
370
    18
100
AcDbVertex
100
AcDb2dVertex
 10
106.853081570509
 20
-77.21268579883919
 30
0.0
  0
VERTEX
  5
360
330
35E
100
AcDbEntity
  8
Ebene 1
 62
   179
420
  1709851
370
    18
100
AcDbVertex
100
AcDb2dVertex
 10
113.859027749313
 20
-77.21268579883919
 30
0.0
  0
SEQEND
  5
361
330
35E
100
AcDbEntity
  8
Ebene 1
370
    18
  0
POLYLINE
  5
362
330
291
100
AcDbEntity
  8
Ebene 1
 62
   179
420
  1709851
370
    18
100
AcDb2dPolyline
 66
     1
 10
0.0
 20
0.0
 30
0.0
  0
VERTEX
  5
363
330
362
100
AcDbEntity
  8
Ebene 1
 62
   179
420
  1709851
370
    18
100
AcDbVertex
100
AcDb2dVertex
 10
104.8631944182286
 20
-77.21268579883919
 30
0.0
  0
VERTEX
  5
364
330
362
100
AcDbEntity
  8
Ebene 1
 62
   179
420
  1709851
370
    18
100
AcDbVertex
100
AcDb2dVertex
 10
105.8581379943688
 20
-77.21268579883919
 30
0.0
  0
SEQEND
  5
365
330
362
100
AcDbEntity
  8
Ebene 1
370
    18
  0
POLYLINE
  5
366
330
291
100
AcDbEntity
  8
Ebene 1
 62
   179
420
  1709851
370
    18
100
AcDb2dPolyline
 66
     1
 10
0.0
 20
0.0
 30
0.0
  0
VERTEX
  5
367
330
366
100
AcDbEntity
  8
Ebene 1
 62
   179
420
  1709851
370
    18
100
AcDbVertex
100
AcDb2dVertex
 10
96.86213240851016
 20
-77.21268579883919
 30
0.0
  0
VERTEX
  5
368
330
366
100
AcDbEntity
  8
Ebene 1
 62
   179
420
  1709851
370
    18
100
AcDbVertex
100
AcDb2dVertex
 10
103.8684230968628
 20
-77.21268579883919
 30
0.0
  0
SEQEND
  5
369
330
366
100
AcDbEntity
  8
Ebene 1
370
    18
  0
POLYLINE
  5
36A
330
291
100
AcDbEntity
  8
Ebene 1
 62
   179
420
  1709851
370
    18
100
AcDb2dPolyline
 66
     1
 10
0.0
 20
0.0
 30
0.0
  0
VERTEX
  5
36B
330
36A
100
AcDbEntity
  8
Ebene 1
 62
   179
420
  1709851
370
    18
100
AcDbVertex
100
AcDb2dVertex
 10
94.87258976577839
 20
-77.21268579883919
 30
0.0
  0
VERTEX
  5
36C
330
36A
100
AcDbEntity
  8
Ebene 1
 62
   179
420
  1709851
370
    18
100
AcDbVertex
100
AcDb2dVertex
 10
95.86736108714427
 20
-77.21268579883919
 30
0.0
  0
SEQEND
  5
36D
330
36A
100
AcDbEntity
  8
Ebene 1
370
    18
  0
POLYLINE
  5
36E
330
291
100
AcDbEntity
  8
Ebene 1
 62
   179
420
  1709851
370
    18
100
AcDb2dPolyline
 66
     1
 10
0.0
 20
0.0
 30
0.0
  0
VERTEX
  5
36F
330
36E
100
AcDbEntity
  8
Ebene 1
 62
   179
420
  1709851
370
    18
100
AcDbVertex
100
AcDb2dVertex
 10
86.8715277560599
 20
-77.21268579883919
 30
0.0
  0
VERTEX
  5
370
330
36E
100
AcDbEntity
  8
Ebene 1
 62
   179
420
  1709851
370
    18
100
AcDbVertex
100
AcDb2dVertex
 10
93.85645885240395
 20
-77.21268579883919
 30
0.0
  0
SEQEND
  5
371
330
36E
100
AcDbEntity
  8
Ebene 1
370
    18
  0
POLYLINE
  5
372
330
291
100
AcDbEntity
  8
Ebene 1
 62
   179
420
  1709851
370
    18
100
AcDb2dPolyline
 66
     1
 10
0.0
 20
0.0
 30
0.0
  0
VERTEX
  5
373
330
372
100
AcDbEntity
  8
Ebene 1
 62
   179
420
  1709851
370
    18
100
AcDbVertex
100
AcDb2dVertex
 10
84.86062552131958
 20
-77.21268579883919
 30
0.0
  0
VERTEX
  5
374
330
372
100
AcDbEntity
  8
Ebene 1
 62
   179
420
  1709851
370
    18
100
AcDbVertex
100
AcDb2dVertex
 10
85.85556909745972
 20
-77.21268579883919
 30
0.0
  0
SEQEND
  5
375
330
372
100
AcDbEntity
  8
Ebene 1
370
    18
  0
POLYLINE
  5
376
330
291
100
AcDbEntity
  8
Ebene 1
 62
   179
420
  1709851
370
    18
100
AcDb2dPolyline
 66
     1
 10
0.0
 20
0.0
 30
0.0
  0
VERTEX
  5
377
330
376
100
AcDbEntity
  8
Ebene 1
 62
   179
420
  1709851
370
    18
100
AcDbVertex
100
AcDb2dVertex
 10
76.85973576637535
 20
-77.21268579883919
 30
0.0
  0
VERTEX
  5
378
330
376
100
AcDbEntity
  8
Ebene 1
 62
   179
420
  1709851
370
    18
100
AcDbVertex
100
AcDb2dVertex
 10
83.86585419995367
 20
-77.21268579883919
 30
0.0
  0
SEQEND
  5
379
330
376
100
AcDbEntity
  8
Ebene 1
370
    18
  0
POLYLINE
  5
37A
330
291
100
AcDbEntity
  8
Ebene 1
 62
   179
420
  1709851
370
    18
100
AcDb2dPolyline
 66
     1
 10
0.0
 20
0.0
 30
0.0
  0
VERTEX
  5
37B
330
37A
100
AcDbEntity
  8
Ebene 1
 62
   179
420
  1709851
370
    18
100
AcDbVertex
100
AcDb2dVertex
 10
74.8700208688693
 20
-77.21268579883919
 30
0.0
  0
VERTEX
  5
37C
330
37A
100
AcDbEntity
  8
Ebene 1
 62
   179
420
  1709851
370
    18
100
AcDbVertex
100
AcDb2dVertex
 10
75.86479219023519
 20
-77.21268579883919
 30
0.0
  0
SEQEND
  5
37D
330
37A
100
AcDbEntity
  8
Ebene 1
370
    18
  0
POLYLINE
  5
37E
330
291
100
AcDbEntity
  8
Ebene 1
 62
   179
420
  1709851
370
    18
100
AcDb2dPolyline
 66
     1
 10
0.0
 20
0.0
 30
0.0
  0
VERTEX
  5
37F
330
37E
100
AcDbEntity
  8
Ebene 1
 62
   179
420
  1709851
370
    18
100
AcDbVertex
100
AcDb2dVertex
 10
73.40947263789764
 20
-77.21268579883919
 30
0.0
  0
VERTEX
  5
380
330
37E
100
AcDbEntity
  8
Ebene 1
 62
   179
420
  1709851
370
    18
100
AcDbVertex
100
AcDb2dVertex
 10
73.40947263789764
 20
-77.21268579883919
 30
0.0
  0
VERTEX
  5
381
330
37E
100
AcDbEntity
  8
Ebene 1
 62
   179
420
  1709851
370
    18
100
AcDbVertex
100
AcDb2dVertex
 10
73.85406221026912
 20
-77.21268579883919
 30
0.0
  0
SEQEND
  5
382
330
37E
100
AcDbEntity
  8
Ebene 1
370
    18
  0
POLYLINE
  5
383
330
291
100
AcDbEntity
  8
Ebene 1
 62
   179
420
  1709851
370
    18
100
AcDb2dPolyline
 66
     1
 10
0.0
 20
0.0
 30
0.0
  0
VERTEX
  5
384
330
383
100
AcDbEntity
  8
Ebene 1
 62
   179
420
  1709851
370
    18
100
AcDbVertex
100
AcDb2dVertex
 10
74.21390243370347
 20
-202.0114420067888
 30
0.0
  0
VERTEX
  5
385
330
383
100
AcDbEntity
  8
Ebene 1
 62
   179
420
  1709851
370
    18
100
AcDbVertex
100
AcDb2dVertex
 10
33.40450709885373
 20
-202.0114420067888
 30
0.0
  0
SEQEND
  5
386
330
383
100
AcDbEntity
  8
Ebene 1
370
    18
  0
POLYLINE
  5
387
330
291
100
AcDbEntity
  8
Ebene 1
 62
   179
420
  1709851
370
    18
100
AcDb2dPolyline
 66
     1
 10
0.0
 20
0.0
 30
0.0
  0
VERTEX
  5
388
330
387
100
AcDbEntity
  8
Ebene 1
 62
   179
420
  1709851
370
    18
100
AcDbVertex
100
AcDb2dVertex
 10
33.40450709885373
 20
-206.4135850178411
 30
0.0
  0
VERTEX
  5
389
330
387
100
AcDbEntity
  8
Ebene 1
 62
   179
420
  1709851
370
    18
100
AcDbVertex
100
AcDb2dVertex
 10
74.21390243370347
 20
-206.4135850178411
 30
0.0
  0
SEQEND
  5
38A
330
387
100
AcDbEntity
  8
Ebene 1
370
    18
  0
POLYLINE
  5
38B
330
291
100
AcDbEntity
  8
Ebene 1
 62
   179
420
  1709851
370
    25
100
AcDb2dPolyline
 66
     1
 10
0.0
 20
0.0
 30
0.0
  0
VERTEX
  5
38C
330
38B
100
AcDbEntity
  8
Ebene 1
 62
   179
420
  1709851
370
    25
100
AcDbVertex
100
AcDb2dVertex
 10
169.802555296091
 20
-77.21234128929066
 30
0.0
  0
VERTEX
  5
38D
330
38B
100
AcDbEntity
  8
Ebene 1
 62
   179
420
  1709851
370
    25
100
AcDbVertex
100
AcDb2dVertex
 10
169.802555296091
 20
-88.02856307478106
 30
0.0
  0
SEQEND
  5
38E
330
38B
100
AcDbEntity
  8
Ebene 1
370
    25
  0
POLYLINE
  5
38F
330
291
100
AcDbEntity
  8
Ebene 1
 62
   179
420
  1709851
370
    25
100
AcDb2dPolyline
 66
     1
 10
0.0
 20
0.0
 30
0.0
  0
VERTEX
  5
390
330
38F
100
AcDbEntity
  8
Ebene 1
 62
   179
420
  1709851
370
    25
100
AcDbVertex
100
AcDb2dVertex
 10
171.4114148877027
 20
-88.02856307478106
 30
0.0
  0
VERTEX
  5
391
330
38F
100
AcDbEntity
  8
Ebene 1
 62
   179
420
  1709851
370
    25
100
AcDbVertex
100
AcDb2dVertex
 10
171.4114148877027
 20
-77.21234128929066
 30
0.0
  0
SEQEND
  5
392
330
38F
100
AcDbEntity
  8
Ebene 1
370
    25
  0
POLYLINE
  5
393
330
291
100
AcDbEntity
  8
Ebene 1
 62
   179
420
  1709851
370
    18
100
AcDb2dPolyline
 66
     1
 10
0.0
 20
0.0
 30
0.0
  0
VERTEX
  5
394
330
393
100
AcDbEntity
  8
Ebene 1
 62
   179
420
  1709851
370
    18
100
AcDbVertex
100
AcDb2dVertex
 10
165.9082193595646
 20
-112.2224351390451
 30
0.0
  0
VERTEX
  5
395
330
393
100
AcDbEntity
  8
Ebene 1
 62
   179
420
  1709851
370
    18
100
AcDbVertex
100
AcDb2dVertex
 10
162.9023735486841
 20
-112.2224351390451
 30
0.0
  0
SEQEND
  5
396
330
393
100
AcDbEntity
  8
Ebene 1
370
    18
  0
POLYLINE
  5
397
330
291
100
AcDbEntity
  8
Ebene 1
 62
   179
420
  1709851
370
    18
100
AcDb2dPolyline
 66
     1
 10
0.0
 20
0.0
 30
0.0
  0
VERTEX
  5
398
330
397
100
AcDbEntity
  8
Ebene 1
 62
   179
420
  1709851
370
    18
100
AcDbVertex
100
AcDb2dVertex
 10
162.9023735486841
 20
-112.2224351390451
 30
0.0
  0
VERTEX
  5
399
330
397
100
AcDbEntity
  8
Ebene 1
 62
   179
420
  1709851
370
    18
100
AcDbVertex
100
AcDb2dVertex
 10
162.9023735486841
 20
-112.6244777821737
 30
0.0
  0
VERTEX
  5
39A
330
397
100
AcDbEntity
  8
Ebene 1
 62
   179
420
  1709851
370
    18
100
AcDbVertex
100
AcDb2dVertex
 10
165.9082193595646
 20
-112.6244777821737
 30
0.0
  0
SEQEND
  5
39B
330
397
100
AcDbEntity
  8
Ebene 1
370
    18
  0
POLYLINE
  5
39C
330
291
100
AcDbEntity
  8
Ebene 1
 62
   179
420
  1709851
370
    18
100
AcDb2dPolyline
 66
     1
 10
0.0
 20
0.0
 30
0.0
  0
VERTEX
  5
39D
330
39C
100
AcDbEntity
  8
Ebene 1
 62
   179
420
  1709851
370
    18
100
AcDbVertex
100
AcDb2dVertex
 10
165.9082193595646
 20
-112.6244777821737
 30
0.0
  0
VERTEX
  5
39E
330
39C
100
AcDbEntity
  8
Ebene 1
 62
   179
420
  1709851
370
    18
100
AcDbVertex
100
AcDb2dVertex
 10
165.9082193595646
 20
-112.2224351390451
 30
0.0
  0
SEQEND
  5
39F
330
39C
100
AcDbEntity
  8
Ebene 1
370
    18
  0
POLYLINE
  5
3A0
330
291
100
AcDbEntity
  8
Ebene 1
 62
   179
420
  1709851
370
    18
100
AcDb2dPolyline
 66
     1
 10
0.0
 20
0.0
 30
0.0
  0
VERTEX
  5
3A1
330
3A0
100
AcDbEntity
  8
Ebene 1
 62
   179
420
  1709851
370
    18
100
AcDbVertex
100
AcDb2dVertex
 10
167.0085828575534
 20
-180.2094997379338
 30
0.0
  0
VERTEX
  5
3A2
330
3A0
100
AcDbEntity
  8
Ebene 1
 62
   179
420
  1709851
370
    18
100
AcDbVertex
100
AcDb2dVertex
 10
167.1990966378877
 20
-180.2094997379338
 30
0.0
  0
SEQEND
  5
3A3
330
3A0
100
AcDbEntity
  8
Ebene 1
370
    18
  0
POLYLINE
  5
3A4
330
291
100
AcDbEntity
  8
Ebene 1
 62
   179
420
  1709851
370
    18
100
AcDb2dPolyline
 66
     1
 10
0.0
 20
0.0
 30
0.0
  0
VERTEX
  5
3A5
330
3A4
100
AcDbEntity
  8
Ebene 1
 62
   179
420
  1709851
370
    18
100
AcDbVertex
100
AcDb2dVertex
 10
167.1990966378877
 20
-186.2205023405976
 30
0.0
  0
VERTEX
  5
3A6
330
3A4
100
AcDbEntity
  8
Ebene 1
 62
   179
420
  1709851
370
    18
100
AcDbVertex
100
AcDb2dVertex
 10
167.0085828575534
 20
-186.2205023405976
 30
0.0
  0
SEQEND
  5
3A7
330
3A4
100
AcDbEntity
  8
Ebene 1
370
    18
  0
POLYLINE
  5
3A8
330
291
100
AcDbEntity
  8
Ebene 1
 62
   179
420
  1709851
370
    18
100
AcDb2dPolyline
 66
     1
 10
0.0
 20
0.0
 30
0.0
  0
VERTEX
  5
3A9
330
3A8
100
AcDbEntity
  8
Ebene 1
 62
   179
420
  1709851
370
    18
100
AcDbVertex
100
AcDb2dVertex
 10
162.0131944039412
 20
-179.1084472208479
 30
0.0
  0
VERTEX
  5
3AA
330
3A8
100
AcDbEntity
  8
Ebene 1
 62
   179
420
  1709851
370
    18
100
AcDbVertex
100
AcDb2dVertex
 10
162.0131944039412
 20
-176.9077202248703
 30
0.0
  0
SEQEND
  5
3AB
330
3A8
100
AcDbEntity
  8
Ebene 1
370
    18
  0
POLYLINE
  5
3AC
330
291
100
AcDbEntity
  8
Ebene 1
 62
   179
420
  1709851
370
    18
100
AcDb2dPolyline
 66
     1
 10
0.0
 20
0.0
 30
0.0
  0
VERTEX
  5
3AD
330
3AC
100
AcDbEntity
  8
Ebene 1
 62
   179
420
  1709851
370
    18
100
AcDbVertex
100
AcDb2dVertex
 10
165.6963459872217
 20
-179.2145561617936
 30
0.0
  0
VERTEX
  5
3AE
330
3AC
100
AcDbEntity
  8
Ebene 1
 62
   179
420
  1709851
370
    18
100
AcDbVertex
100
AcDb2dVertex
 10
166.7123046458219
 20
-179.2145561617936
 30
0.0
  0
SEQEND
  5
3AF
330
3AC
100
AcDbEntity
  8
Ebene 1
370
    18
  0
POLYLINE
  5
3B0
330
291
100
AcDbEntity
  8
Ebene 1
 62
   179
420
  1709851
370
    18
100
AcDb2dPolyline
 66
     1
 10
0.0
 20
0.0
 30
0.0
  0
VERTEX
  5
3B1
330
3B0
100
AcDbEntity
  8
Ebene 1
 62
   179
420
  1709851
370
    18
100
AcDbVertex
100
AcDb2dVertex
 10
166.7970539947591
 20
-176.9077202248703
 30
0.0
  0
VERTEX
  5
3B2
330
3B0
100
AcDbEntity
  8
Ebene 1
 62
   179
420
  1709851
370
    18
100
AcDbVertex
100
AcDb2dVertex
 10
166.7546793202905
 20
-176.8436414488447
 30
0.0
  0
VERTEX
  5
3B3
330
3B0
100
AcDbEntity
  8
Ebene 1
 62
   179
420
  1709851
370
    18
100
AcDbVertex
100
AcDb2dVertex
 10
166.7123046458219
 20
-176.8229708759332
 30
0.0
  0
SEQEND
  5
3B4
330
3B0
100
AcDbEntity
  8
Ebene 1
370
    18
  0
POLYLINE
  5
3B5
330
291
100
AcDbEntity
  8
Ebene 1
 62
   179
420
  1709851
370
    18
100
AcDb2dPolyline
 66
     1
 10
0.0
 20
0.0
 30
0.0
  0
VERTEX
  5
3B6
330
3B5
100
AcDbEntity
  8
Ebene 1
 62
   179
420
  1709851
370
    18
100
AcDbVertex
100
AcDb2dVertex
 10
166.7123046458219
 20
-179.2145561617936
 30
0.0
  0
VERTEX
  5
3B7
330
3B5
100
AcDbEntity
  8
Ebene 1
 62
   179
420
  1709851
370
    18
100
AcDbVertex
100
AcDb2dVertex
 10
166.7756944027505
 20
-179.1725259968735
 30
0.0
  0
VERTEX
  5
3B8
330
3B5
100
AcDbEntity
  8
Ebene 1
 62
   179
420
  1709851
370
    18
100
AcDbVertex
100
AcDb2dVertex
 10
166.7970539947591
 20
-179.1084472208479
 30
0.0
  0
SEQEND
  5
3B9
330
3B5
100
AcDbEntity
  8
Ebene 1
370
    18
  0
POLYLINE
  5
3BA
330
291
100
AcDbEntity
  8
Ebene 1
 62
   179
420
  1709851
370
    18
100
AcDb2dPolyline
 66
     1
 10
0.0
 20
0.0
 30
0.0
  0
VERTEX
  5
3BB
330
3BA
100
AcDbEntity
  8
Ebene 1
 62
   179
420
  1709851
370
    18
100
AcDbVertex
100
AcDb2dVertex
 10
166.7970539947591
 20
-176.9077202248703
 30
0.0
  0
VERTEX
  5
3BC
330
3BA
100
AcDbEntity
  8
Ebene 1
 62
   179
420
  1709851
370
    18
100
AcDbVertex
100
AcDb2dVertex
 10
166.7970539947591
 20
-179.1084472208479
 30
0.0
  0
SEQEND
  5
3BD
330
3BA
100
AcDbEntity
  8
Ebene 1
370
    18
  0
POLYLINE
  5
3BE
330
291
100
AcDbEntity
  8
Ebene 1
 62
   179
420
  1709851
370
    18
100
AcDb2dPolyline
 66
     1
 10
0.0
 20
0.0
 30
0.0
  0
VERTEX
  5
3BF
330
3BE
100
AcDbEntity
  8
Ebene 1
 62
   179
420
  1709851
370
    18
100
AcDbVertex
100
AcDb2dVertex
 10
162.0979437528783
 20
-176.8229708759332
 30
0.0
  0
VERTEX
  5
3C0
330
3BE
100
AcDbEntity
  8
Ebene 1
 62
   179
420
  1709851
370
    18
100
AcDbVertex
100
AcDb2dVertex
 10
162.0131944039412
 20
-176.8436414488447
 30
0.0
  0
VERTEX
  5
3C1
330
3BE
100
AcDbEntity
  8
Ebene 1
 62
   179
420
  1709851
370
    18
100
AcDbVertex
100
AcDb2dVertex
 10
162.0131944039412
 20
-176.9077202248703
 30
0.0
  0
SEQEND
  5
3C2
330
3BE
100
AcDbEntity
  8
Ebene 1
370
    18
  0
POLYLINE
  5
3C3
330
291
100
AcDbEntity
  8
Ebene 1
 62
   179
420
  1709851
370
    18
100
AcDb2dPolyline
 66
     1
 10
0.0
 20
0.0
 30
0.0
  0
VERTEX
  5
3C4
330
3C3
100
AcDbEntity
  8
Ebene 1
 62
   179
420
  1709851
370
    18
100
AcDbVertex
100
AcDb2dVertex
 10
162.0979437528783
 20
-176.8229708759332
 30
0.0
  0
VERTEX
  5
3C5
330
3C3
100
AcDbEntity
  8
Ebene 1
 62
   179
420
  1709851
370
    18
100
AcDbVertex
100
AcDb2dVertex
 10
166.7123046458219
 20
-176.8229708759332
 30
0.0
  0
SEQEND
  5
3C6
330
3C3
100
AcDbEntity
  8
Ebene 1
370
    18
  0
POLYLINE
  5
3C7
330
291
100
AcDbEntity
  8
Ebene 1
 62
   179
420
  1709851
370
    18
100
AcDb2dPolyline
 66
     1
 10
0.0
 20
0.0
 30
0.0
  0
VERTEX
  5
3C8
330
3C7
100
AcDbEntity
  8
Ebene 1
 62
   179
420
  1709851
370
    18
100
AcDbVertex
100
AcDb2dVertex
 10
162.0131944039412
 20
-179.1084472208479
 30
0.0
  0
VERTEX
  5
3C9
330
3C7
100
AcDbEntity
  8
Ebene 1
 62
   179
420
  1709851
370
    18
100
AcDbVertex
100
AcDb2dVertex
 10
162.0345539959497
 20
-179.193196569785
 30
0.0
  0
VERTEX
  5
3CA
330
3C7
100
AcDbEntity
  8
Ebene 1
 62
   179
420
  1709851
370
    18
100
AcDbVertex
100
AcDb2dVertex
 10
162.0979437528783
 20
-179.2145561617936
 30
0.0
  0
SEQEND
  5
3CB
330
3C7
100
AcDbEntity
  8
Ebene 1
370
    18
  0
POLYLINE
  5
3CC
330
291
100
AcDbEntity
  8
Ebene 1
 62
   179
420
  1709851
370
    18
100
AcDb2dPolyline
 66
     1
 10
0.0
 20
0.0
 30
0.0
  0
VERTEX
  5
3CD
330
3CC
100
AcDbEntity
  8
Ebene 1
 62
   179
420
  1709851
370
    18
100
AcDbVertex
100
AcDb2dVertex
 10
165.6963459872217
 20
-179.2145561617936
 30
0.0
  0
VERTEX
  5
3CE
330
3CC
100
AcDbEntity
  8
Ebene 1
 62
   179
420
  1709851
370
    18
100
AcDbVertex
100
AcDb2dVertex
 10
163.1139024114785
 20
-179.2145561617936
 30
0.0
  0
VERTEX
  5
3CF
330
3CC
100
AcDbEntity
  8
Ebene 1
 62
   179
420
  1709851
370
    18
100
AcDbVertex
100
AcDb2dVertex
 10
162.0979437528783
 20
-179.2145561617936
 30
0.0
  0
SEQEND
  5
3D0
330
3CC
100
AcDbEntity
  8
Ebene 1
370
    18
  0
POLYLINE
  5
3D1
330
291
100
AcDbEntity
  8
Ebene 1
 62
   179
420
  1709851
370
    18
100
AcDb2dPolyline
 66
     1
 10
0.0
 20
0.0
 30
0.0
  0
VERTEX
  5
3D2
330
3D1
100
AcDbEntity
  8
Ebene 1
 62
   179
420
  1709851
370
    18
100
AcDbVertex
100
AcDb2dVertex
 10
165.6963459872217
 20
-179.2145561617936
 30
0.0
  0
VERTEX
  5
3D3
330
3D1
100
AcDbEntity
  8
Ebene 1
 62
   179
420
  1709851
370
    18
100
AcDbVertex
100
AcDb2dVertex
 10
165.6963459872217
 20
-181.2044433140739
 30
0.0
  0
SEQEND
  5
3D4
330
3D1
100
AcDbEntity
  8
Ebene 1
370
    18
  0
POLYLINE
  5
3D5
330
291
100
AcDbEntity
  8
Ebene 1
 62
   179
420
  1709851
370
    18
100
AcDb2dPolyline
 66
     1
 10
0.0
 20
0.0
 30
0.0
  0
VERTEX
  5
3D6
330
3D5
100
AcDbEntity
  8
Ebene 1
 62
   179
420
  1709851
370
    18
100
AcDbVertex
100
AcDb2dVertex
 10
167.0085828575534
 20
-186.8137477831577
 30
0.0
  0
VERTEX
  5
3D7
330
3D5
100
AcDbEntity
  8
Ebene 1
 62
   179
420
  1709851
370
    18
100
AcDbVertex
100
AcDb2dVertex
 10
167.0085828575534
 20
-179.6169433144708
 30
0.0
  0
VERTEX
  5
3D8
330
3D5
100
AcDbEntity
  8
Ebene 1
 62
   179
420
  1709851
370
    18
100
AcDbVertex
100
AcDb2dVertex
 10
165.6963459872217
 20
-179.6169433144708
 30
0.0
  0
SEQEND
  5
3D9
330
3D5
100
AcDbEntity
  8
Ebene 1
370
    18
  0
POLYLINE
  5
3DA
330
291
100
AcDbEntity
  8
Ebene 1
 62
   179
420
  1709851
370
    18
100
AcDb2dPolyline
 66
     1
 10
0.0
 20
0.0
 30
0.0
  0
VERTEX
  5
3DB
330
3DA
100
AcDbEntity
  8
Ebene 1
 62
   179
420
  1709851
370
    18
100
AcDbVertex
100
AcDb2dVertex
 10
164.9766655403531
 20
-184.2099446154058
 30
0.0
  0
VERTEX
  5
3DC
330
3DA
100
AcDbEntity
  8
Ebene 1
 62
   179
420
  1709851
370
    18
100
AcDbVertex
100
AcDb2dVertex
 10
163.8335828583472
 20
-184.2099446154058
 30
0.0
  0
VERTEX
  5
3DD
330
3DA
100
AcDbEntity
  8
Ebene 1
 62
   179
420
  1709851
370
    18
100
AcDbVertex
100
AcDb2dVertex
 10
163.2410264348842
 20
-183.2150010392657
 30
0.0
  0
VERTEX
  5
3DE
330
3DA
100
AcDbEntity
  8
Ebene 1
 62
   179
420
  1709851
370
    18
100
AcDbVertex
100
AcDb2dVertex
 10
163.8335828583472
 20
-182.2207464822226
 30
0.0
  0
VERTEX
  5
3DF
330
3DA
100
AcDbEntity
  8
Ebene 1
 62
   179
420
  1709851
370
    18
100
AcDbVertex
100
AcDb2dVertex
 10
164.9766655403531
 20
-182.2207464822226
 30
0.0
  0
VERTEX
  5
3E0
330
3DA
100
AcDbEntity
  8
Ebene 1
 62
   179
420
  1709851
370
    18
100
AcDbVertex
100
AcDb2dVertex
 10
165.569221963816
 20
-183.2150010392657
 30
0.0
  0
VERTEX
  5
3E1
330
3DA
100
AcDbEntity
  8
Ebene 1
 62
   179
420
  1709851
370
    18
100
AcDbVertex
100
AcDb2dVertex
 10
164.9766655403531
 20
-184.2099446154058
 30
0.0
  0
SEQEND
  5
3E2
330
3DA
100
AcDbEntity
  8
Ebene 1
370
    18
  0
SPLINE
  5
3E3
330
291
100
AcDbEntity
  8
Ebene 1
 62
   179
420
  1709851
370
    18
100
AcDbSpline
210
0.0
220
0.0
230
1.0
 70
    11
 71
     3
 72
    17
 73
    13
 74
     0
 42
0.0000000001
 43
0.0000000001
 40
0.0
 40
0.0
 40
0.0
 40
0.0
 40
1.0
 40
1.0
 40
1.0
 40
2.0
 40
2.0
 40
2.0
 40
3.0
 40
3.0
 40
3.0
 40
4.0
 40
4.0
 40
4.0
 40
4.0
 10
165.3997232659417
 20
-183.2150010392657
 30
0.0
 10
165.3997232659417
 20
-182.6644747807228
 30
0.0
 10
164.9342908658845
 20
-182.2207464822226
 30
0.0
 10
164.4051241993501
 20
-182.2207464822226
 30
0.0
 10
163.8545979408072
 20
-182.2207464822226
 30
0.0
 10
163.41018062321
 20
-182.6644747807228
 30
0.0
 10
163.41018062321
 20
-183.2150010392657
 30
0.0
 10
163.41018062321
 20
-183.7441677058001
 30
0.0
 10
163.8545979408072
 20
-184.2099446154058
 30
0.0
 10
164.4051241993501
 20
-184.2099446154058
 30
0.0
 10
164.9553059483445
 20
-184.2099446154058
 30
0.0
 10
165.3997232659417
 20
-183.7441677058001
 30
0.0
 10
165.3997232659417
 20
-183.2150010392657
 30
0.0
  0
POLYLINE
  5
3E4
330
291
100
AcDbEntity
  8
Ebene 1
 62
   179
420
  1709851
370
    18
100
AcDb2dPolyline
 66
     1
 10
0.0
 20
0.0
 30
0.0
  0
VERTEX
  5
3E5
330
3E4
100
AcDbEntity
  8
Ebene 1
 62
   179
420
  1709851
370
    18
100
AcDbVertex
100
AcDb2dVertex
 10
163.1139024114785
 20
-181.0142740432881
 30
0.0
  0
VERTEX
  5
3E6
330
3E4
100
AcDbEntity
  8
Ebene 1
 62
   179
420
  1709851
370
    18
100
AcDbVertex
100
AcDb2dVertex
 10
162.9023735486841
 20
-181.0142740432881
 30
0.0
  0
VERTEX
  5
3E7
330
3E4
100
AcDbEntity
  8
Ebene 1
 62
   179
420
  1709851
370
    18
100
AcDbVertex
100
AcDb2dVertex
 10
162.9023735486841
 20
-181.4159721768683
 30
0.0
  0
VERTEX
  5
3E8
330
3E4
100
AcDbEntity
  8
Ebene 1
 62
   179
420
  1709851
370
    18
100
AcDbVertex
100
AcDb2dVertex
 10
165.9082193595646
 20
-181.4159721768683
 30
0.0
  0
SEQEND
  5
3E9
330
3E4
100
AcDbEntity
  8
Ebene 1
370
    18
  0
POLYLINE
  5
3EA
330
291
100
AcDbEntity
  8
Ebene 1
 62
   179
420
  1709851
370
    18
100
AcDb2dPolyline
 66
     1
 10
0.0
 20
0.0
 30
0.0
  0
VERTEX
  5
3EB
330
3EA
100
AcDbEntity
  8
Ebene 1
 62
   179
420
  1709851
370
    18
100
AcDbVertex
100
AcDb2dVertex
 10
165.9082193595646
 20
-181.4159721768683
 30
0.0
  0
VERTEX
  5
3EC
330
3EA
100
AcDbEntity
  8
Ebene 1
 62
   179
420
  1709851
370
    18
100
AcDbVertex
100
AcDb2dVertex
 10
165.9082193595646
 20
-181.0142740432881
 30
0.0
  0
VERTEX
  5
3ED
330
3EA
100
AcDbEntity
  8
Ebene 1
 62
   179
420
  1709851
370
    18
100
AcDbVertex
100
AcDb2dVertex
 10
165.6963459872217
 20
-181.0142740432881
 30
0.0
  0
SEQEND
  5
3EE
330
3EA
100
AcDbEntity
  8
Ebene 1
370
    18
  0
POLYLINE
  5
3EF
330
291
100
AcDbEntity
  8
Ebene 1
 62
   179
420
  1709851
370
    18
100
AcDb2dPolyline
 66
     1
 10
0.0
 20
0.0
 30
0.0
  0
VERTEX
  5
3F0
330
3EF
100
AcDbEntity
  8
Ebene 1
 62
   179
420
  1709851
370
    18
100
AcDbVertex
100
AcDb2dVertex
 10
163.1139024114785
 20
-181.2044433140739
 30
0.0
  0
VERTEX
  5
3F1
330
3EF
100
AcDbEntity
  8
Ebene 1
 62
   179
420
  1709851
370
    18
100
AcDbVertex
100
AcDb2dVertex
 10
165.6963459872217
 20
-181.2044433140739
 30
0.0
  0
SEQEND
  5
3F2
330
3EF
100
AcDbEntity
  8
Ebene 1
370
    18
  0
POLYLINE
  5
3F3
330
291
100
AcDbEntity
  8
Ebene 1
 62
   179
420
  1709851
370
    18
100
AcDb2dPolyline
 66
     1
 10
0.0
 20
0.0
 30
0.0
  0
VERTEX
  5
3F4
330
3F3
100
AcDbEntity
  8
Ebene 1
 62
   179
420
  1709851
370
    18
100
AcDbVertex
100
AcDb2dVertex
 10
163.1139024114785
 20
-181.2044433140739
 30
0.0
  0
VERTEX
  5
3F5
330
3F3
100
AcDbEntity
  8
Ebene 1
 62
   179
420
  1709851
370
    18
100
AcDbVertex
100
AcDb2dVertex
 10
163.1139024114785
 20
-179.2145561617936
 30
0.0
  0
SEQEND
  5
3F6
330
3F3
100
AcDbEntity
  8
Ebene 1
370
    18
  0
POLYLINE
  5
3F7
330
291
100
AcDbEntity
  8
Ebene 1
 62
   179
420
  1709851
370
    18
100
AcDb2dPolyline
 66
     1
 10
0.0
 20
0.0
 30
0.0
  0
VERTEX
  5
3F8
330
3F7
100
AcDbEntity
  8
Ebene 1
 62
   179
420
  1709851
370
    18
100
AcDbVertex
100
AcDb2dVertex
 10
163.1139024114785
 20
-179.6169433144708
 30
0.0
  0
VERTEX
  5
3F9
330
3F7
100
AcDbEntity
  8
Ebene 1
 62
   179
420
  1709851
370
    18
100
AcDbVertex
100
AcDb2dVertex
 10
160.997235745341
 20
-179.6169433144708
 30
0.0
  0
SEQEND
  5
3FA
330
3F7
100
AcDbEntity
  8
Ebene 1
370
    18
  0
POLYLINE
  5
3FB
330
291
100
AcDbEntity
  8
Ebene 1
 62
   179
420
  1709851
370
    18
100
AcDb2dPolyline
 66
     1
 10
0.0
 20
0.0
 30
0.0
  0
VERTEX
  5
3FC
330
3FB
100
AcDbEntity
  8
Ebene 1
 62
   179
420
  1709851
370
    18
100
AcDbVertex
100
AcDb2dVertex
 10
160.997235745341
 20
-179.6169433144708
 30
0.0
  0
VERTEX
  5
3FD
330
3FB
100
AcDbEntity
  8
Ebene 1
 62
   179
420
  1709851
370
    18
100
AcDbVertex
100
AcDb2dVertex
 10
160.997235745341
 20
-186.8137477831577
 30
0.0
  0
SEQEND
  5
3FE
330
3FB
100
AcDbEntity
  8
Ebene 1
370
    18
  0
POLYLINE
  5
3FF
330
291
100
AcDbEntity
  8
Ebene 1
 62
   179
420
  1709851
370
    18
100
AcDb2dPolyline
 66
     1
 10
0.0
 20
0.0
 30
0.0
  0
VERTEX
  5
400
330
3FF
100
AcDbEntity
  8
Ebene 1
 62
   179
420
  1709851
370
    18
100
AcDbVertex
100
AcDb2dVertex
 10
160.997235745341
 20
-186.8137477831577
 30
0.0
  0
VERTEX
  5
401
330
3FF
100
AcDbEntity
  8
Ebene 1
 62
   179
420
  1709851
370
    18
100
AcDbVertex
100
AcDb2dVertex
 10
167.0085828575534
 20
-186.8137477831577
 30
0.0
  0
SEQEND
  5
402
330
3FF
100
AcDbEntity
  8
Ebene 1
370
    18
  0
POLYLINE
  5
403
330
291
100
AcDbEntity
  8
Ebene 1
 62
   179
420
  1709851
370
    18
100
AcDb2dPolyline
 66
     1
 10
0.0
 20
0.0
 30
0.0
  0
VERTEX
  5
404
330
403
100
AcDbEntity
  8
Ebene 1
 62
   179
420
  1709851
370
    18
100
AcDbVertex
100
AcDb2dVertex
 10
148.8053873325903
 20
-205.7156086725294
 30
0.0
  0
VERTEX
  5
405
330
403
100
AcDbEntity
  8
Ebene 1
 62
   179
420
  1709851
370
    18
100
AcDbVertex
100
AcDb2dVertex
 10
148.8053873325903
 20
-202.7101073711975
 30
0.0
  0
SEQEND
  5
406
330
403
100
AcDbEntity
  8
Ebene 1
370
    18
  0
POLYLINE
  5
407
330
291
100
AcDbEntity
  8
Ebene 1
 62
   179
420
  1709851
370
    18
100
AcDb2dPolyline
 66
     1
 10
0.0
 20
0.0
 30
0.0
  0
VERTEX
  5
408
330
407
100
AcDbEntity
  8
Ebene 1
 62
   179
420
  1709851
370
    18
100
AcDbVertex
100
AcDb2dVertex
 10
148.8053873325903
 20
-202.7101073711975
 30
0.0
  0
VERTEX
  5
409
330
407
100
AcDbEntity
  8
Ebene 1
 62
   179
420
  1709851
370
    18
100
AcDbVertex
100
AcDb2dVertex
 10
148.4030001799131
 20
-202.7101073711975
 30
0.0
  0
VERTEX
  5
40A
330
407
100
AcDbEntity
  8
Ebene 1
 62
   179
420
  1709851
370
    18
100
AcDbVertex
100
AcDb2dVertex
 10
148.4030001799131
 20
-205.7156086725294
 30
0.0
  0
SEQEND
  5
40B
330
407
100
AcDbEntity
  8
Ebene 1
370
    18
  0
POLYLINE
  5
40C
330
291
100
AcDbEntity
  8
Ebene 1
 62
   179
420
  1709851
370
    18
100
AcDb2dPolyline
 66
     1
 10
0.0
 20
0.0
 30
0.0
  0
VERTEX
  5
40D
330
40C
100
AcDbEntity
  8
Ebene 1
 62
   179
420
  1709851
370
    18
100
AcDbVertex
100
AcDb2dVertex
 10
148.4030001799131
 20
-205.7156086725294
 30
0.0
  0
VERTEX
  5
40E
330
40C
100
AcDbEntity
  8
Ebene 1
 62
   179
420
  1709851
370
    18
100
AcDbVertex
100
AcDb2dVertex
 10
148.8050428230418
 20
-205.7156086725294
 30
0.0
  0
SEQEND
  5
40F
330
40C
100
AcDbEntity
  8
Ebene 1
370
    18
  0
POLYLINE
  5
410
330
291
100
AcDbEntity
  8
Ebene 1
 62
   179
420
  1709851
370
    18
100
AcDb2dPolyline
 66
     1
 10
0.0
 20
0.0
 30
0.0
  0
VERTEX
  5
411
330
410
100
AcDbEntity
  8
Ebene 1
 62
   179
420
  1709851
370
    18
100
AcDbVertex
100
AcDb2dVertex
 10
139.0051242057001
 20
-157.7095811237671
 30
0.0
  0
VERTEX
  5
412
330
410
100
AcDbEntity
  8
Ebene 1
 62
   179
420
  1709851
370
    18
100
AcDbVertex
100
AcDb2dVertex
 10
153.3983886335254
 20
-162.217833075765
 30
0.0
  0
SEQEND
  5
413
330
410
100
AcDbEntity
  8
Ebene 1
370
    18
  0
POLYLINE
  5
414
330
291
100
AcDbEntity
  8
Ebene 1
 62
   179
420
  1709851
370
    18
100
AcDb2dPolyline
 66
     1
 10
0.0
 20
0.0
 30
0.0
  0
VERTEX
  5
415
330
414
100
AcDbEntity
  8
Ebene 1
 62
   179
420
  1709851
370
    18
100
AcDbVertex
100
AcDb2dVertex
 10
153.3983886335254
 20
-152.2056965765319
 30
0.0
  0
VERTEX
  5
416
330
414
100
AcDbEntity
  8
Ebene 1
 62
   179
420
  1709851
370
    18
100
AcDbVertex
100
AcDb2dVertex
 10
139.0051242057001
 20
-156.7146375476269
 30
0.0
  0
SEQEND
  5
417
330
414
100
AcDbEntity
  8
Ebene 1
370
    18
  0
POLYLINE
  5
418
330
291
100
AcDbEntity
  8
Ebene 1
 62
   179
420
  1709851
370
    18
100
AcDb2dPolyline
 66
     1
 10
0.0
 20
0.0
 30
0.0
  0
VERTEX
  5
419
330
418
100
AcDbEntity
  8
Ebene 1
 62
   179
420
  1709851
370
    18
100
AcDbVertex
100
AcDb2dVertex
 10
117.9015027917052
 20
-191.6182779468871
 30
0.0
  0
VERTEX
  5
41A
330
418
100
AcDbEntity
  8
Ebene 1
 62
   179
420
  1709851
370
    18
100
AcDbVertex
100
AcDb2dVertex
 10
118.4099988853281
 20
-193.2057779464902
 30
0.0
  0
SEQEND
  5
41B
330
418
100
AcDbEntity
  8
Ebene 1
370
    18
  0
POLYLINE
  5
41C
330
291
100
AcDbEntity
  8
Ebene 1
 62
   179
420
  1709851
370
    18
100
AcDb2dPolyline
 66
     1
 10
0.0
 20
0.0
 30
0.0
  0
VERTEX
  5
41D
330
41C
100
AcDbEntity
  8
Ebene 1
 62
   179
420
  1709851
370
    18
100
AcDbVertex
100
AcDb2dVertex
 10
113.9017469333301
 20
-178.8121690091164
 30
0.0
  0
VERTEX
  5
41E
330
41C
100
AcDbEntity
  8
Ebene 1
 62
   179
420
  1709851
370
    18
100
AcDbVertex
100
AcDb2dVertex
 10
117.3096353873393
 20
-189.6924695706325
 30
0.0
  0
SEQEND
  5
41F
330
41C
100
AcDbEntity
  8
Ebene 1
370
    18
  0
POLYLINE
  5
420
330
291
100
AcDbEntity
  8
Ebene 1
 62
   179
420
  1709851
370
    18
100
AcDb2dPolyline
 66
     1
 10
0.0
 20
0.0
 30
0.0
  0
VERTEX
  5
421
330
420
100
AcDbEntity
  8
Ebene 1
 62
   179
420
  1709851
370
    18
100
AcDbVertex
100
AcDb2dVertex
 10
108.397862386095
 20
-193.2057779464902
 30
0.0
  0
VERTEX
  5
422
330
420
100
AcDbEntity
  8
Ebene 1
 62
   179
420
  1709851
370
    18
100
AcDbVertex
100
AcDb2dVertex
 10
112.9064588476414
 20
-178.8121690091164
 30
0.0
  0
SEQEND
  5
423
330
420
100
AcDbEntity
  8
Ebene 1
370
    18
  0
POLYLINE
  5
424
330
291
100
AcDbEntity
  8
Ebene 1
 62
   179
420
  1709851
370
    18
100
AcDb2dPolyline
 66
     1
 10
0.0
 20
0.0
 30
0.0
  0
VERTEX
  5
425
330
424
100
AcDbEntity
  8
Ebene 1
 62
   179
420
  1709851
370
    18
100
AcDbVertex
100
AcDb2dVertex
 10
153.3983886335254
 20
-162.217833075765
 30
0.0
  0
VERTEX
  5
426
330
424
100
AcDbEntity
  8
Ebene 1
 62
   179
420
  1709851
370
    18
100
AcDbVertex
100
AcDb2dVertex
 10
137.3962646140884
 20
-167.2132215293773
 30
0.0
  0
SEQEND
  5
427
330
424
100
AcDbEntity
  8
Ebene 1
370
    18
  0
POLYLINE
  5
428
330
291
100
AcDbEntity
  8
Ebene 1
 62
   179
420
  1709851
370
    18
100
AcDb2dPolyline
 66
     1
 10
0.0
 20
0.0
 30
0.0
  0
VERTEX
  5
429
330
428
100
AcDbEntity
  8
Ebene 1
 62
   179
420
  1709851
370
    18
100
AcDbVertex
100
AcDb2dVertex
 10
137.3962646140884
 20
-137.2200479800179
 30
0.0
  0
VERTEX
  5
42A
330
428
100
AcDbEntity
  8
Ebene 1
 62
   179
420
  1709851
370
    18
100
AcDbVertex
100
AcDb2dVertex
 10
153.3983886335254
 20
-142.2154364336302
 30
0.0
  0
VERTEX
  5
42B
330
428
100
AcDbEntity
  8
Ebene 1
 62
   179
420
  1709851
370
    18
100
AcDbVertex
100
AcDb2dVertex
 10
137.3962646140884
 20
-147.2108248872424
 30
0.0
  0
VERTEX
  5
42C
330
428
100
AcDbEntity
  8
Ebene 1
 62
   179
420
  1709851
370
    18
100
AcDbVertex
100
AcDb2dVertex
 10
153.3983886335254
 20
-152.2056965765319
 30
0.0
  0
SEQEND
  5
42D
330
428
100
AcDbEntity
  8
Ebene 1
370
    18
  0
POLYLINE
  5
42E
330
291
100
AcDbEntity
  8
Ebene 1
 62
   179
420
  1709851
370
    18
100
AcDb2dPolyline
 66
     1
 10
0.0
 20
0.0
 30
0.0
  0
VERTEX
  5
42F
330
42E
100
AcDbEntity
  8
Ebene 1
 62
   179
420
  1709851
370
    18
100
AcDbVertex
100
AcDb2dVertex
 10
118.4099988853281
 20
-193.2057779464902
 30
0.0
  0
VERTEX
  5
430
330
42E
100
AcDbEntity
  8
Ebene 1
 62
   179
420
  1709851
370
    18
100
AcDbVertex
100
AcDb2dVertex
 10
123.4050428293918
 20
-177.2039984366018
 30
0.0
  0
VERTEX
  5
431
330
42E
100
AcDbEntity
  8
Ebene 1
 62
   179
420
  1709851
370
    18
100
AcDbVertex
100
AcDb2dVertex
 10
128.4004312830041
 20
-193.2057779464902
 30
0.0
  0
VERTEX
  5
432
330
42E
100
AcDbEntity
  8
Ebene 1
 62
   179
420
  1709851
370
    18
100
AcDbVertex
100
AcDb2dVertex
 10
133.3954752270678
 20
-177.2039984366018
 30
0.0
  0
SEQEND
  5
433
330
42E
100
AcDbEntity
  8
Ebene 1
370
    18
  0
POLYLINE
  5
434
330
291
100
AcDbEntity
  8
Ebene 1
 62
   179
420
  1709851
370
    18
100
AcDb2dPolyline
 66
     1
 10
0.0
 20
0.0
 30
0.0
  0
VERTEX
  5
435
330
434
100
AcDbEntity
  8
Ebene 1
 62
   179
420
  1709851
370
    18
100
AcDbVertex
100
AcDb2dVertex
 10
103.4028184420312
 20
-177.2039984366018
 30
0.0
  0
VERTEX
  5
436
330
434
100
AcDbEntity
  8
Ebene 1
 62
   179
420
  1709851
370
    18
100
AcDbVertex
100
AcDb2dVertex
 10
108.397862386095
 20
-193.2057779464902
 30
0.0
  0
SEQEND
  5
437
330
434
100
AcDbEntity
  8
Ebene 1
370
    18
  0
POLYLINE
  5
438
330
291
100
AcDbEntity
  8
Ebene 1
 62
   179
420
  1709851
370
    18
100
AcDb2dPolyline
 66
     1
 10
0.0
 20
0.0
 30
0.0
  0
VERTEX
  5
439
330
438
100
AcDbEntity
  8
Ebene 1
 62
   179
420
  1709851
370
    18
100
AcDbVertex
100
AcDb2dVertex
 10
153.3983886335254
 20
-77.21268579883919
 30
0.0
  0
VERTEX
  5
43A
330
438
100
AcDbEntity
  8
Ebene 1
 62
   179
420
  1709851
370
    18
100
AcDbVertex
100
AcDb2dVertex
 10
153.3983886335254
 20
-156.5244682768411
 30
0.0
  0
SEQEND
  5
43B
330
438
100
AcDbEntity
  8
Ebene 1
370
    18
  0
POLYLINE
  5
43C
330
291
100
AcDbEntity
  8
Ebene 1
 62
   179
420
  1709851
370
    18
100
AcDb2dPolyline
 66
     1
 10
0.0
 20
0.0
 30
0.0
  0
VERTEX
  5
43D
330
43C
100
AcDbEntity
  8
Ebene 1
 62
   179
420
  1709851
370
    18
100
AcDbVertex
100
AcDb2dVertex
 10
153.3983886335254
 20
-157.7095811237671
 30
0.0
  0
VERTEX
  5
43E
330
43C
100
AcDbEntity
  8
Ebene 1
 62
   179
420
  1709851
370
    18
100
AcDbVertex
100
AcDb2dVertex
 10
153.3983886335254
 20
-193.2057779464902
 30
0.0
  0
SEQEND
  5
43F
330
43C
100
AcDbEntity
  8
Ebene 1
370
    18
  0
POLYLINE
  5
440
330
291
100
AcDbEntity
  8
Ebene 1
 62
   179
420
  1709851
370
    18
100
AcDb2dPolyline
 66
     1
 10
0.0
 20
0.0
 30
0.0
  0
VERTEX
  5
441
330
440
100
AcDbEntity
  8
Ebene 1
 62
   179
420
  1709851
370
    18
100
AcDbVertex
100
AcDb2dVertex
 10
33.40433484407947
 20
-193.2057779464902
 30
0.0
  0
VERTEX
  5
442
330
440
100
AcDbEntity
  8
Ebene 1
 62
   179
420
  1709851
370
    18
100
AcDbVertex
100
AcDb2dVertex
 10
116.7163899447792
 20
-193.2057779464902
 30
0.0
  0
SEQEND
  5
443
330
440
100
AcDbEntity
  8
Ebene 1
370
    18
  0
POLYLINE
  5
444
330
291
100
AcDbEntity
  8
Ebene 1
 62
   179
420
  1709851
370
    18
100
AcDb2dPolyline
 66
     1
 10
0.0
 20
0.0
 30
0.0
  0
VERTEX
  5
445
330
444
100
AcDbEntity
  8
Ebene 1
 62
   179
420
  1709851
370
    18
100
AcDbVertex
100
AcDb2dVertex
 10
117.9015027917052
 20
-193.2057779464902
 30
0.0
  0
VERTEX
  5
446
330
444
100
AcDbEntity
  8
Ebene 1
 62
   179
420
  1709851
370
    18
100
AcDbVertex
100
AcDb2dVertex
 10
153.3983886335254
 20
-193.2057779464902
 30
0.0
  0
SEQEND
  5
447
330
444
100
AcDbEntity
  8
Ebene 1
370
    18
  0
POLYLINE
  5
448
330
291
100
AcDbEntity
  8
Ebene 1
 62
   179
420
  1709851
370
    18
100
AcDb2dPolyline
 66
     1
 10
0.0
 20
0.0
 30
0.0
  0
VERTEX
  5
449
330
448
100
AcDbEntity
  8
Ebene 1
 62
   179
420
  1709851
370
    18
100
AcDbVertex
100
AcDb2dVertex
 10
167.0085828575534
 20
-118.0219088789147
 30
0.0
  0
VERTEX
  5
44A
330
448
100
AcDbEntity
  8
Ebene 1
 62
   179
420
  1709851
370
    18
100
AcDbVertex
100
AcDb2dVertex
 10
160.997235745341
 20
-118.0219088789147
 30
0.0
  0
SEQEND
  5
44B
330
448
100
AcDbEntity
  8
Ebene 1
370
    18
  0
POLYLINE
  5
44C
330
291
100
AcDbEntity
  8
Ebene 1
 62
   179
420
  1709851
370
    18
100
AcDb2dPolyline
 66
     1
 10
0.0
 20
0.0
 30
0.0
  0
VERTEX
  5
44D
330
44C
100
AcDbEntity
  8
Ebene 1
 62
   179
420
  1709851
370
    18
100
AcDbVertex
100
AcDb2dVertex
 10
167.0085828575534
 20
-117.4293524554517
 30
0.0
  0
VERTEX
  5
44E
330
44C
100
AcDbEntity
  8
Ebene 1
 62
   179
420
  1709851
370
    18
100
AcDbVertex
100
AcDb2dVertex
 10
167.1990966378877
 20
-117.4293524554517
 30
0.0
  0
SEQEND
  5
44F
330
44C
100
AcDbEntity
  8
Ebene 1
370
    18
  0
POLYLINE
  5
450
330
291
100
AcDbEntity
  8
Ebene 1
 62
   179
420
  1709851
370
    18
100
AcDb2dPolyline
 66
     1
 10
0.0
 20
0.0
 30
0.0
  0
VERTEX
  5
451
330
450
100
AcDbEntity
  8
Ebene 1
 62
   179
420
  1709851
370
    18
100
AcDbVertex
100
AcDb2dVertex
 10
167.1990966378877
 20
-111.4180053432393
 30
0.0
  0
VERTEX
  5
452
330
450
100
AcDbEntity
  8
Ebene 1
 62
   179
420
  1709851
370
    18
100
AcDbVertex
100
AcDb2dVertex
 10
167.0085828575534
 20
-111.4180053432393
 30
0.0
  0
SEQEND
  5
453
330
450
100
AcDbEntity
  8
Ebene 1
370
    18
  0
POLYLINE
  5
454
330
291
100
AcDbEntity
  8
Ebene 1
 62
   179
420
  1709851
370
    18
100
AcDb2dPolyline
 66
     1
 10
0.0
 20
0.0
 30
0.0
  0
VERTEX
  5
455
330
454
100
AcDbEntity
  8
Ebene 1
 62
   179
420
  1709851
370
    18
100
AcDbVertex
100
AcDb2dVertex
 10
167.0085828575534
 20
-110.8254489197763
 30
0.0
  0
VERTEX
  5
456
330
454
100
AcDbEntity
  8
Ebene 1
 62
   179
420
  1709851
370
    18
100
AcDbVertex
100
AcDb2dVertex
 10
167.0085828575534
 20
-118.0219088789147
 30
0.0
  0
SEQEND
  5
457
330
454
100
AcDbEntity
  8
Ebene 1
370
    18
  0
POLYLINE
  5
458
330
291
100
AcDbEntity
  8
Ebene 1
 62
   179
420
  1709851
370
    18
100
AcDb2dPolyline
 66
     1
 10
0.0
 20
0.0
 30
0.0
  0
VERTEX
  5
459
330
458
100
AcDbEntity
  8
Ebene 1
 62
   179
420
  1709851
370
    18
100
AcDbVertex
100
AcDb2dVertex
 10
164.9766655403531
 20
-113.4289075779796
 30
0.0
  0
VERTEX
  5
45A
330
458
100
AcDbEntity
  8
Ebene 1
 62
   179
420
  1709851
370
    18
100
AcDbVertex
100
AcDb2dVertex
 10
163.8335828583472
 20
-113.4289075779796
 30
0.0
  0
VERTEX
  5
45B
330
458
100
AcDbEntity
  8
Ebene 1
 62
   179
420
  1709851
370
    18
100
AcDbVertex
100
AcDb2dVertex
 10
163.2410264348842
 20
-114.4235066445712
 30
0.0
  0
VERTEX
  5
45C
330
458
100
AcDbEntity
  8
Ebene 1
 62
   179
420
  1709851
370
    18
100
AcDbVertex
100
AcDb2dVertex
 10
163.8335828583472
 20
-115.4184502207114
 30
0.0
  0
VERTEX
  5
45D
330
458
100
AcDbEntity
  8
Ebene 1
 62
   179
420
  1709851
370
    18
100
AcDbVertex
100
AcDb2dVertex
 10
164.9766655403531
 20
-115.4184502207114
 30
0.0
  0
VERTEX
  5
45E
330
458
100
AcDbEntity
  8
Ebene 1
 62
   179
420
  1709851
370
    18
100
AcDbVertex
100
AcDb2dVertex
 10
165.569221963816
 20
-114.4235066445712
 30
0.0
  0
VERTEX
  5
45F
330
458
100
AcDbEntity
  8
Ebene 1
 62
   179
420
  1709851
370
    18
100
AcDbVertex
100
AcDb2dVertex
 10
164.9766655403531
 20
-113.4289075779796
 30
0.0
  0
SEQEND
  5
460
330
458
100
AcDbEntity
  8
Ebene 1
370
    18
  0
SPLINE
  5
461
330
291
100
AcDbEntity
  8
Ebene 1
 62
   179
420
  1709851
370
    18
100
AcDbSpline
210
0.0
220
0.0
230
1.0
 70
     8
 71
     3
 72
    23
 73
    19
 74
     0
 42
0.0000000001
 43
0.0000000001
 40
0.0
 40
0.0
 40
0.0
 40
0.0
 40
1.0
 40
1.0
 40
1.0
 40
2.0
 40
2.0
 40
2.0
 40
3.0
 40
3.0
 40
3.0
 40
4.0
 40
4.0
 40
4.0
 40
5.0
 40
5.0
 40
5.0
 40
6.0
 40
6.0
 40
6.0
 40
6.0
 10
165.3997232659417
 20
-114.4235066445712
 30
0.0
 10
165.3997232659417
 20
-114.4235066445712
 30
0.0
 10
165.3790526930302
 20
-114.3601168876426
 30
0.0
 10
165.3790526930302
 20
-114.3601168876426
 30
0.0
 10
165.3576931010217
 20
-113.8309502211082
 30
0.0
 10
164.912931273876
 20
-113.4289075779796
 30
0.0
 10
164.4051241993501
 20
-113.4289075779796
 30
0.0
 10
163.8545979408072
 20
-113.4289075779796
 30
0.0
 10
163.41018062321
 20
-113.8733248955768
 30
0.0
 10
163.41018062321
 20
-114.4235066445712
 30
0.0
 10
163.41018062321
 20
-114.9526733111056
 30
0.0
 10
163.8545979408072
 20
-115.4184502207114
 30
0.0
 10
164.4051241993501
 20
-115.4184502207114
 30
0.0
 10
164.9553059483445
 20
-115.4184502207114
 30
0.0
 10
165.3997232659417
 20
-114.9526733111056
 30
0.0
 10
165.3997232659417
 20
-114.4235066445712
 30
0.0
 10
165.3997232659417
 20
-114.4024915621112
 30
0.0
 10
165.3997232659417
 20
-114.3811319701026
 30
0.0
 10
165.3790526930302
 20
-114.3601168876426
 30
0.0
  0
POLYLINE
  5
462
330
291
100
AcDbEntity
  8
Ebene 1
 62
   179
420
  1709851
370
    18
100
AcDb2dPolyline
 66
     1
 10
0.0
 20
0.0
 30
0.0
  0
VERTEX
  5
463
330
462
100
AcDbEntity
  8
Ebene 1
 62
   179
420
  1709851
370
    18
100
AcDbVertex
100
AcDb2dVertex
 10
160.997235745341
 20
-118.0219088789147
 30
0.0
  0
VERTEX
  5
464
330
462
100
AcDbEntity
  8
Ebene 1
 62
   179
420
  1709851
370
    18
100
AcDbVertex
100
AcDb2dVertex
 10
160.997235745341
 20
-110.8254489197763
 30
0.0
  0
SEQEND
  5
465
330
462
100
AcDbEntity
  8
Ebene 1
370
    18
  0
POLYLINE
  5
466
330
291
100
AcDbEntity
  8
Ebene 1
 62
   179
420
  1709851
370
    18
100
AcDb2dPolyline
 66
     1
 10
0.0
 20
0.0
 30
0.0
  0
VERTEX
  5
467
330
466
100
AcDbEntity
  8
Ebene 1
 62
   179
420
  1709851
370
    18
100
AcDbVertex
100
AcDb2dVertex
 10
160.997235745341
 20
-110.8254489197763
 30
0.0
  0
VERTEX
  5
468
330
466
100
AcDbEntity
  8
Ebene 1
 62
   179
420
  1709851
370
    18
100
AcDbVertex
100
AcDb2dVertex
 10
167.0085828575534
 20
-110.8254489197763
 30
0.0
  0
SEQEND
  5
469
330
466
100
AcDbEntity
  8
Ebene 1
370
    18
  0
POLYLINE
  5
46A
330
291
100
AcDbEntity
  8
Ebene 1
 62
   179
420
  1709851
370
    18
100
AcDb2dPolyline
 66
     1
 10
0.0
 20
0.0
 30
0.0
  0
VERTEX
  5
46B
330
46A
100
AcDbEntity
  8
Ebene 1
 62
   179
420
  1709851
370
    18
100
AcDbVertex
100
AcDb2dVertex
 10
150.2020290423106
 20
-206.8159721705183
 30
0.0
  0
VERTEX
  5
46C
330
46A
100
AcDbEntity
  8
Ebene 1
 62
   179
420
  1709851
370
    18
100
AcDbVertex
100
AcDb2dVertex
 10
150.2020290423106
 20
-200.8049695678543
 30
0.0
  0
SEQEND
  5
46D
330
46A
100
AcDbEntity
  8
Ebene 1
370
    18
  0
POLYLINE
  5
46E
330
291
100
AcDbEntity
  8
Ebene 1
 62
   179
420
  1709851
370
    18
100
AcDb2dPolyline
 66
     1
 10
0.0
 20
0.0
 30
0.0
  0
VERTEX
  5
46F
330
46E
100
AcDbEntity
  8
Ebene 1
 62
   179
420
  1709851
370
    18
100
AcDbVertex
100
AcDb2dVertex
 10
149.6094726188476
 20
-206.8159721705183
 30
0.0
  0
VERTEX
  5
470
330
46E
100
AcDbEntity
  8
Ebene 1
 62
   179
420
  1709851
370
    18
100
AcDbVertex
100
AcDb2dVertex
 10
149.6094726188476
 20
-207.006141441304
 30
0.0
  0
SEQEND
  5
471
330
46E
100
AcDbEntity
  8
Ebene 1
370
    18
  0
POLYLINE
  5
472
330
291
100
AcDbEntity
  8
Ebene 1
 62
   179
420
  1709851
370
    18
100
AcDb2dPolyline
 66
     1
 10
0.0
 20
0.0
 30
0.0
  0
VERTEX
  5
473
330
472
100
AcDbEntity
  8
Ebene 1
 62
   179
420
  1709851
370
    18
100
AcDbVertex
100
AcDb2dVertex
 10
143.5981255066352
 20
-207.006141441304
 30
0.0
  0
VERTEX
  5
474
330
472
100
AcDbEntity
  8
Ebene 1
 62
   179
420
  1709851
370
    18
100
AcDbVertex
100
AcDb2dVertex
 10
143.5981255066352
 20
-206.8159721705183
 30
0.0
  0
SEQEND
  5
475
330
472
100
AcDbEntity
  8
Ebene 1
370
    18
  0
POLYLINE
  5
476
330
291
100
AcDbEntity
  8
Ebene 1
 62
   179
420
  1709851
370
    18
100
AcDb2dPolyline
 66
     1
 10
0.0
 20
0.0
 30
0.0
  0
VERTEX
  5
477
330
476
100
AcDbEntity
  8
Ebene 1
 62
   179
420
  1709851
370
    18
100
AcDbVertex
100
AcDb2dVertex
 10
143.0055690831722
 20
-206.8159721705183
 30
0.0
  0
VERTEX
  5
478
330
476
100
AcDbEntity
  8
Ebene 1
 62
   179
420
  1709851
370
    18
100
AcDbVertex
100
AcDb2dVertex
 10
150.2020290423106
 20
-206.8159721705183
 30
0.0
  0
SEQEND
  5
479
330
476
100
AcDbEntity
  8
Ebene 1
370
    18
  0
POLYLINE
  5
47A
330
291
100
AcDbEntity
  8
Ebene 1
 62
   179
420
  1709851
370
    18
100
AcDb2dPolyline
 66
     1
 10
0.0
 20
0.0
 30
0.0
  0
VERTEX
  5
47B
330
47A
100
AcDbEntity
  8
Ebene 1
 62
   179
420
  1709851
370
    18
100
AcDbVertex
100
AcDb2dVertex
 10
145.6090277413755
 20
-204.7840548533179
 30
0.0
  0
VERTEX
  5
47C
330
47A
100
AcDbEntity
  8
Ebene 1
 62
   179
420
  1709851
370
    18
100
AcDbVertex
100
AcDb2dVertex
 10
145.6090277413755
 20
-203.640972171312
 30
0.0
  0
VERTEX
  5
47D
330
47A
100
AcDbEntity
  8
Ebene 1
 62
   179
420
  1709851
370
    18
100
AcDbVertex
100
AcDb2dVertex
 10
146.6039713175157
 20
-203.048415747849
 30
0.0
  0
VERTEX
  5
47E
330
47A
100
AcDbEntity
  8
Ebene 1
 62
   179
420
  1709851
370
    18
100
AcDbVertex
100
AcDb2dVertex
 10
147.5985703841073
 20
-203.640972171312
 30
0.0
  0
VERTEX
  5
47F
330
47A
100
AcDbEntity
  8
Ebene 1
 62
   179
420
  1709851
370
    18
100
AcDbVertex
100
AcDb2dVertex
 10
147.5985703841073
 20
-204.7840548533179
 30
0.0
  0
VERTEX
  5
480
330
47A
100
AcDbEntity
  8
Ebene 1
 62
   179
420
  1709851
370
    18
100
AcDbVertex
100
AcDb2dVertex
 10
146.6039713175157
 20
-205.3766112767809
 30
0.0
  0
VERTEX
  5
481
330
47A
100
AcDbEntity
  8
Ebene 1
 62
   179
420
  1709851
370
    18
100
AcDbVertex
100
AcDb2dVertex
 10
145.6090277413755
 20
-204.7840548533179
 30
0.0
  0
SEQEND
  5
482
330
47A
100
AcDbEntity
  8
Ebene 1
370
    18
  0
SPLINE
  5
483
330
291
100
AcDbEntity
  8
Ebene 1
 62
   179
420
  1709851
370
    18
100
AcDbSpline
210
0.0
220
0.0
230
1.0
 70
    11
 71
     3
 72
    17
 73
    13
 74
     0
 42
0.0000000001
 43
0.0000000001
 40
0.0
 40
0.0
 40
0.0
 40
0.0
 40
1.0
 40
1.0
 40
1.0
 40
2.0
 40
2.0
 40
2.0
 40
3.0
 40
3.0
 40
3.0
 40
4.0
 40
4.0
 40
4.0
 40
4.0
 10
147.5985703841073
 20
-204.2121690027664
 30
0.0
 10
147.5985703841073
 20
-203.6623317633205
 30
0.0
 10
147.1331379840501
 20
-203.2179144457233
 30
0.0
 10
146.6039713175157
 20
-203.2179144457233
 30
0.0
 10
146.0534450589728
 20
-203.2179144457233
 30
0.0
 10
145.6090277413755
 20
-203.6623317633205
 30
0.0
 10
145.6090277413755
 20
-204.2121690027664
 30
0.0
 10
145.6090277413755
 20
-204.7413356693008
 30
0.0
 10
146.0534450589728
 20
-205.2078015980036
 30
0.0
 10
146.6039713175157
 20
-205.2078015980036
 30
0.0
 10
147.1541530665101
 20
-205.2078015980036
 30
0.0
 10
147.5985703841073
 20
-204.7413356693008
 30
0.0
 10
147.5985703841073
 20
-204.2121690027664
 30
0.0
  0
POLYLINE
  5
484
330
291
100
AcDbEntity
  8
Ebene 1
 62
   179
420
  1709851
370
    18
100
AcDb2dPolyline
 66
     1
 10
0.0
 20
0.0
 30
0.0
  0
VERTEX
  5
485
330
484
100
AcDbEntity
  8
Ebene 1
 62
   179
420
  1709851
370
    18
100
AcDbVertex
100
AcDb2dVertex
 10
150.2023735518591
 20
-200.8049695678543
 30
0.0
  0
VERTEX
  5
486
330
484
100
AcDbEntity
  8
Ebene 1
 62
   179
420
  1709851
370
    18
100
AcDbVertex
100
AcDb2dVertex
 10
143.0055690831722
 20
-200.8049695678543
 30
0.0
  0
SEQEND
  5
487
330
484
100
AcDbEntity
  8
Ebene 1
370
    18
  0
POLYLINE
  5
488
330
291
100
AcDbEntity
  8
Ebene 1
 62
   179
420
  1709851
370
    18
100
AcDb2dPolyline
 66
     1
 10
0.0
 20
0.0
 30
0.0
  0
VERTEX
  5
489
330
488
100
AcDbEntity
  8
Ebene 1
 62
   179
420
  1709851
370
    18
100
AcDbVertex
100
AcDb2dVertex
 10
143.0055690831722
 20
-200.8049695678543
 30
0.0
  0
VERTEX
  5
48A
330
488
100
AcDbEntity
  8
Ebene 1
 62
   179
420
  1709851
370
    18
100
AcDbVertex
100
AcDb2dVertex
 10
143.0055690831722
 20
-206.8159721705183
 30
0.0
  0
SEQEND
  5
48B
330
488
100
AcDbEntity
  8
Ebene 1
370
    18
  0
POLYLINE
  5
48C
330
291
100
AcDbEntity
  8
Ebene 1
 62
   179
420
  1709851
370
    18
100
AcDb2dPolyline
 66
     1
 10
0.0
 20
0.0
 30
0.0
  0
VERTEX
  5
48D
330
48C
100
AcDbEntity
  8
Ebene 1
 62
   179
420
  1709851
370
    18
100
AcDbVertex
100
AcDb2dVertex
 10
80.81780596937888
 20
-206.8159721705183
 30
0.0
  0
VERTEX
  5
48E
330
48C
100
AcDbEntity
  8
Ebene 1
 62
   179
420
  1709851
370
    18
100
AcDbVertex
100
AcDb2dVertex
 10
80.81780596937888
 20
-207.006141441304
 30
0.0
  0
SEQEND
  5
48F
330
48C
100
AcDbEntity
  8
Ebene 1
370
    18
  0
POLYLINE
  5
490
330
291
100
AcDbEntity
  8
Ebene 1
 62
   179
420
  1709851
370
    18
100
AcDb2dPolyline
 66
     1
 10
0.0
 20
0.0
 30
0.0
  0
VERTEX
  5
491
330
490
100
AcDbEntity
  8
Ebene 1
 62
   179
420
  1709851
370
    18
100
AcDbVertex
100
AcDb2dVertex
 10
74.80680336671497
 20
-207.006141441304
 30
0.0
  0
VERTEX
  5
492
330
490
100
AcDbEntity
  8
Ebene 1
 62
   179
420
  1709851
370
    18
100
AcDbVertex
100
AcDb2dVertex
 10
74.80680336671497
 20
-206.8159721705183
 30
0.0
  0
SEQEND
  5
493
330
490
100
AcDbEntity
  8
Ebene 1
370
    18
  0
POLYLINE
  5
494
330
291
100
AcDbEntity
  8
Ebene 1
 62
   179
420
  1709851
370
    18
100
AcDb2dPolyline
 66
     1
 10
0.0
 20
0.0
 30
0.0
  0
VERTEX
  5
495
330
494
100
AcDbEntity
  8
Ebene 1
 62
   179
420
  1709851
370
    18
100
AcDbVertex
100
AcDb2dVertex
 10
81.91834172214195
 20
-201.820583716906
 30
0.0
  0
VERTEX
  5
496
330
494
100
AcDbEntity
  8
Ebene 1
 62
   179
420
  1709851
370
    18
100
AcDbVertex
100
AcDb2dVertex
 10
84.12010224676511
 20
-201.820583716906
 30
0.0
  0
SEQEND
  5
497
330
494
100
AcDbEntity
  8
Ebene 1
370
    18
  0
POLYLINE
  5
498
330
291
100
AcDbEntity
  8
Ebene 1
 62
   179
420
  1709851
370
    18
100
AcDb2dPolyline
 66
     1
 10
0.0
 20
0.0
 30
0.0
  0
VERTEX
  5
499
330
498
100
AcDbEntity
  8
Ebene 1
 62
   179
420
  1709851
370
    18
100
AcDbVertex
100
AcDb2dVertex
 10
81.8129218002933
 20
-205.5040798097351
 30
0.0
  0
VERTEX
  5
49A
330
498
100
AcDbEntity
  8
Ebene 1
 62
   179
420
  1709851
370
    18
100
AcDbVertex
100
AcDb2dVertex
 10
81.8129218002933
 20
-206.5196939587867
 30
0.0
  0
SEQEND
  5
49B
330
498
100
AcDbEntity
  8
Ebene 1
370
    18
  0
POLYLINE
  5
49C
330
291
100
AcDbEntity
  8
Ebene 1
 62
   179
420
  1709851
370
    18
100
AcDb2dPolyline
 66
     1
 10
0.0
 20
0.0
 30
0.0
  0
VERTEX
  5
49D
330
49C
100
AcDbEntity
  8
Ebene 1
 62
   179
420
  1709851
370
    18
100
AcDbVertex
100
AcDb2dVertex
 10
84.12010224676511
 20
-206.6044433077239
 30
0.0
  0
VERTEX
  5
49E
330
49C
100
AcDbEntity
  8
Ebene 1
 62
   179
420
  1709851
370
    18
100
AcDbVertex
100
AcDb2dVertex
 10
84.18314749414519
 20
-206.5624131428038
 30
0.0
  0
VERTEX
  5
49F
330
49C
100
AcDbEntity
  8
Ebene 1
 62
   179
420
  1709851
370
    18
100
AcDbVertex
100
AcDb2dVertex
 10
84.20433483137947
 20
-206.5196939587867
 30
0.0
  0
SEQEND
  5
4A0
330
49C
100
AcDbEntity
  8
Ebene 1
370
    18
  0
POLYLINE
  5
4A1
330
291
100
AcDbEntity
  8
Ebene 1
 62
   179
420
  1709851
370
    18
100
AcDb2dPolyline
 66
     1
 10
0.0
 20
0.0
 30
0.0
  0
VERTEX
  5
4A2
330
4A1
100
AcDbEntity
  8
Ebene 1
 62
   179
420
  1709851
370
    18
100
AcDbVertex
100
AcDb2dVertex
 10
81.8129218002933
 20
-206.5196939587867
 30
0.0
  0
VERTEX
  5
4A3
330
4A1
100
AcDbEntity
  8
Ebene 1
 62
   179
420
  1709851
370
    18
100
AcDbVertex
100
AcDb2dVertex
 10
81.85529647476187
 20
-206.5830837157154
 30
0.0
  0
VERTEX
  5
4A4
330
4A1
100
AcDbEntity
  8
Ebene 1
 62
   179
420
  1709851
370
    18
100
AcDbVertex
100
AcDb2dVertex
 10
81.91834172214195
 20
-206.6044433077239
 30
0.0
  0
SEQEND
  5
4A5
330
4A1
100
AcDbEntity
  8
Ebene 1
370
    18
  0
POLYLINE
  5
4A6
330
291
100
AcDbEntity
  8
Ebene 1
 62
   179
420
  1709851
370
    18
100
AcDb2dPolyline
 66
     1
 10
0.0
 20
0.0
 30
0.0
  0
VERTEX
  5
4A7
330
4A6
100
AcDbEntity
  8
Ebene 1
 62
   179
420
  1709851
370
    18
100
AcDbVertex
100
AcDb2dVertex
 10
84.12010224676511
 20
-206.6044433077239
 30
0.0
  0
VERTEX
  5
4A8
330
4A6
100
AcDbEntity
  8
Ebene 1
 62
   179
420
  1709851
370
    18
100
AcDbVertex
100
AcDb2dVertex
 10
81.91834172214195
 20
-206.6044433077239
 30
0.0
  0
SEQEND
  5
4A9
330
4A6
100
AcDbEntity
  8
Ebene 1
370
    18
  0
POLYLINE
  5
4AA
330
291
100
AcDbEntity
  8
Ebene 1
 62
   179
420
  1709851
370
    18
100
AcDb2dPolyline
 66
     1
 10
0.0
 20
0.0
 30
0.0
  0
VERTEX
  5
4AB
330
4AA
100
AcDbEntity
  8
Ebene 1
 62
   179
420
  1709851
370
    18
100
AcDbVertex
100
AcDb2dVertex
 10
84.20433483137947
 20
-201.9053330658431
 30
0.0
  0
VERTEX
  5
4AC
330
4AA
100
AcDbEntity
  8
Ebene 1
 62
   179
420
  1709851
370
    18
100
AcDbVertex
100
AcDb2dVertex
 10
84.18314749414519
 20
-201.8419433089145
 30
0.0
  0
VERTEX
  5
4AD
330
4AA
100
AcDbEntity
  8
Ebene 1
 62
   179
420
  1709851
370
    18
100
AcDbVertex
100
AcDb2dVertex
 10
84.12010224676511
 20
-201.820583716906
 30
0.0
  0
SEQEND
  5
4AE
330
4AA
100
AcDbEntity
  8
Ebene 1
370
    18
  0
POLYLINE
  5
4AF
330
291
100
AcDbEntity
  8
Ebene 1
 62
   179
420
  1709851
370
    18
100
AcDb2dPolyline
 66
     1
 10
0.0
 20
0.0
 30
0.0
  0
VERTEX
  5
4B0
330
4AF
100
AcDbEntity
  8
Ebene 1
 62
   179
420
  1709851
370
    18
100
AcDbVertex
100
AcDb2dVertex
 10
84.20433483137947
 20
-201.9053330658431
 30
0.0
  0
VERTEX
  5
4B1
330
4AF
100
AcDbEntity
  8
Ebene 1
 62
   179
420
  1709851
370
    18
100
AcDbVertex
100
AcDb2dVertex
 10
84.20433483137947
 20
-206.5196939587867
 30
0.0
  0
SEQEND
  5
4B2
330
4AF
100
AcDbEntity
  8
Ebene 1
370
    18
  0
POLYLINE
  5
4B3
330
291
100
AcDbEntity
  8
Ebene 1
 62
   179
420
  1709851
370
    18
100
AcDb2dPolyline
 66
     1
 10
0.0
 20
0.0
 30
0.0
  0
VERTEX
  5
4B4
330
4B3
100
AcDbEntity
  8
Ebene 1
 62
   179
420
  1709851
370
    18
100
AcDbVertex
100
AcDb2dVertex
 10
81.91834172214195
 20
-201.820583716906
 30
0.0
  0
VERTEX
  5
4B5
330
4B3
100
AcDbEntity
  8
Ebene 1
 62
   179
420
  1709851
370
    18
100
AcDbVertex
100
AcDb2dVertex
 10
81.83410913752759
 20
-201.8419433089145
 30
0.0
  0
VERTEX
  5
4B6
330
4B3
100
AcDbEntity
  8
Ebene 1
 62
   179
420
  1709851
370
    18
100
AcDbVertex
100
AcDb2dVertex
 10
81.8129218002933
 20
-201.9053330658431
 30
0.0
  0
SEQEND
  5
4B7
330
4B3
100
AcDbEntity
  8
Ebene 1
370
    18
  0
POLYLINE
  5
4B8
330
291
100
AcDbEntity
  8
Ebene 1
 62
   179
420
  1709851
370
    18
100
AcDb2dPolyline
 66
     1
 10
0.0
 20
0.0
 30
0.0
  0
VERTEX
  5
4B9
330
4B8
100
AcDbEntity
  8
Ebene 1
 62
   179
420
  1709851
370
    18
100
AcDbVertex
100
AcDb2dVertex
 10
81.8129218002933
 20
-205.5040798097351
 30
0.0
  0
VERTEX
  5
4BA
330
4B8
100
AcDbEntity
  8
Ebene 1
 62
   179
420
  1709851
370
    18
100
AcDbVertex
100
AcDb2dVertex
 10
81.8129218002933
 20
-202.9216362339918
 30
0.0
  0
VERTEX
  5
4BB
330
4B8
100
AcDbEntity
  8
Ebene 1
 62
   179
420
  1709851
370
    18
100
AcDbVertex
100
AcDb2dVertex
 10
81.8129218002933
 20
-201.9053330658431
 30
0.0
  0
SEQEND
  5
4BC
330
4B8
100
AcDbEntity
  8
Ebene 1
370
    18
  0
POLYLINE
  5
4BD
330
291
100
AcDbEntity
  8
Ebene 1
 62
   179
420
  1709851
370
    18
100
AcDb2dPolyline
 66
     1
 10
0.0
 20
0.0
 30
0.0
  0
VERTEX
  5
4BE
330
4BD
100
AcDbEntity
  8
Ebene 1
 62
   179
420
  1709851
370
    18
100
AcDbVertex
100
AcDb2dVertex
 10
81.8129218002933
 20
-205.5040798097351
 30
0.0
  0
VERTEX
  5
4BF
330
4BD
100
AcDbEntity
  8
Ebene 1
 62
   179
420
  1709851
370
    18
100
AcDbVertex
100
AcDb2dVertex
 10
79.82286239323874
 20
-205.5040798097351
 30
0.0
  0
SEQEND
  5
4C0
330
4BD
100
AcDbEntity
  8
Ebene 1
370
    18
  0
POLYLINE
  5
4C1
330
291
100
AcDbEntity
  8
Ebene 1
 62
   179
420
  1709851
370
    18
100
AcDb2dPolyline
 66
     1
 10
0.0
 20
0.0
 30
0.0
  0
VERTEX
  5
4C2
330
4C1
100
AcDbEntity
  8
Ebene 1
 62
   179
420
  1709851
370
    18
100
AcDbVertex
100
AcDb2dVertex
 10
74.21407468847774
 20
-206.8159721705183
 30
0.0
  0
VERTEX
  5
4C3
330
4C1
100
AcDbEntity
  8
Ebene 1
 62
   179
420
  1709851
370
    18
100
AcDbVertex
100
AcDb2dVertex
 10
81.41036239284186
 20
-206.8159721705183
 30
0.0
  0
VERTEX
  5
4C4
330
4C1
100
AcDbEntity
  8
Ebene 1
 62
   179
420
  1709851
370
    18
100
AcDbVertex
100
AcDb2dVertex
 10
81.41036239284186
 20
-205.5040798097351
 30
0.0
  0
SEQEND
  5
4C5
330
4C1
100
AcDbEntity
  8
Ebene 1
370
    18
  0
POLYLINE
  5
4C6
330
291
100
AcDbEntity
  8
Ebene 1
 62
   179
420
  1709851
370
    18
100
AcDb2dPolyline
 66
     1
 10
0.0
 20
0.0
 30
0.0
  0
VERTEX
  5
4C7
330
4C6
100
AcDbEntity
  8
Ebene 1
 62
   179
420
  1709851
370
    18
100
AcDbVertex
100
AcDb2dVertex
 10
76.8171888371325
 20
-204.7840548533179
 30
0.0
  0
VERTEX
  5
4C8
330
4C6
100
AcDbEntity
  8
Ebene 1
 62
   179
420
  1709851
370
    18
100
AcDbVertex
100
AcDb2dVertex
 10
76.8171888371325
 20
-203.640972171312
 30
0.0
  0
VERTEX
  5
4C9
330
4C6
100
AcDbEntity
  8
Ebene 1
 62
   179
420
  1709851
370
    18
100
AcDbVertex
100
AcDb2dVertex
 10
77.81247692282119
 20
-203.048415747849
 30
0.0
  0
VERTEX
  5
4CA
330
4C6
100
AcDbEntity
  8
Ebene 1
 62
   179
420
  1709851
370
    18
100
AcDbVertex
100
AcDb2dVertex
 10
78.80724824418708
 20
-203.640972171312
 30
0.0
  0
VERTEX
  5
4CB
330
4C6
100
AcDbEntity
  8
Ebene 1
 62
   179
420
  1709851
370
    18
100
AcDbVertex
100
AcDb2dVertex
 10
78.80724824418708
 20
-204.7840548533179
 30
0.0
  0
VERTEX
  5
4CC
330
4C6
100
AcDbEntity
  8
Ebene 1
 62
   179
420
  1709851
370
    18
100
AcDbVertex
100
AcDb2dVertex
 10
77.81247692282119
 20
-205.3766112767809
 30
0.0
  0
VERTEX
  5
4CD
330
4C6
100
AcDbEntity
  8
Ebene 1
 62
   179
420
  1709851
370
    18
100
AcDbVertex
100
AcDb2dVertex
 10
76.8171888371325
 20
-204.7840548533179
 30
0.0
  0
SEQEND
  5
4CE
330
4C6
100
AcDbEntity
  8
Ebene 1
370
    18
  0
SPLINE
  5
4CF
330
291
100
AcDbEntity
  8
Ebene 1
 62
   179
420
  1709851
370
    18
100
AcDbSpline
210
0.0
220
0.0
230
1.0
 70
    11
 71
     3
 72
    17
 73
    13
 74
     0
 42
0.0000000001
 43
0.0000000001
 40
0.0
 40
0.0
 40
0.0
 40
0.0
 40
1.0
 40
1.0
 40
1.0
 40
2.0
 40
2.0
 40
2.0
 40
3.0
 40
3.0
 40
3.0
 40
4.0
 40
4.0
 40
4.0
 40
4.0
 10
78.80724824418708
 20
-204.2121690027664
 30
0.0
 10
78.80724824418708
 20
-203.6623317633205
 30
0.0
 10
78.34164358935557
 20
-203.2179144457233
 30
0.0
 10
77.81247692282119
 20
-203.2179144457233
 30
0.0
 10
77.26212291905253
 20
-203.2179144457233
 30
0.0
 10
76.8171888371325
 20
-203.6623317633205
 30
0.0
 10
76.8171888371325
 20
-204.2121690027664
 30
0.0
 10
76.8171888371325
 20
-204.7413356693008
 30
0.0
 10
77.26212291905253
 20
-205.2078015980036
 30
0.0
 10
77.81247692282119
 20
-205.2078015980036
 30
0.0
 10
78.36231416226707
 20
-205.2078015980036
 30
0.0
 10
78.80724824418708
 20
-204.7413356693008
 30
0.0
 10
78.80724824418708
 20
-204.2121690027664
 30
0.0
  0
POLYLINE
  5
4D0
330
291
100
AcDbEntity
  8
Ebene 1
 62
   179
420
  1709851
370
    18
100
AcDb2dPolyline
 66
     1
 10
0.0
 20
0.0
 30
0.0
  0
VERTEX
  5
4D1
330
4D0
100
AcDbEntity
  8
Ebene 1
 62
   179
420
  1709851
370
    18
100
AcDbVertex
100
AcDb2dVertex
 10
80.01337617357305
 20
-202.9216362339918
 30
0.0
  0
VERTEX
  5
4D2
330
4D0
100
AcDbEntity
  8
Ebene 1
 62
   179
420
  1709851
370
    18
100
AcDbVertex
100
AcDb2dVertex
 10
80.01337617357305
 20
-202.7101073711975
 30
0.0
  0
VERTEX
  5
4D3
330
4D0
100
AcDbEntity
  8
Ebene 1
 62
   179
420
  1709851
370
    18
100
AcDbVertex
100
AcDb2dVertex
 10
79.61116127567013
 20
-202.7101073711975
 30
0.0
  0
VERTEX
  5
4D4
330
4D0
100
AcDbEntity
  8
Ebene 1
 62
   179
420
  1709851
370
    18
100
AcDbVertex
100
AcDb2dVertex
 10
79.61116127567013
 20
-205.7156086725294
 30
0.0
  0
SEQEND
  5
4D5
330
4D0
100
AcDbEntity
  8
Ebene 1
370
    18
  0
POLYLINE
  5
4D6
330
291
100
AcDbEntity
  8
Ebene 1
 62
   179
420
  1709851
370
    18
100
AcDb2dPolyline
 66
     1
 10
0.0
 20
0.0
 30
0.0
  0
VERTEX
  5
4D7
330
4D6
100
AcDbEntity
  8
Ebene 1
 62
   179
420
  1709851
370
    18
100
AcDbVertex
100
AcDb2dVertex
 10
79.61116127567013
 20
-205.7156086725294
 30
0.0
  0
VERTEX
  5
4D8
330
4D6
100
AcDbEntity
  8
Ebene 1
 62
   179
420
  1709851
370
    18
100
AcDbVertex
100
AcDb2dVertex
 10
80.01337617357305
 20
-205.7156086725294
 30
0.0
  0
VERTEX
  5
4D9
330
4D6
100
AcDbEntity
  8
Ebene 1
 62
   179
420
  1709851
370
    18
100
AcDbVertex
100
AcDb2dVertex
 10
80.01337617357305
 20
-205.5040798097351
 30
0.0
  0
SEQEND
  5
4DA
330
4D6
100
AcDbEntity
  8
Ebene 1
370
    18
  0
POLYLINE
  5
4DB
330
291
100
AcDbEntity
  8
Ebene 1
 62
   179
420
  1709851
370
    18
100
AcDb2dPolyline
 66
     1
 10
0.0
 20
0.0
 30
0.0
  0
VERTEX
  5
4DC
330
4DB
100
AcDbEntity
  8
Ebene 1
 62
   179
420
  1709851
370
    18
100
AcDbVertex
100
AcDb2dVertex
 10
79.82286239323874
 20
-202.9216362339918
 30
0.0
  0
VERTEX
  5
4DD
330
4DB
100
AcDbEntity
  8
Ebene 1
 62
   179
420
  1709851
370
    18
100
AcDbVertex
100
AcDb2dVertex
 10
79.82286239323874
 20
-205.5040798097351
 30
0.0
  0
SEQEND
  5
4DE
330
4DB
100
AcDbEntity
  8
Ebene 1
370
    18
  0
POLYLINE
  5
4DF
330
291
100
AcDbEntity
  8
Ebene 1
 62
   179
420
  1709851
370
    18
100
AcDb2dPolyline
 66
     1
 10
0.0
 20
0.0
 30
0.0
  0
VERTEX
  5
4E0
330
4DF
100
AcDbEntity
  8
Ebene 1
 62
   179
420
  1709851
370
    18
100
AcDbVertex
100
AcDb2dVertex
 10
79.82286239323874
 20
-202.9216362339918
 30
0.0
  0
VERTEX
  5
4E1
330
4DF
100
AcDbEntity
  8
Ebene 1
 62
   179
420
  1709851
370
    18
100
AcDbVertex
100
AcDb2dVertex
 10
81.8129218002933
 20
-202.9216362339918
 30
0.0
  0
SEQEND
  5
4E2
330
4DF
100
AcDbEntity
  8
Ebene 1
370
    18
  0
POLYLINE
  5
4E3
330
291
100
AcDbEntity
  8
Ebene 1
 62
   179
420
  1709851
370
    18
100
AcDb2dPolyline
 66
     1
 10
0.0
 20
0.0
 30
0.0
  0
VERTEX
  5
4E4
330
4E3
100
AcDbEntity
  8
Ebene 1
 62
   179
420
  1709851
370
    18
100
AcDbVertex
100
AcDb2dVertex
 10
81.41036239284186
 20
-202.9216362339918
 30
0.0
  0
VERTEX
  5
4E5
330
4E3
100
AcDbEntity
  8
Ebene 1
 62
   179
420
  1709851
370
    18
100
AcDbVertex
100
AcDb2dVertex
 10
81.41036239284186
 20
-200.8049695678543
 30
0.0
  0
SEQEND
  5
4E6
330
4E3
100
AcDbEntity
  8
Ebene 1
370
    18
  0
POLYLINE
  5
4E7
330
291
100
AcDbEntity
  8
Ebene 1
 62
   179
420
  1709851
370
    18
100
AcDb2dPolyline
 66
     1
 10
0.0
 20
0.0
 30
0.0
  0
VERTEX
  5
4E8
330
4E7
100
AcDbEntity
  8
Ebene 1
 62
   179
420
  1709851
370
    18
100
AcDbVertex
100
AcDb2dVertex
 10
81.41036239284186
 20
-200.8049695678543
 30
0.0
  0
VERTEX
  5
4E9
330
4E7
100
AcDbEntity
  8
Ebene 1
 62
   179
420
  1709851
370
    18
100
AcDbVertex
100
AcDb2dVertex
 10
74.21407468847774
 20
-200.8049695678543
 30
0.0
  0
SEQEND
  5
4EA
330
4E7
100
AcDbEntity
  8
Ebene 1
370
    18
  0
POLYLINE
  5
4EB
330
291
100
AcDbEntity
  8
Ebene 1
 62
   179
420
  1709851
370
    18
100
AcDb2dPolyline
 66
     1
 10
0.0
 20
0.0
 30
0.0
  0
VERTEX
  5
4EC
330
4EB
100
AcDbEntity
  8
Ebene 1
 62
   179
420
  1709851
370
    18
100
AcDbVertex
100
AcDb2dVertex
 10
74.21407468847774
 20
-200.8049695678543
 30
0.0
  0
VERTEX
  5
4ED
330
4EB
100
AcDbEntity
  8
Ebene 1
 62
   179
420
  1709851
370
    18
100
AcDbVertex
100
AcDb2dVertex
 10
74.21407468847774
 20
-206.8159721705183
 30
0.0
  0
SEQEND
  5
4EE
330
4EB
100
AcDbEntity
  8
Ebene 1
370
    18
  0
POLYLINE
  5
4EF
330
291
100
AcDbEntity
  8
Ebene 1
 62
   179
420
  1709851
370
    18
100
AcDb2dPolyline
 66
     1
 10
0.0
 20
0.0
 30
0.0
  0
VERTEX
  5
4F0
330
4EF
100
AcDbEntity
  8
Ebene 1
 62
   179
420
  1709851
370
    18
100
AcDbVertex
100
AcDb2dVertex
 10
137.3962646140884
 20
-77.21268579883919
 30
0.0
  0
VERTEX
  5
4F1
330
4EF
100
AcDbEntity
  8
Ebene 1
 62
   179
420
  1709851
370
    18
100
AcDbVertex
100
AcDb2dVertex
 10
153.3983886335254
 20
-82.22908933491148
 30
0.0
  0
VERTEX
  5
4F2
330
4EF
100
AcDbEntity
  8
Ebene 1
 62
   179
420
  1709851
370
    18
100
AcDbVertex
100
AcDb2dVertex
 10
137.3962646140884
 20
-87.22447778852374
 30
0.0
  0
SEQEND
  5
4F3
330
4EF
100
AcDbEntity
  8
Ebene 1
370
    18
  0
POLYLINE
  5
4F4
330
291
100
AcDbEntity
  8
Ebene 1
 62
   179
420
  1709851
370
    18
100
AcDb2dPolyline
 66
     1
 10
0.0
 20
0.0
 30
0.0
  0
VERTEX
  5
4F5
330
4F4
100
AcDbEntity
  8
Ebene 1
 62
   179
420
  1709851
370
    18
100
AcDbVertex
100
AcDb2dVertex
 10
137.3962646140884
 20
-87.22447778852374
 30
0.0
  0
VERTEX
  5
4F6
330
4F4
100
AcDbEntity
  8
Ebene 1
 62
   179
420
  1709851
370
    18
100
AcDbVertex
100
AcDb2dVertex
 10
153.3983886335254
 20
-92.219866242136
 30
0.0
  0
VERTEX
  5
4F7
330
4F4
100
AcDbEntity
  8
Ebene 1
 62
   179
420
  1709851
370
    18
100
AcDbVertex
100
AcDb2dVertex
 10
137.3962646140884
 20
-97.21525469574827
 30
0.0
  0
SEQEND
  5
4F8
330
4F4
100
AcDbEntity
  8
Ebene 1
370
    18
  0
POLYLINE
  5
4F9
330
291
100
AcDbEntity
  8
Ebene 1
 62
   179
420
  1709851
370
    18
100
AcDb2dPolyline
 66
     1
 10
0.0
 20
0.0
 30
0.0
  0
VERTEX
  5
4FA
330
4F9
100
AcDbEntity
  8
Ebene 1
 62
   179
420
  1709851
370
    18
100
AcDbVertex
100
AcDb2dVertex
 10
137.3962646140884
 20
-97.21525469574827
 30
0.0
  0
VERTEX
  5
4FB
330
4F9
100
AcDbEntity
  8
Ebene 1
 62
   179
420
  1709851
370
    18
100
AcDbVertex
100
AcDb2dVertex
 10
153.3983886335254
 20
-102.210298639812
 30
0.0
  0
VERTEX
  5
4FC
330
4F9
100
AcDbEntity
  8
Ebene 1
 62
   179
420
  1709851
370
    18
100
AcDbVertex
100
AcDb2dVertex
 10
137.3962646140884
 20
-107.2270466854328
 30
0.0
  0
SEQEND
  5
4FD
330
4F9
100
AcDbEntity
  8
Ebene 1
370
    18
  0
POLYLINE
  5
4FE
330
291
100
AcDbEntity
  8
Ebene 1
 62
   179
420
  1709851
370
    18
100
AcDb2dPolyline
 66
     1
 10
0.0
 20
0.0
 30
0.0
  0
VERTEX
  5
4FF
330
4FE
100
AcDbEntity
  8
Ebene 1
 62
   179
420
  1709851
370
    18
100
AcDbVertex
100
AcDb2dVertex
 10
137.3962646140884
 20
-107.2270466854328
 30
0.0
  0
VERTEX
  5
500
330
4FE
100
AcDbEntity
  8
Ebene 1
 62
   179
420
  1709851
370
    18
100
AcDbVertex
100
AcDb2dVertex
 10
153.3983886335254
 20
-112.2224351390451
 30
0.0
  0
VERTEX
  5
501
330
4FE
100
AcDbEntity
  8
Ebene 1
 62
   179
420
  1709851
370
    18
100
AcDbVertex
100
AcDb2dVertex
 10
137.3962646140884
 20
-117.2174790831088
 30
0.0
  0
SEQEND
  5
502
330
4FE
100
AcDbEntity
  8
Ebene 1
370
    18
  0
POLYLINE
  5
503
330
291
100
AcDbEntity
  8
Ebene 1
 62
   179
420
  1709851
370
    18
100
AcDb2dPolyline
 66
     1
 10
0.0
 20
0.0
 30
0.0
  0
VERTEX
  5
504
330
503
100
AcDbEntity
  8
Ebene 1
 62
   179
420
  1709851
370
    18
100
AcDbVertex
100
AcDb2dVertex
 10
137.3962646140884
 20
-117.2174790831088
 30
0.0
  0
VERTEX
  5
505
330
503
100
AcDbEntity
  8
Ebene 1
 62
   179
420
  1709851
370
    18
100
AcDbVertex
100
AcDb2dVertex
 10
153.3983886335254
 20
-122.2128675367211
 30
0.0
  0
VERTEX
  5
506
330
503
100
AcDbEntity
  8
Ebene 1
 62
   179
420
  1709851
370
    18
100
AcDbVertex
100
AcDb2dVertex
 10
137.3962646140884
 20
-127.2082559903334
 30
0.0
  0
SEQEND
  5
507
330
503
100
AcDbEntity
  8
Ebene 1
370
    18
  0
POLYLINE
  5
508
330
291
100
AcDbEntity
  8
Ebene 1
 62
   179
420
  1709851
370
    18
100
AcDb2dPolyline
 66
     1
 10
0.0
 20
0.0
 30
0.0
  0
VERTEX
  5
509
330
508
100
AcDbEntity
  8
Ebene 1
 62
   179
420
  1709851
370
    18
100
AcDbVertex
100
AcDb2dVertex
 10
137.3962646140884
 20
-127.2082559903334
 30
0.0
  0
VERTEX
  5
50A
330
508
100
AcDbEntity
  8
Ebene 1
 62
   179
420
  1709851
370
    18
100
AcDbVertex
100
AcDb2dVertex
 10
153.3983886335254
 20
-132.2246595264056
 30
0.0
  0
VERTEX
  5
50B
330
508
100
AcDbEntity
  8
Ebene 1
 62
   179
420
  1709851
370
    18
100
AcDbVertex
100
AcDb2dVertex
 10
137.3962646140884
 20
-137.2200479800179
 30
0.0
  0
SEQEND
  5
50C
330
508
100
AcDbEntity
  8
Ebene 1
370
    18
  0
POLYLINE
  5
50D
330
291
100
AcDbEntity
  8
Ebene 1
 62
   179
420
  1709851
370
    18
100
AcDb2dPolyline
 66
     1
 10
0.0
 20
0.0
 30
0.0
  0
VERTEX
  5
50E
330
50D
100
AcDbEntity
  8
Ebene 1
 62
   179
420
  1709851
370
    18
100
AcDbVertex
100
AcDb2dVertex
 10
137.3962646140884
 20
-167.2132215293773
 30
0.0
  0
VERTEX
  5
50F
330
50D
100
AcDbEntity
  8
Ebene 1
 62
   179
420
  1709851
370
    18
100
AcDbVertex
100
AcDb2dVertex
 10
153.3983886335254
 20
-172.2086099829895
 30
0.0
  0
VERTEX
  5
510
330
50D
100
AcDbEntity
  8
Ebene 1
 62
   179
420
  1709851
370
    18
100
AcDbVertex
100
AcDb2dVertex
 10
137.3962646140884
 20
-177.2039984366018
 30
0.0
  0
SEQEND
  5
511
330
50D
100
AcDbEntity
  8
Ebene 1
370
    18
  0
POLYLINE
  5
512
330
291
100
AcDbEntity
  8
Ebene 1
 62
   179
420
  1709851
370
    18
100
AcDb2dPolyline
 66
     1
 10
0.0
 20
0.0
 30
0.0
  0
VERTEX
  5
513
330
512
100
AcDbEntity
  8
Ebene 1
 62
   179
420
  1709851
370
    18
100
AcDbVertex
100
AcDb2dVertex
 10
33.40433484407947
 20
-177.2039984366018
 30
0.0
  0
VERTEX
  5
514
330
512
100
AcDbEntity
  8
Ebene 1
 62
   179
420
  1709851
370
    18
100
AcDbVertex
100
AcDb2dVertex
 10
38.42125514447455
 20
-193.2057779464902
 30
0.0
  0
VERTEX
  5
515
330
512
100
AcDbEntity
  8
Ebene 1
 62
   179
420
  1709851
370
    18
100
AcDbVertex
100
AcDb2dVertex
 10
43.41664359808681
 20
-177.2039984366018
 30
0.0
  0
SEQEND
  5
516
330
512
100
AcDbEntity
  8
Ebene 1
370
    18
  0
POLYLINE
  5
517
330
291
100
AcDbEntity
  8
Ebene 1
 62
   179
420
  1709851
370
    18
100
AcDb2dPolyline
 66
     1
 10
0.0
 20
0.0
 30
0.0
  0
VERTEX
  5
518
330
517
100
AcDbEntity
  8
Ebene 1
 62
   179
420
  1709851
370
    18
100
AcDbVertex
100
AcDb2dVertex
 10
43.41664359808681
 20
-177.2039984366018
 30
0.0
  0
VERTEX
  5
519
330
517
100
AcDbEntity
  8
Ebene 1
 62
   179
420
  1709851
370
    18
100
AcDbVertex
100
AcDb2dVertex
 10
48.41151528737629
 20
-193.2057779464902
 30
0.0
  0
VERTEX
  5
51A
330
517
100
AcDbEntity
  8
Ebene 1
 62
   179
420
  1709851
370
    18
100
AcDbVertex
100
AcDb2dVertex
 10
53.40724825053708
 20
-177.2039984366018
 30
0.0
  0
SEQEND
  5
51B
330
517
100
AcDbEntity
  8
Ebene 1
370
    18
  0
POLYLINE
  5
51C
330
291
100
AcDbEntity
  8
Ebene 1
 62
   179
420
  1709851
370
    18
100
AcDb2dPolyline
 66
     1
 10
0.0
 20
0.0
 30
0.0
  0
VERTEX
  5
51D
330
51C
100
AcDbEntity
  8
Ebene 1
 62
   179
420
  1709851
370
    18
100
AcDbVertex
100
AcDb2dVertex
 10
53.40724825053708
 20
-177.2039984366018
 30
0.0
  0
VERTEX
  5
51E
330
51C
100
AcDbEntity
  8
Ebene 1
 62
   179
420
  1709851
370
    18
100
AcDbVertex
100
AcDb2dVertex
 10
58.40263670414934
 20
-193.2057779464902
 30
0.0
  0
VERTEX
  5
51F
330
51C
100
AcDbEntity
  8
Ebene 1
 62
   179
420
  1709851
370
    18
100
AcDbVertex
100
AcDb2dVertex
 10
63.41869573067311
 20
-177.2039984366018
 30
0.0
  0
SEQEND
  5
520
330
51C
100
AcDbEntity
  8
Ebene 1
370
    18
  0
POLYLINE
  5
521
330
291
100
AcDbEntity
  8
Ebene 1
 62
   179
420
  1709851
370
    18
100
AcDb2dPolyline
 66
     1
 10
0.0
 20
0.0
 30
0.0
  0
VERTEX
  5
522
330
521
100
AcDbEntity
  8
Ebene 1
 62
   179
420
  1709851
370
    18
100
AcDbVertex
100
AcDb2dVertex
 10
63.41869573067311
 20
-177.2039984366018
 30
0.0
  0
VERTEX
  5
523
330
521
100
AcDbEntity
  8
Ebene 1
 62
   179
420
  1709851
370
    18
100
AcDbVertex
100
AcDb2dVertex
 10
68.4144286938339
 20
-193.2057779464902
 30
0.0
  0
VERTEX
  5
524
330
521
100
AcDbEntity
  8
Ebene 1
 62
   179
420
  1709851
370
    18
100
AcDbVertex
100
AcDb2dVertex
 10
73.40981714744616
 20
-177.2039984366018
 30
0.0
  0
SEQEND
  5
525
330
521
100
AcDbEntity
  8
Ebene 1
370
    18
  0
POLYLINE
  5
526
330
291
100
AcDbEntity
  8
Ebene 1
 62
   179
420
  1709851
370
    18
100
AcDb2dPolyline
 66
     1
 10
0.0
 20
0.0
 30
0.0
  0
VERTEX
  5
527
330
526
100
AcDbEntity
  8
Ebene 1
 62
   179
420
  1709851
370
    18
100
AcDbVertex
100
AcDb2dVertex
 10
73.40981714744616
 20
-177.2039984366018
 30
0.0
  0
VERTEX
  5
528
330
526
100
AcDbEntity
  8
Ebene 1
 62
   179
420
  1709851
370
    18
100
AcDbVertex
100
AcDb2dVertex
 10
78.40468883673563
 20
-193.2057779464902
 30
0.0
  0
VERTEX
  5
529
330
526
100
AcDbEntity
  8
Ebene 1
 62
   179
420
  1709851
370
    18
100
AcDbVertex
100
AcDb2dVertex
 10
83.40042179989642
 20
-177.2039984366018
 30
0.0
  0
SEQEND
  5
52A
330
526
100
AcDbEntity
  8
Ebene 1
370
    18
  0
POLYLINE
  5
52B
330
291
100
AcDbEntity
  8
Ebene 1
 62
   179
420
  1709851
370
    18
100
AcDb2dPolyline
 66
     1
 10
0.0
 20
0.0
 30
0.0
  0
VERTEX
  5
52C
330
52B
100
AcDbEntity
  8
Ebene 1
 62
   179
420
  1709851
370
    18
100
AcDbVertex
100
AcDb2dVertex
 10
83.40042179989642
 20
-177.2039984366018
 30
0.0
  0
VERTEX
  5
52D
330
52B
100
AcDbEntity
  8
Ebene 1
 62
   179
420
  1709851
370
    18
100
AcDbVertex
100
AcDb2dVertex
 10
88.41648082642018
 20
-193.2057779464902
 30
0.0
  0
VERTEX
  5
52E
330
52B
100
AcDbEntity
  8
Ebene 1
 62
   179
420
  1709851
370
    18
100
AcDbVertex
100
AcDb2dVertex
 10
93.41221378958097
 20
-177.2039984366018
 30
0.0
  0
SEQEND
  5
52F
330
52B
100
AcDbEntity
  8
Ebene 1
370
    18
  0
POLYLINE
  5
530
330
291
100
AcDbEntity
  8
Ebene 1
 62
   179
420
  1709851
370
    18
100
AcDb2dPolyline
 66
     1
 10
0.0
 20
0.0
 30
0.0
  0
VERTEX
  5
531
330
530
100
AcDbEntity
  8
Ebene 1
 62
   179
420
  1709851
370
    18
100
AcDbVertex
100
AcDb2dVertex
 10
93.41221378958097
 20
-177.2039984366018
 30
0.0
  0
VERTEX
  5
532
330
530
100
AcDbEntity
  8
Ebene 1
 62
   179
420
  1709851
370
    18
100
AcDbVertex
100
AcDb2dVertex
 10
98.40760224319324
 20
-193.2057779464902
 30
0.0
  0
VERTEX
  5
533
330
530
100
AcDbEntity
  8
Ebene 1
 62
   179
420
  1709851
370
    18
100
AcDbVertex
100
AcDb2dVertex
 10
103.4028184420312
 20
-177.2039984366018
 30
0.0
  0
SEQEND
  5
534
330
530
100
AcDbEntity
  8
Ebene 1
370
    18
  0
POLYLINE
  5
535
330
291
100
AcDbEntity
  8
Ebene 1
 62
   179
420
  1709851
370
    18
100
AcDb2dPolyline
 66
     1
 10
0.0
 20
0.0
 30
0.0
  0
VERTEX
  5
536
330
535
100
AcDbEntity
  8
Ebene 1
 62
   179
420
  1709851
370
    18
100
AcDbVertex
100
AcDb2dVertex
 10
133.3954752270678
 20
-177.2039984366018
 30
0.0
  0
VERTEX
  5
537
330
535
100
AcDbEntity
  8
Ebene 1
 62
   179
420
  1709851
370
    18
100
AcDbVertex
100
AcDb2dVertex
 10
138.4122232726886
 20
-193.2057779464902
 30
0.0
  0
VERTEX
  5
538
330
535
100
AcDbEntity
  8
Ebene 1
 62
   179
420
  1709851
370
    18
100
AcDbVertex
100
AcDb2dVertex
 10
143.4076117263009
 20
-177.2039984366018
 30
0.0
  0
SEQEND
  5
539
330
535
100
AcDbEntity
  8
Ebene 1
370
    18
  0
POLYLINE
  5
53A
330
291
100
AcDbEntity
  8
Ebene 1
 62
   179
420
  1709851
370
    18
100
AcDb2dPolyline
 66
     1
 10
0.0
 20
0.0
 30
0.0
  0
VERTEX
  5
53B
330
53A
100
AcDbEntity
  8
Ebene 1
 62
   179
420
  1709851
370
    18
100
AcDbVertex
100
AcDb2dVertex
 10
143.4076117263009
 20
-177.2039984366018
 30
0.0
  0
VERTEX
  5
53C
330
53A
100
AcDbEntity
  8
Ebene 1
 62
   179
420
  1709851
370
    18
100
AcDbVertex
100
AcDb2dVertex
 10
148.4030001799131
 20
-193.2057779464902
 30
0.0
  0
VERTEX
  5
53D
330
53A
100
AcDbEntity
  8
Ebene 1
 62
   179
420
  1709851
370
    18
100
AcDbVertex
100
AcDb2dVertex
 10
153.3983886335254
 20
-177.2039984366018
 30
0.0
  0
SEQEND
  5
53E
330
53A
100
AcDbEntity
  8
Ebene 1
370
    18
  0
POLYLINE
  5
53F
330
291
100
AcDbEntity
  8
Ebene 1
 62
   179
420
  1709851
370
    18
100
AcDb2dPolyline
 66
     1
 10
0.0
 20
0.0
 30
0.0
  0
VERTEX
  5
540
330
53F
100
AcDbEntity
  8
Ebene 1
 62
   179
420
  1709851
370
    18
100
AcDbVertex
100
AcDb2dVertex
 10
153.3983886335254
 20
-177.2039984366018
 30
0.0
  0
VERTEX
  5
541
330
53F
100
AcDbEntity
  8
Ebene 1
 62
   179
420
  1709851
370
    18
100
AcDbVertex
100
AcDb2dVertex
 10
137.3962646140884
 20
-177.2039984366018
 30
0.0
  0
SEQEND
  5
542
330
53F
100
AcDbEntity
  8
Ebene 1
370
    18
  0
POLYLINE
  5
543
330
291
100
AcDbEntity
  8
Ebene 1
 62
   179
420
  1709851
370
    18
100
AcDb2dPolyline
 66
     1
 10
0.0
 20
0.0
 30
0.0
  0
VERTEX
  5
544
330
543
100
AcDbEntity
  8
Ebene 1
 62
   179
420
  1709851
370
    18
100
AcDbVertex
100
AcDb2dVertex
 10
162.204052693824
 20
-198.4126952628968
 30
0.0
  0
VERTEX
  5
545
330
543
100
AcDbEntity
  8
Ebene 1
 62
   179
420
  1709851
370
    18
100
AcDbVertex
100
AcDb2dVertex
 10
162.204052693824
 20
-186.8137477831577
 30
0.0
  0
SEQEND
  5
546
330
543
100
AcDbEntity
  8
Ebene 1
370
    18
  0
POLYLINE
  5
547
330
291
100
AcDbEntity
  8
Ebene 1
 62
   179
420
  1709851
370
    18
100
AcDb2dPolyline
 66
     1
 10
0.0
 20
0.0
 30
0.0
  0
VERTEX
  5
548
330
547
100
AcDbEntity
  8
Ebene 1
 62
   179
420
  1709851
370
    18
100
AcDbVertex
100
AcDb2dVertex
 10
166.6065402144248
 20
-186.8137477831577
 30
0.0
  0
VERTEX
  5
549
330
547
100
AcDbEntity
  8
Ebene 1
 62
   179
420
  1709851
370
    18
100
AcDbVertex
100
AcDb2dVertex
 10
166.6065402144248
 20
-198.4126952628968
 30
0.0
  0
SEQEND
  5
54A
330
547
100
AcDbEntity
  8
Ebene 1
370
    18
  0
POLYLINE
  5
54B
330
291
100
AcDbEntity
  8
Ebene 1
 62
   179
420
  1709851
370
    18
100
AcDb2dPolyline
 66
     1
 10
0.0
 20
0.0
 30
0.0
  0
VERTEX
  5
54C
330
54B
100
AcDbEntity
  8
Ebene 1
 62
   179
420
  1709851
370
    18
100
AcDbVertex
100
AcDb2dVertex
 10
162.204052693824
 20
-176.8229708759332
 30
0.0
  0
VERTEX
  5
54D
330
54B
100
AcDbEntity
  8
Ebene 1
 62
   179
420
  1709851
370
    18
100
AcDbVertex
100
AcDb2dVertex
 10
162.204052693824
 20
-118.0219088789147
 30
0.0
  0
SEQEND
  5
54E
330
54B
100
AcDbEntity
  8
Ebene 1
370
    18
  0
POLYLINE
  5
54F
330
291
100
AcDbEntity
  8
Ebene 1
 62
   179
420
  1709851
370
    18
100
AcDb2dPolyline
 66
     1
 10
0.0
 20
0.0
 30
0.0
  0
VERTEX
  5
550
330
54F
100
AcDbEntity
  8
Ebene 1
 62
   179
420
  1709851
370
    18
100
AcDbVertex
100
AcDb2dVertex
 10
162.204052693824
 20
-179.6169433144708
 30
0.0
  0
VERTEX
  5
551
330
54F
100
AcDbEntity
  8
Ebene 1
 62
   179
420
  1709851
370
    18
100
AcDbVertex
100
AcDb2dVertex
 10
162.204052693824
 20
-179.2145561617936
 30
0.0
  0
SEQEND
  5
552
330
54F
100
AcDbEntity
  8
Ebene 1
370
    18
  0
POLYLINE
  5
553
330
291
100
AcDbEntity
  8
Ebene 1
 62
   179
420
  1709851
370
    18
100
AcDb2dPolyline
 66
     1
 10
0.0
 20
0.0
 30
0.0
  0
VERTEX
  5
554
330
553
100
AcDbEntity
  8
Ebene 1
 62
   179
420
  1709851
370
    18
100
AcDbVertex
100
AcDb2dVertex
 10
166.6065402144248
 20
-179.2145561617936
 30
0.0
  0
VERTEX
  5
555
330
553
100
AcDbEntity
  8
Ebene 1
 62
   179
420
  1709851
370
    18
100
AcDbVertex
100
AcDb2dVertex
 10
166.6065402144248
 20
-179.6169433144708
 30
0.0
  0
SEQEND
  5
556
330
553
100
AcDbEntity
  8
Ebene 1
370
    18
  0
POLYLINE
  5
557
330
291
100
AcDbEntity
  8
Ebene 1
 62
   179
420
  1709851
370
    18
100
AcDb2dPolyline
 66
     1
 10
0.0
 20
0.0
 30
0.0
  0
VERTEX
  5
558
330
557
100
AcDbEntity
  8
Ebene 1
 62
   179
420
  1709851
370
    18
100
AcDbVertex
100
AcDb2dVertex
 10
166.6065402144248
 20
-118.0219088789147
 30
0.0
  0
VERTEX
  5
559
330
557
100
AcDbEntity
  8
Ebene 1
 62
   179
420
  1709851
370
    18
100
AcDbVertex
100
AcDb2dVertex
 10
166.6065402144248
 20
-176.8229708759332
 30
0.0
  0
SEQEND
  5
55A
330
557
100
AcDbEntity
  8
Ebene 1
370
    18
  0
POLYLINE
  5
55B
330
291
100
AcDbEntity
  8
Ebene 1
 62
   179
420
  1709851
370
    18
100
AcDb2dPolyline
 66
     1
 10
0.0
 20
0.0
 30
0.0
  0
VERTEX
  5
55C
330
55B
100
AcDbEntity
  8
Ebene 1
 62
   179
420
  1709851
370
    18
100
AcDbVertex
100
AcDb2dVertex
 10
162.204052693824
 20
-179.2145561617936
 30
0.0
  0
VERTEX
  5
55D
330
55B
100
AcDbEntity
  8
Ebene 1
 62
   179
420
  1709851
370
    18
100
AcDbVertex
100
AcDb2dVertex
 10
162.204052693824
 20
-179.6169433144708
 30
0.0
  0
SEQEND
  5
55E
330
55B
100
AcDbEntity
  8
Ebene 1
370
    18
  0
POLYLINE
  5
55F
330
291
100
AcDbEntity
  8
Ebene 1
 62
   179
420
  1709851
370
    18
100
AcDb2dPolyline
 66
     1
 10
0.0
 20
0.0
 30
0.0
  0
VERTEX
  5
560
330
55F
100
AcDbEntity
  8
Ebene 1
 62
   179
420
  1709851
370
    18
100
AcDbVertex
100
AcDb2dVertex
 10
166.6065402144248
 20
-179.6169433144708
 30
0.0
  0
VERTEX
  5
561
330
55F
100
AcDbEntity
  8
Ebene 1
 62
   179
420
  1709851
370
    18
100
AcDbVertex
100
AcDb2dVertex
 10
166.6065402144248
 20
-179.2145561617936
 30
0.0
  0
SEQEND
  5
562
330
55F
100
AcDbEntity
  8
Ebene 1
370
    18
  0
POLYLINE
  5
563
330
291
100
AcDbEntity
  8
Ebene 1
 62
   179
420
  1709851
370
    18
100
AcDb2dPolyline
 66
     1
 10
0.0
 20
0.0
 30
0.0
  0
VERTEX
  5
564
330
563
100
AcDbEntity
  8
Ebene 1
 62
   179
420
  1709851
370
    18
100
AcDbVertex
100
AcDb2dVertex
 10
162.204052693824
 20
-179.6169433144708
 30
0.0
  0
VERTEX
  5
565
330
563
100
AcDbEntity
  8
Ebene 1
 62
   179
420
  1709851
370
    18
100
AcDbVertex
100
AcDb2dVertex
 10
162.204052693824
 20
-179.2145561617936
 30
0.0
  0
SEQEND
  5
566
330
563
100
AcDbEntity
  8
Ebene 1
370
    18
  0
POLYLINE
  5
567
330
291
100
AcDbEntity
  8
Ebene 1
 62
   179
420
  1709851
370
    18
100
AcDb2dPolyline
 66
     1
 10
0.0
 20
0.0
 30
0.0
  0
VERTEX
  5
568
330
567
100
AcDbEntity
  8
Ebene 1
 62
   179
420
  1709851
370
    18
100
AcDbVertex
100
AcDb2dVertex
 10
167.1990966378877
 20
-186.5174695714262
 30
0.0
  0
VERTEX
  5
569
330
567
100
AcDbEntity
  8
Ebene 1
 62
   179
420
  1709851
370
    18
100
AcDbVertex
100
AcDb2dVertex
 10
167.1990966378877
 20
-179.9132215262022
 30
0.0
  0
SEQEND
  5
56A
330
567
100
AcDbEntity
  8
Ebene 1
370
    18
  0
POLYLINE
  5
56B
330
291
100
AcDbEntity
  8
Ebene 1
 62
   179
420
  1709851
370
    18
100
AcDb2dPolyline
 66
     1
 10
0.0
 20
0.0
 30
0.0
  0
VERTEX
  5
56C
330
56B
100
AcDbEntity
  8
Ebene 1
 62
   179
420
  1709851
370
    18
100
AcDbVertex
100
AcDb2dVertex
 10
169.6123860253053
 20
-187.2161349358349
 30
0.0
  0
VERTEX
  5
56D
330
56B
100
AcDbEntity
  8
Ebene 1
 62
   179
420
  1709851
370
    18
100
AcDbVertex
100
AcDb2dVertex
 10
169.6544161902253
 20
-187.342914449692
 30
0.0
  0
VERTEX
  5
56E
330
56B
100
AcDbEntity
  8
Ebene 1
 62
   179
420
  1709851
370
    18
100
AcDbVertex
100
AcDb2dVertex
 10
169.7601806216225
 20
-187.4063042066207
 30
0.0
  0
VERTEX
  5
56F
330
56B
100
AcDbEntity
  8
Ebene 1
 62
   179
420
  1709851
370
    18
100
AcDbVertex
100
AcDb2dVertex
 10
169.802555296091
 20
-187.4063042066207
 30
0.0
  0
SEQEND
  5
570
330
56B
100
AcDbEntity
  8
Ebene 1
370
    18
  0
POLYLINE
  5
571
330
291
100
AcDbEntity
  8
Ebene 1
 62
   179
420
  1709851
370
    18
100
AcDb2dPolyline
 66
     1
 10
0.0
 20
0.0
 30
0.0
  0
VERTEX
  5
572
330
571
100
AcDbEntity
  8
Ebene 1
 62
   179
420
  1709851
370
    18
100
AcDbVertex
100
AcDb2dVertex
 10
169.802555296091
 20
-179.0243868910078
 30
0.0
  0
VERTEX
  5
573
330
571
100
AcDbEntity
  8
Ebene 1
 62
   179
420
  1709851
370
    18
100
AcDbVertex
100
AcDb2dVertex
 10
169.6754312726853
 20
-179.0457464830164
 30
0.0
  0
VERTEX
  5
574
330
571
100
AcDbEntity
  8
Ebene 1
 62
   179
420
  1709851
370
    18
100
AcDbVertex
100
AcDb2dVertex
 10
169.6123860253053
 20
-179.1725259968735
 30
0.0
  0
VERTEX
  5
575
330
571
100
AcDbEntity
  8
Ebene 1
 62
   179
420
  1709851
370
    18
100
AcDbVertex
100
AcDb2dVertex
 10
169.6123860253053
 20
-179.2145561617936
 30
0.0
  0
SEQEND
  5
576
330
571
100
AcDbEntity
  8
Ebene 1
370
    18
  0
POLYLINE
  5
577
330
291
100
AcDbEntity
  8
Ebene 1
 62
   179
420
  1709851
370
    18
100
AcDb2dPolyline
 66
     1
 10
0.0
 20
0.0
 30
0.0
  0
VERTEX
  5
578
330
577
100
AcDbEntity
  8
Ebene 1
 62
   179
420
  1709851
370
    18
100
AcDbVertex
100
AcDb2dVertex
 10
169.6123860253053
 20
-179.2145561617936
 30
0.0
  0
VERTEX
  5
579
330
577
100
AcDbEntity
  8
Ebene 1
 62
   179
420
  1709851
370
    18
100
AcDbVertex
100
AcDb2dVertex
 10
169.6123860253053
 20
-183.2150010392657
 30
0.0
  0
VERTEX
  5
57A
330
577
100
AcDbEntity
  8
Ebene 1
 62
   179
420
  1709851
370
    18
100
AcDbVertex
100
AcDb2dVertex
 10
169.6123860253053
 20
-187.2161349358349
 30
0.0
  0
SEQEND
  5
57B
330
577
100
AcDbEntity
  8
Ebene 1
370
    18
  0
POLYLINE
  5
57C
330
291
100
AcDbEntity
  8
Ebene 1
 62
   179
420
  1709851
370
    18
100
AcDb2dPolyline
 66
     1
 10
0.0
 20
0.0
 30
0.0
  0
VERTEX
  5
57D
330
57C
100
AcDbEntity
  8
Ebene 1
 62
   179
420
  1709851
370
    18
100
AcDbVertex
100
AcDb2dVertex
 10
169.6123860253053
 20
-179.2145561617936
 30
0.0
  0
VERTEX
  5
57E
330
57C
100
AcDbEntity
  8
Ebene 1
 62
   179
420
  1709851
370
    18
100
AcDbVertex
100
AcDb2dVertex
 10
169.6123860253053
 20
-183.2150010392657
 30
0.0
  0
SEQEND
  5
57F
330
57C
100
AcDbEntity
  8
Ebene 1
370
    18
  0
POLYLINE
  5
580
330
291
100
AcDbEntity
  8
Ebene 1
 62
   179
420
  1709851
370
    18
100
AcDb2dPolyline
 66
     1
 10
0.0
 20
0.0
 30
0.0
  0
VERTEX
  5
581
330
580
100
AcDbEntity
  8
Ebene 1
 62
   179
420
  1709851
370
    18
100
AcDbVertex
100
AcDb2dVertex
 10
169.6123860253053
 20
-187.2161349358349
 30
0.0
  0
VERTEX
  5
582
330
580
100
AcDbEntity
  8
Ebene 1
 62
   179
420
  1709851
370
    18
100
AcDbVertex
100
AcDb2dVertex
 10
169.6123860253053
 20
-183.2150010392657
 30
0.0
  0
SEQEND
  5
583
330
580
100
AcDbEntity
  8
Ebene 1
370
    18
  0
POLYLINE
  5
584
330
291
100
AcDbEntity
  8
Ebene 1
 62
   179
420
  1709851
370
    18
100
AcDb2dPolyline
 66
     1
 10
0.0
 20
0.0
 30
0.0
  0
VERTEX
  5
585
330
584
100
AcDbEntity
  8
Ebene 1
 62
   179
420
  1709851
370
    18
100
AcDbVertex
100
AcDb2dVertex
 10
169.6123860253053
 20
-187.2161349358349
 30
0.0
  0
VERTEX
  5
586
330
584
100
AcDbEntity
  8
Ebene 1
 62
   179
420
  1709851
370
    18
100
AcDbVertex
100
AcDb2dVertex
 10
167.6011392810164
 20
-187.2161349358349
 30
0.0
  0
SEQEND
  5
587
330
584
100
AcDbEntity
  8
Ebene 1
370
    18
  0
POLYLINE
  5
588
330
291
100
AcDbEntity
  8
Ebene 1
 62
   179
420
  1709851
370
    18
100
AcDb2dPolyline
 66
     1
 10
0.0
 20
0.0
 30
0.0
  0
VERTEX
  5
589
330
588
100
AcDbEntity
  8
Ebene 1
 62
   179
420
  1709851
370
    18
100
AcDbVertex
100
AcDb2dVertex
 10
167.6011392810164
 20
-179.2145561617936
 30
0.0
  0
VERTEX
  5
58A
330
588
100
AcDbEntity
  8
Ebene 1
 62
   179
420
  1709851
370
    18
100
AcDbVertex
100
AcDb2dVertex
 10
169.6123860253053
 20
-179.2145561617936
 30
0.0
  0
SEQEND
  5
58B
330
588
100
AcDbEntity
  8
Ebene 1
370
    18
  0
POLYLINE
  5
58C
330
291
100
AcDbEntity
  8
Ebene 1
 62
   179
420
  1709851
370
    18
100
AcDb2dPolyline
 66
     1
 10
0.0
 20
0.0
 30
0.0
  0
VERTEX
  5
58D
330
58C
100
AcDbEntity
  8
Ebene 1
 62
   179
420
  1709851
370
    18
100
AcDbVertex
100
AcDb2dVertex
 10
167.6011392810164
 20
-187.2161349358349
 30
0.0
  0
VERTEX
  5
58E
330
58C
100
AcDbEntity
  8
Ebene 1
 62
   179
420
  1709851
370
    18
100
AcDbVertex
100
AcDb2dVertex
 10
167.6011392810164
 20
-179.2145561617936
 30
0.0
  0
VERTEX
  5
58F
330
58C
100
AcDbEntity
  8
Ebene 1
 62
   179
420
  1709851
370
    18
100
AcDbVertex
100
AcDb2dVertex
 10
167.1990966378877
 20
-179.9132215262022
 30
0.0
  0
SEQEND
  5
590
330
58C
100
AcDbEntity
  8
Ebene 1
370
    18
  0
POLYLINE
  5
591
330
291
100
AcDbEntity
  8
Ebene 1
 62
   179
420
  1709851
370
    18
100
AcDb2dPolyline
 66
     1
 10
0.0
 20
0.0
 30
0.0
  0
VERTEX
  5
592
330
591
100
AcDbEntity
  8
Ebene 1
 62
   179
420
  1709851
370
    18
100
AcDbVertex
100
AcDb2dVertex
 10
167.6011392810164
 20
-187.2161349358349
 30
0.0
  0
VERTEX
  5
593
330
591
100
AcDbEntity
  8
Ebene 1
 62
   179
420
  1709851
370
    18
100
AcDbVertex
100
AcDb2dVertex
 10
167.1990966378877
 20
-186.5174695714262
 30
0.0
  0
SEQEND
  5
594
330
591
100
AcDbEntity
  8
Ebene 1
370
    18
  0
POLYLINE
  5
595
330
291
100
AcDbEntity
  8
Ebene 1
 62
   179
420
  1709851
370
    18
100
AcDb2dPolyline
 66
     1
 10
0.0
 20
0.0
 30
0.0
  0
VERTEX
  5
596
330
595
100
AcDbEntity
  8
Ebene 1
 62
   179
420
  1709851
370
    18
100
AcDbVertex
100
AcDb2dVertex
 10
162.204052693824
 20
-179.2145561617936
 30
0.0
  0
VERTEX
  5
597
330
595
100
AcDbEntity
  8
Ebene 1
 62
   179
420
  1709851
370
    18
100
AcDbVertex
100
AcDb2dVertex
 10
162.204052693824
 20
-179.6169433144708
 30
0.0
  0
SEQEND
  5
598
330
595
100
AcDbEntity
  8
Ebene 1
370
    18
  0
POLYLINE
  5
599
330
291
100
AcDbEntity
  8
Ebene 1
 62
   179
420
  1709851
370
    18
100
AcDb2dPolyline
 66
     1
 10
0.0
 20
0.0
 30
0.0
  0
VERTEX
  5
59A
330
599
100
AcDbEntity
  8
Ebene 1
 62
   179
420
  1709851
370
    18
100
AcDbVertex
100
AcDb2dVertex
 10
166.6065402144248
 20
-179.6169433144708
 30
0.0
  0
VERTEX
  5
59B
330
599
100
AcDbEntity
  8
Ebene 1
 62
   179
420
  1709851
370
    18
100
AcDbVertex
100
AcDb2dVertex
 10
166.6065402144248
 20
-179.2145561617936
 30
0.0
  0
SEQEND
  5
59C
330
599
100
AcDbEntity
  8
Ebene 1
370
    18
  0
POLYLINE
  5
59D
330
291
100
AcDbEntity
  8
Ebene 1
 62
   179
420
  1709851
370
    18
100
AcDb2dPolyline
 66
     1
 10
0.0
 20
0.0
 30
0.0
  0
VERTEX
  5
59E
330
59D
100
AcDbEntity
  8
Ebene 1
 62
   179
420
  1709851
370
    18
100
AcDbVertex
100
AcDb2dVertex
 10
160.5951931022123
 20
-77.21268579883919
 30
0.0
  0
VERTEX
  5
59F
330
59D
100
AcDbEntity
  8
Ebene 1
 62
   179
420
  1709851
370
    18
100
AcDbVertex
100
AcDb2dVertex
 10
160.5951931022123
 20
-198.4126952628968
 30
0.0
  0
SEQEND
  5
5A0
330
59D
100
AcDbEntity
  8
Ebene 1
370
    18
  0
POLYLINE
  5
5A1
330
291
100
AcDbEntity
  8
Ebene 1
 62
   179
420
  1709851
370
    18
100
AcDb2dPolyline
 66
     1
 10
0.0
 20
0.0
 30
0.0
  0
VERTEX
  5
5A2
330
5A1
100
AcDbEntity
  8
Ebene 1
 62
   179
420
  1709851
370
    18
100
AcDbVertex
100
AcDb2dVertex
 10
166.6065402144248
 20
-198.4126952628968
 30
0.0
  0
VERTEX
  5
5A3
330
5A1
100
AcDbEntity
  8
Ebene 1
 62
   179
420
  1709851
370
    18
100
AcDbVertex
100
AcDb2dVertex
 10
160.5951931022123
 20
-198.4126952628968
 30
0.0
  0
SEQEND
  5
5A4
330
5A1
100
AcDbEntity
  8
Ebene 1
370
    18
  0
POLYLINE
  5
5A5
330
291
100
AcDbEntity
  8
Ebene 1
 62
   179
420
  1709851
370
    18
100
AcDb2dPolyline
 66
     1
 10
0.0
 20
0.0
 30
0.0
  0
VERTEX
  5
5A6
330
5A5
100
AcDbEntity
  8
Ebene 1
 62
   179
420
  1709851
370
    18
100
AcDbVertex
100
AcDb2dVertex
 10
33.40433484407947
 20
-200.4025824151771
 30
0.0
  0
VERTEX
  5
5A7
330
5A5
100
AcDbEntity
  8
Ebene 1
 62
   179
420
  1709851
370
    18
100
AcDbVertex
100
AcDb2dVertex
 10
158.605305949932
 20
-200.4025824151771
 30
0.0
  0
SEQEND
  5
5A8
330
5A5
100
AcDbEntity
  8
Ebene 1
370
    18
  0
POLYLINE
  5
5A9
330
291
100
AcDbEntity
  8
Ebene 1
 62
   179
420
  1709851
370
    18
100
AcDb2dPolyline
 66
     1
 10
0.0
 20
0.0
 30
0.0
  0
VERTEX
  5
5AA
330
5A9
100
AcDbEntity
  8
Ebene 1
 62
   179
420
  1709851
370
    18
100
AcDbVertex
100
AcDb2dVertex
 10
158.605305949932
 20
-206.4142740369381
 30
0.0
  0
VERTEX
  5
5AB
330
5A9
100
AcDbEntity
  8
Ebene 1
 62
   179
420
  1709851
370
    18
100
AcDbVertex
100
AcDb2dVertex
 10
158.605305949932
 20
-200.4025824151771
 30
0.0
  0
SEQEND
  5
5AC
330
5A9
100
AcDbEntity
  8
Ebene 1
370
    18
  0
POLYLINE
  5
5AD
330
291
100
AcDbEntity
  8
Ebene 1
 62
   179
420
  1709851
370
    18
100
AcDb2dPolyline
 66
     1
 10
0.0
 20
0.0
 30
0.0
  0
VERTEX
  5
5AE
330
5AD
100
AcDbEntity
  8
Ebene 1
 62
   179
420
  1709851
370
    18
100
AcDbVertex
100
AcDb2dVertex
 10
158.605305949932
 20
-202.0114420067888
 30
0.0
  0
VERTEX
  5
5AF
330
5AD
100
AcDbEntity
  8
Ebene 1
 62
   179
420
  1709851
370
    18
100
AcDbVertex
100
AcDb2dVertex
 10
150.2023735518591
 20
-202.0114420067888
 30
0.0
  0
SEQEND
  5
5B0
330
5AD
100
AcDbEntity
  8
Ebene 1
370
    18
  0
POLYLINE
  5
5B1
330
291
100
AcDbEntity
  8
Ebene 1
 62
   179
420
  1709851
370
    18
100
AcDb2dPolyline
 66
     1
 10
0.0
 20
0.0
 30
0.0
  0
VERTEX
  5
5B2
330
5B1
100
AcDbEntity
  8
Ebene 1
 62
   179
420
  1709851
370
    18
100
AcDbVertex
100
AcDb2dVertex
 10
150.2023735518591
 20
-206.4142740369381
 30
0.0
  0
VERTEX
  5
5B3
330
5B1
100
AcDbEntity
  8
Ebene 1
 62
   179
420
  1709851
370
    18
100
AcDbVertex
100
AcDb2dVertex
 10
158.605305949932
 20
-206.4142740369381
 30
0.0
  0
SEQEND
  5
5B4
330
5B1
100
AcDbEntity
  8
Ebene 1
370
    18
  0
POLYLINE
  5
5B5
330
291
100
AcDbEntity
  8
Ebene 1
 62
   179
420
  1709851
370
    18
100
AcDb2dPolyline
 66
     1
 10
0.0
 20
0.0
 30
0.0
  0
VERTEX
  5
5B6
330
5B5
100
AcDbEntity
  8
Ebene 1
 62
   179
420
  1709851
370
    18
100
AcDbVertex
100
AcDb2dVertex
 10
162.204052693824
 20
-110.8254489197763
 30
0.0
  0
VERTEX
  5
5B7
330
5B5
100
AcDbEntity
  8
Ebene 1
 62
   179
420
  1709851
370
    18
100
AcDbVertex
100
AcDb2dVertex
 10
162.204052693824
 20
-77.21268579883919
 30
0.0
  0
SEQEND
  5
5B8
330
5B5
100
AcDbEntity
  8
Ebene 1
370
    18
  0
POLYLINE
  5
5B9
330
291
100
AcDbEntity
  8
Ebene 1
 62
   179
420
  1709851
370
    18
100
AcDb2dPolyline
 66
     1
 10
0.0
 20
0.0
 30
0.0
  0
VERTEX
  5
5BA
330
5B9
100
AcDbEntity
  8
Ebene 1
 62
   179
420
  1709851
370
    18
100
AcDbVertex
100
AcDb2dVertex
 10
166.6065402144248
 20
-77.21268579883919
 30
0.0
  0
VERTEX
  5
5BB
330
5B9
100
AcDbEntity
  8
Ebene 1
 62
   179
420
  1709851
370
    18
100
AcDbVertex
100
AcDb2dVertex
 10
166.6065402144248
 20
-110.8254489197763
 30
0.0
  0
SEQEND
  5
5BC
330
5B9
100
AcDbEntity
  8
Ebene 1
370
    18
  0
POLYLINE
  5
5BD
330
291
100
AcDbEntity
  8
Ebene 1
370
     0
100
AcDb2dPolyline
 66
     1
 10
0.0
 20
0.0
 30
0.0
  0
VERTEX
  5
5BE
330
5BD
100
AcDbEntity
  8
Ebene 1
370
     0
100
AcDbVertex
100
AcDb2dVertex
 10
33.16111110282083
 20
-215.155859321211
 30
0.0
  0
VERTEX
  5
5BF
330
5BD
100
AcDbEntity
  8
Ebene 1
370
     0
100
AcDbVertex
100
AcDb2dVertex
 10
175.3484700082462
 20
-215.155859321211
 30
0.0
  0
VERTEX
  5
5C0
330
5BD
100
AcDbEntity
  8
Ebene 1
370
     0
100
AcDbVertex
100
AcDb2dVertex
 10
175.3484700082462
 20
-76.96911754803203
 30
0.0
  0
VERTEX
  5
5C1
330
5BD
100
AcDbEntity
  8
Ebene 1
370
     0
100
AcDbVertex
100
AcDb2dVertex
 10
33.16111110282083
 20
-76.96911754803203
 30
0.0
  0
VERTEX
  5
5C2
330
5BD
100
AcDbEntity
  8
Ebene 1
370
     0
100
AcDbVertex
100
AcDb2dVertex
 10
33.16111110282083
 20
-215.155859321211
 30
0.0
  0
SEQEND
  5
5C3
330
5BD
100
AcDbEntity
  8
Ebene 1
370
     0
  0
ENDBLK
  5
294
330
291
100
AcDbEntity
  8
0
100
AcDbBlockEnd
  0
ENDSEC
  0
SECTION
  2
ENTITIES
  0
INSERT
  5
3D
330
1F
100
AcDbEntity
  8
Ebene 1
100
AcDbBlockReference
  2
block 2
 10
0.0
 20
0.0
 30
0.0
  0
POLYLINE
  5
BB
330
1F
100
AcDbEntity
  8
Ebene 1
370
     0
100
AcDb2dPolyline
 66
     1
 10
0.0
 20
0.0
 30
0.0
  0
VERTEX
  5
BC
330
BB
100
AcDbEntity
  8
Ebene 1
370
     0
100
AcDbVertex
100
AcDb2dVertex
 10
171.4114148877027
 20
-211.2188042006675
 30
0.0
  0
VERTEX
  5
BD
330
BB
100
AcDbEntity
  8
Ebene 1
370
     0
100
AcDbVertex
100
AcDb2dVertex
 10
53.00468884308564
 20
-209.6099446090558
 30
0.0
  0
VERTEX
  5
BE
330
BB
100
AcDbEntity
  8
Ebene 1
370
     0
100
AcDbVertex
100
AcDb2dVertex
 10
53.00468884308564
 20
-211.2188042006675
 30
0.0
  0
VERTEX
  5
BF
330
BB
100
AcDbEntity
  8
Ebene 1
370
     0
100
AcDbVertex
100
AcDb2dVertex
 10
171.4114148877027
 20
-211.2188042006675
 30
0.0
  0
SEQEND
  5
C0
330
BB
100
AcDbEntity
  8
Ebene 1
370
     0
  0
HATCH
  5
C1
330
1F
100
AcDbEntity
  8
Ebene 1
 62
   254
420
 14803683
100
AcDbHatch
 10
0.0
 20
0.0
 30
0.0
210
0.0
220
0.0
230
1.0
  2
SOLID
 70
     1
 71
     0
 91
        1
 92
        1
 93
        3
 72
     1
 10
171.4114148877027
 20
-211.2188042006675
 11
53.00468884308563
 21
-209.6099446090558
 72
     1
 10
53.00468884308564
 20
-209.6099446090558
 11
53.00468884308564
 21
-211.2188042006675
 72
     1
 10
53.00468884308564
 20
-211.2188042006675
 11
171.4114148877027
 21
-211.2188042006675
 97
        0
 75
     2
 76
     1
 98
        0
  0
POLYLINE
  5
C2
330
1F
100
AcDbEntity
  8
Ebene 1
370
     0
100
AcDb2dPolyline
 66
     1
 10
0.0
 20
0.0
 30
0.0
  0
VERTEX
  5
C3
330
C2
100
AcDbEntity
  8
Ebene 1
370
     0
100
AcDbVertex
100
AcDb2dVertex
 10
53.0048610978599
 20
-209.6099446090558
 30
0.0
  0
VERTEX
  5
C4
330
C2
100
AcDbEntity
  8
Ebene 1
370
     0
100
AcDbVertex
100
AcDb2dVertex
 10
171.4114148877027
 20
-211.2188042006675
 30
0.0
  0
VERTEX
  5
C5
330
C2
100
AcDbEntity
  8
Ebene 1
370
     0
100
AcDbVertex
100
AcDb2dVertex
 10
171.4114148877027
 20
-209.6099446090558
 30
0.0
  0
VERTEX
  5
C6
330
C2
100
AcDbEntity
  8
Ebene 1
370
     0
100
AcDbVertex
100
AcDb2dVertex
 10
53.0048610978599
 20
-209.6099446090558
 30
0.0
  0
SEQEND
  5
C7
330
C2
100
AcDbEntity
  8
Ebene 1
370
     0
  0
HATCH
  5
C8
330
1F
100
AcDbEntity
  8
Ebene 1
 62
   254
420
 14803683
100
AcDbHatch
 10
0.0
 20
0.0
 30
0.0
210
0.0
220
0.0
230
1.0
  2
SOLID
 70
     1
 71
     0
 91
        1
 92
        1
 93
        3
 72
     1
 10
53.0048610978599
 20
-209.6099446090558
 11
171.4114148877027
 21
-211.2188042006675
 72
     1
 10
171.4114148877027
 20
-211.2188042006675
 11
171.4114148877027
 21
-209.6099446090558
 72
     1
 10
171.4114148877027
 20
-209.6099446090558
 11
53.0048610978599
 21
-209.6099446090558
 97
        0
 75
     2
 76
     1
 98
        0
  0
POLYLINE
  5
C9
330
1F
100
AcDbEntity
  8
Ebene 1
370
     0
100
AcDb2dPolyline
 66
     1
 10
0.0
 20
0.0
 30
0.0
  0
VERTEX
  5
CA
330
C9
100
AcDbEntity
  8
Ebene 1
370
     0
100
AcDbVertex
100
AcDb2dVertex
 10
171.4114148877027
 20
-89.61606307438419
 30
0.0
  0
VERTEX
  5
CB
330
C9
100
AcDbEntity
  8
Ebene 1
370
     0
100
AcDbVertex
100
AcDb2dVertex
 10
169.802555296091
 20
-208.0010850174442
 30
0.0
  0
VERTEX
  5
CC
330
C9
100
AcDbEntity
  8
Ebene 1
370
     0
100
AcDbVertex
100
AcDb2dVertex
 10
169.802555296091
 20
-89.61606307438419
 30
0.0
  0
VERTEX
  5
CD
330
C9
100
AcDbEntity
  8
Ebene 1
370
     0
100
AcDbVertex
100
AcDb2dVertex
 10
171.4114148877027
 20
-89.61606307438419
 30
0.0
  0
SEQEND
  5
CE
330
C9
100
AcDbEntity
  8
Ebene 1
370
     0
  0
HATCH
  5
CF
330
1F
100
AcDbEntity
  8
Ebene 1
 62
   254
420
 14803683
100
AcDbHatch
 10
0.0
 20
0.0
 30
0.0
210
0.0
220
0.0
230
1.0
  2
SOLID
 70
     1
 71
     0
 91
        1
 92
        1
 93
        3
 72
     1
 10
171.4114148877027
 20
-89.61606307438419
 11
169.802555296091
 21
-208.0010850174442
 72
     1
 10
169.802555296091
 20
-208.0010850174442
 11
169.802555296091
 21
-89.61606307438419
 72
     1
 10
169.802555296091
 20
-89.61606307438419
 11
171.4114148877027
 21
-89.61606307438419
 97
        0
 75
     2
 76
     1
 98
        0
  0
POLYLINE
  5
D0
330
1F
100
AcDbEntity
  8
Ebene 1
370
     0
100
AcDb2dPolyline
 66
     1
 10
0.0
 20
0.0
 30
0.0
  0
VERTEX
  5
D1
330
D0
100
AcDbEntity
  8
Ebene 1
370
     0
100
AcDbVertex
100
AcDb2dVertex
 10
169.802555296091
 20
-208.0010850174442
 30
0.0
  0
VERTEX
  5
D2
330
D0
100
AcDbEntity
  8
Ebene 1
370
     0
100
AcDbVertex
100
AcDb2dVertex
 10
171.4114148877027
 20
-89.61606307438419
 30
0.0
  0
VERTEX
  5
D3
330
D0
100
AcDbEntity
  8
Ebene 1
370
     0
100
AcDbVertex
100
AcDb2dVertex
 10
171.4114148877027
 20
-208.0010850174442
 30
0.0
  0
VERTEX
  5
D4
330
D0
100
AcDbEntity
  8
Ebene 1
370
     0
100
AcDbVertex
100
AcDb2dVertex
 10
169.802555296091
 20
-208.0010850174442
 30
0.0
  0
SEQEND
  5
D5
330
D0
100
AcDbEntity
  8
Ebene 1
370
     0
  0
HATCH
  5
D6
330
1F
100
AcDbEntity
  8
Ebene 1
 62
   254
420
 14803683
100
AcDbHatch
 10
0.0
 20
0.0
 30
0.0
210
0.0
220
0.0
230
1.0
  2
SOLID
 70
     1
 71
     0
 91
        1
 92
        1
 93
        3
 72
     1
 10
169.802555296091
 20
-208.0010850174442
 11
171.4114148877027
 21
-89.61606307438419
 72
     1
 10
171.4114148877027
 20
-89.61606307438419
 11
171.4114148877027
 21
-208.0010850174442
 72
     1
 10
171.4114148877027
 20
-208.0010850174442
 11
169.802555296091
 21
-208.0010850174442
 97
        0
 75
     2
 76
     1
 98
        0
  0
POLYLINE
  5
D7
330
1F
100
AcDbEntity
  8
Ebene 1
370
     0
100
AcDb2dPolyline
 66
     1
 10
0.0
 20
0.0
 30
0.0
  0
VERTEX
  5
D8
330
D7
100
AcDbEntity
  8
Ebene 1
370
     0
100
AcDbVertex
100
AcDb2dVertex
 10
123.0030001862632
 20
-200.4025824151771
 30
0.0
  0
VERTEX
  5
D9
330
D7
100
AcDbEntity
  8
Ebene 1
370
     0
100
AcDbVertex
100
AcDb2dVertex
 10
111.0016655538468
 20
-199.8100259917142
 30
0.0
  0
VERTEX
  5
DA
330
D7
100
AcDbEntity
  8
Ebene 1
370
     0
100
AcDbVertex
100
AcDb2dVertex
 10
111.0016655538468
 20
-200.4025824151771
 30
0.0
  0
VERTEX
  5
DB
330
D7
100
AcDbEntity
  8
Ebene 1
370
     0
100
AcDbVertex
100
AcDb2dVertex
 10
123.0030001862632
 20
-200.4025824151771
 30
0.0
  0
SEQEND
  5
DC
330
D7
100
AcDbEntity
  8
Ebene 1
370
     0
  0
HATCH
  5
DD
330
1F
100
AcDbEntity
  8
Ebene 1
 62
   179
420
  1709851
100
AcDbHatch
 10
0.0
 20
0.0
 30
0.0
210
0.0
220
0.0
230
1.0
  2
SOLID
 70
     1
 71
     0
 91
        1
 92
        1
 93
        3
 72
     1
 10
123.0030001862632
 20
-200.4025824151771
 11
111.0016655538468
 21
-199.8100259917142
 72
     1
 10
111.0016655538468
 20
-199.8100259917142
 11
111.0016655538468
 21
-200.4025824151771
 72
     1
 10
111.0016655538468
 20
-200.4025824151771
 11
123.0030001862632
 21
-200.4025824151771
 97
        0
 75
     2
 76
     1
 98
        0
  0
POLYLINE
  5
DE
330
1F
100
AcDbEntity
  8
Ebene 1
370
     0
100
AcDb2dPolyline
 66
     1
 10
0.0
 20
0.0
 30
0.0
  0
VERTEX
  5
DF
330
DE
100
AcDbEntity
  8
Ebene 1
370
     0
100
AcDbVertex
100
AcDb2dVertex
 10
111.0016655538468
 20
-199.8100259917142
 30
0.0
  0
VERTEX
  5
E0
330
DE
100
AcDbEntity
  8
Ebene 1
370
     0
100
AcDbVertex
100
AcDb2dVertex
 10
123.0030001862632
 20
-200.4025824151771
 30
0.0
  0
VERTEX
  5
E1
330
DE
100
AcDbEntity
  8
Ebene 1
370
     0
100
AcDbVertex
100
AcDb2dVertex
 10
116.7167344543278
 20
-199.8100259917142
 30
0.0
  0
VERTEX
  5
E2
330
DE
100
AcDbEntity
  8
Ebene 1
370
     0
100
AcDbVertex
100
AcDb2dVertex
 10
111.0016655538468
 20
-199.8100259917142
 30
0.0
  0
SEQEND
  5
E3
330
DE
100
AcDbEntity
  8
Ebene 1
370
     0
  0
HATCH
  5
E4
330
1F
100
AcDbEntity
  8
Ebene 1
 62
   179
420
  1709851
100
AcDbHatch
 10
0.0
 20
0.0
 30
0.0
210
0.0
220
0.0
230
1.0
  2
SOLID
 70
     1
 71
     0
 91
        1
 92
        1
 93
        3
 72
     1
 10
111.0016655538468
 20
-199.8100259917142
 11
123.0030001862632
 21
-200.4025824151771
 72
     1
 10
123.0030001862632
 20
-200.4025824151771
 11
116.7167344543278
 21
-199.8100259917142
 72
     1
 10
116.7167344543278
 20
-199.8100259917142
 11
111.0016655538468
 21
-199.8100259917142
 97
        0
 75
     2
 76
     1
 98
        0
  0
POLYLINE
  5
E5
330
1F
100
AcDbEntity
  8
Ebene 1
370
     0
100
AcDb2dPolyline
 66
     1
 10
0.0
 20
0.0
 30
0.0
  0
VERTEX
  5
E6
330
E5
100
AcDbEntity
  8
Ebene 1
370
     0
100
AcDbVertex
100
AcDb2dVertex
 10
116.7167344543278
 20
-199.8100259917142
 30
0.0
  0
VERTEX
  5
E7
330
E5
100
AcDbEntity
  8
Ebene 1
370
     0
100
AcDbVertex
100
AcDb2dVertex
 10
123.0030001862632
 20
-200.4025824151771
 30
0.0
  0
VERTEX
  5
E8
330
E5
100
AcDbEntity
  8
Ebene 1
370
     0
100
AcDbVertex
100
AcDb2dVertex
 10
117.3096353873393
 20
-199.8100259917142
 30
0.0
  0
VERTEX
  5
E9
330
E5
100
AcDbEntity
  8
Ebene 1
370
     0
100
AcDbVertex
100
AcDb2dVertex
 10
116.7167344543278
 20
-199.8100259917142
 30
0.0
  0
SEQEND
  5
EA
330
E5
100
AcDbEntity
  8
Ebene 1
370
     0
  0
HATCH
  5
EB
330
1F
100
AcDbEntity
  8
Ebene 1
 62
   179
420
  1709851
100
AcDbHatch
 10
0.0
 20
0.0
 30
0.0
210
0.0
220
0.0
230
1.0
  2
SOLID
 70
     1
 71
     0
 91
        1
 92
        1
 93
        3
 72
     1
 10
116.7167344543278
 20
-199.8100259917142
 11
123.0030001862632
 21
-200.4025824151771
 72
     1
 10
123.0030001862632
 20
-200.4025824151771
 11
117.3096353873393
 21
-199.8100259917142
 72
     1
 10
117.3096353873393
 20
-199.8100259917142
 11
116.7167344543278
 21
-199.8100259917142
 97
        0
 75
     2
 76
     1
 98
        0
  0
POLYLINE
  5
EC
330
1F
100
AcDbEntity
  8
Ebene 1
370
     0
100
AcDb2dPolyline
 66
     1
 10
0.0
 20
0.0
 30
0.0
  0
VERTEX
  5
ED
330
EC
100
AcDbEntity
  8
Ebene 1
370
     0
100
AcDbVertex
100
AcDb2dVertex
 10
116.7167344543278
 20
-199.8100259917142
 30
0.0
  0
VERTEX
  5
EE
330
EC
100
AcDbEntity
  8
Ebene 1
370
     0
100
AcDbVertex
100
AcDb2dVertex
 10
117.3096353873393
 20
-199.8100259917142
 30
0.0
  0
VERTEX
  5
EF
330
EC
100
AcDbEntity
  8
Ebene 1
370
     0
100
AcDbVertex
100
AcDb2dVertex
 10
116.7167344543278
 20
-190.4118055079526
 30
0.0
  0
VERTEX
  5
F0
330
EC
100
AcDbEntity
  8
Ebene 1
370
     0
100
AcDbVertex
100
AcDb2dVertex
 10
116.7167344543278
 20
-199.8100259917142
 30
0.0
  0
SEQEND
  5
F1
330
EC
100
AcDbEntity
  8
Ebene 1
370
     0
  0
HATCH
  5
F2
330
1F
100
AcDbEntity
  8
Ebene 1
 62
   179
420
  1709851
100
AcDbHatch
 10
0.0
 20
0.0
 30
0.0
210
0.0
220
0.0
230
1.0
  2
SOLID
 70
     1
 71
     0
 91
        1
 92
        1
 93
        3
 72
     1
 10
116.7167344543278
 20
-199.8100259917142
 11
117.3096353873393
 21
-199.8100259917142
 72
     1
 10
117.3096353873393
 20
-199.8100259917142
 11
116.7167344543278
 21
-190.4118055079526
 72
     1
 10
116.7167344543278
 20
-190.4118055079526
 11
116.7167344543278
 21
-199.8100259917142
 97
        0
 75
     2
 76
     1
 98
        0
  0
POLYLINE
  5
F3
330
1F
100
AcDbEntity
  8
Ebene 1
370
     0
100
AcDb2dPolyline
 66
     1
 10
0.0
 20
0.0
 30
0.0
  0
VERTEX
  5
F4
330
F3
100
AcDbEntity
  8
Ebene 1
370
     0
100
AcDbVertex
100
AcDb2dVertex
 10
117.3092908777907
 20
-199.8100259917142
 30
0.0
  0
VERTEX
  5
F5
330
F3
100
AcDbEntity
  8
Ebene 1
370
     0
100
AcDbVertex
100
AcDb2dVertex
 10
123.0030001862632
 20
-200.4025824151771
 30
0.0
  0
VERTEX
  5
F6
330
F3
100
AcDbEntity
  8
Ebene 1
370
     0
100
AcDbVertex
100
AcDb2dVertex
 10
123.0030001862632
 20
-199.8100259917142
 30
0.0
  0
VERTEX
  5
F7
330
F3
100
AcDbEntity
  8
Ebene 1
370
     0
100
AcDbVertex
100
AcDb2dVertex
 10
117.3092908777907
 20
-199.8100259917142
 30
0.0
  0
SEQEND
  5
F8
330
F3
100
AcDbEntity
  8
Ebene 1
370
     0
  0
HATCH
  5
F9
330
1F
100
AcDbEntity
  8
Ebene 1
 62
   179
420
  1709851
100
AcDbHatch
 10
0.0
 20
0.0
 30
0.0
210
0.0
220
0.0
230
1.0
  2
SOLID
 70
     1
 71
     0
 91
        1
 92
        1
 93
        3
 72
     1
 10
117.3092908777907
 20
-199.8100259917142
 11
123.0030001862632
 21
-200.4025824151771
 72
     1
 10
123.0030001862632
 20
-200.4025824151771
 11
123.0030001862632
 21
-199.8100259917142
 72
     1
 10
123.0030001862632
 20
-199.8100259917142
 11
117.3092908777907
 21
-199.8100259917142
 97
        0
 75
     2
 76
     1
 98
        0
  0
POLYLINE
  5
FA
330
1F
100
AcDbEntity
  8
Ebene 1
370
     0
100
AcDb2dPolyline
 66
     1
 10
0.0
 20
0.0
 30
0.0
  0
VERTEX
  5
FB
330
FA
100
AcDbEntity
  8
Ebene 1
370
     0
100
AcDbVertex
100
AcDb2dVertex
 10
117.3092908777907
 20
-190.4118055079526
 30
0.0
  0
VERTEX
  5
FC
330
FA
100
AcDbEntity
  8
Ebene 1
370
     0
100
AcDbVertex
100
AcDb2dVertex
 10
116.7163899447792
 20
-190.4118055079526
 30
0.0
  0
VERTEX
  5
FD
330
FA
100
AcDbEntity
  8
Ebene 1
370
     0
100
AcDbVertex
100
AcDb2dVertex
 10
117.3092908777907
 20
-199.8100259917142
 30
0.0
  0
VERTEX
  5
FE
330
FA
100
AcDbEntity
  8
Ebene 1
370
     0
100
AcDbVertex
100
AcDb2dVertex
 10
117.3092908777907
 20
-190.4118055079526
 30
0.0
  0
SEQEND
  5
FF
330
FA
100
AcDbEntity
  8
Ebene 1
370
     0
  0
HATCH
  5
100
330
1F
100
AcDbEntity
  8
Ebene 1
 62
   179
420
  1709851
100
AcDbHatch
 10
0.0
 20
0.0
 30
0.0
210
0.0
220
0.0
230
1.0
  2
SOLID
 70
     1
 71
     0
 91
        1
 92
        1
 93
        3
 72
     1
 10
117.3092908777907
 20
-190.4118055079526
 11
116.7163899447792
 21
-190.4118055079526
 72
     1
 10
116.7163899447792
 20
-190.4118055079526
 11
117.3092908777907
 21
-199.8100259917142
 72
     1
 10
117.3092908777907
 20
-199.8100259917142
 11
117.3092908777907
 21
-190.4118055079526
 97
        0
 75
     2
 76
     1
 98
        0
  0
POLYLINE
  5
101
330
1F
100
AcDbEntity
  8
Ebene 1
370
     0
100
AcDb2dPolyline
 66
     1
 10
0.0
 20
0.0
 30
0.0
  0
VERTEX
  5
102
330
101
100
AcDbEntity
  8
Ebene 1
370
     0
100
AcDbVertex
100
AcDb2dVertex
 10
160.5951931022123
 20
-150.8090548668116
 30
0.0
  0
VERTEX
  5
103
330
101
100
AcDbEntity
  8
Ebene 1
370
     0
100
AcDbVertex
100
AcDb2dVertex
 10
160.0022921692008
 20
-156.5237792577441
 30
0.0
  0
VERTEX
  5
104
330
101
100
AcDbEntity
  8
Ebene 1
370
     0
100
AcDbVertex
100
AcDb2dVertex
 10
160.0022921692008
 20
-150.8090548668116
 30
0.0
  0
VERTEX
  5
105
330
101
100
AcDbEntity
  8
Ebene 1
370
     0
100
AcDbVertex
100
AcDb2dVertex
 10
160.5951931022123
 20
-150.8090548668116
 30
0.0
  0
SEQEND
  5
106
330
101
100
AcDbEntity
  8
Ebene 1
370
     0
  0
HATCH
  5
107
330
1F
100
AcDbEntity
  8
Ebene 1
 62
   179
420
  1709851
100
AcDbHatch
 10
0.0
 20
0.0
 30
0.0
210
0.0
220
0.0
230
1.0
  2
SOLID
 70
     1
 71
     0
 91
        1
 92
        1
 93
        3
 72
     1
 10
160.5951931022123
 20
-150.8090548668116
 11
160.0022921692008
 21
-156.5237792577441
 72
     1
 10
160.0022921692008
 20
-156.5237792577441
 11
160.0022921692008
 21
-150.8090548668116
 72
     1
 10
160.0022921692008
 20
-150.8090548668116
 11
160.5951931022123
 21
-150.8090548668116
 97
        0
 75
     2
 76
     1
 98
        0
  0
POLYLINE
  5
108
330
1F
100
AcDbEntity
  8
Ebene 1
370
     0
100
AcDb2dPolyline
 66
     1
 10
0.0
 20
0.0
 30
0.0
  0
VERTEX
  5
109
330
108
100
AcDbEntity
  8
Ebene 1
370
     0
100
AcDbVertex
100
AcDb2dVertex
 10
160.0022921692008
 20
-156.5237792577441
 30
0.0
  0
VERTEX
  5
10A
330
108
100
AcDbEntity
  8
Ebene 1
370
     0
100
AcDbVertex
100
AcDb2dVertex
 10
160.5951931022123
 20
-150.8090548668116
 30
0.0
  0
VERTEX
  5
10B
330
108
100
AcDbEntity
  8
Ebene 1
370
     0
100
AcDbVertex
100
AcDb2dVertex
 10
160.0022921692008
 20
-157.1170247003041
 30
0.0
  0
VERTEX
  5
10C
330
108
100
AcDbEntity
  8
Ebene 1
370
     0
100
AcDbVertex
100
AcDb2dVertex
 10
160.0022921692008
 20
-156.5237792577441
 30
0.0
  0
SEQEND
  5
10D
330
108
100
AcDbEntity
  8
Ebene 1
370
     0
  0
HATCH
  5
10E
330
1F
100
AcDbEntity
  8
Ebene 1
 62
   179
420
  1709851
100
AcDbHatch
 10
0.0
 20
0.0
 30
0.0
210
0.0
220
0.0
230
1.0
  2
SOLID
 70
     1
 71
     0
 91
        1
 92
        1
 93
        3
 72
     1
 10
160.0022921692008
 20
-156.5237792577441
 11
160.5951931022123
 21
-150.8090548668116
 72
     1
 10
160.5951931022123
 20
-150.8090548668116
 11
160.0022921692008
 21
-157.1170247003041
 72
     1
 10
160.0022921692008
 20
-157.1170247003041
 11
160.0022921692008
 21
-156.5237792577441
 97
        0
 75
     2
 76
     1
 98
        0
  0
POLYLINE
  5
10F
330
1F
100
AcDbEntity
  8
Ebene 1
370
     0
100
AcDb2dPolyline
 66
     1
 10
0.0
 20
0.0
 30
0.0
  0
VERTEX
  5
110
330
10F
100
AcDbEntity
  8
Ebene 1
370
     0
100
AcDbVertex
100
AcDb2dVertex
 10
160.0022921692008
 20
-157.116335681207
 30
0.0
  0
VERTEX
  5
111
330
10F
100
AcDbEntity
  8
Ebene 1
370
     0
100
AcDbVertex
100
AcDb2dVertex
 10
160.5951931022123
 20
-150.8090548668116
 30
0.0
  0
VERTEX
  5
112
330
10F
100
AcDbEntity
  8
Ebene 1
370
     0
100
AcDbVertex
100
AcDb2dVertex
 10
160.0022921692008
 20
-162.811078518325
 30
0.0
  0
VERTEX
  5
113
330
10F
100
AcDbEntity
  8
Ebene 1
370
     0
100
AcDbVertex
100
AcDb2dVertex
 10
160.0022921692008
 20
-157.116335681207
 30
0.0
  0
SEQEND
  5
114
330
10F
100
AcDbEntity
  8
Ebene 1
370
     0
  0
HATCH
  5
115
330
1F
100
AcDbEntity
  8
Ebene 1
 62
   179
420
  1709851
100
AcDbHatch
 10
0.0
 20
0.0
 30
0.0
210
0.0
220
0.0
230
1.0
  2
SOLID
 70
     1
 71
     0
 91
        1
 92
        1
 93
        3
 72
     1
 10
160.0022921692008
 20
-157.116335681207
 11
160.5951931022123
 21
-150.8090548668116
 72
     1
 10
160.5951931022123
 20
-150.8090548668116
 11
160.0022921692008
 21
-162.811078518325
 72
     1
 10
160.0022921692008
 20
-162.811078518325
 11
160.0022921692008
 21
-157.116335681207
 97
        0
 75
     2
 76
     1
 98
        0
  0
POLYLINE
  5
116
330
1F
100
AcDbEntity
  8
Ebene 1
370
     0
100
AcDb2dPolyline
 66
     1
 10
0.0
 20
0.0
 30
0.0
  0
VERTEX
  5
117
330
116
100
AcDbEntity
  8
Ebene 1
370
     0
100
AcDbVertex
100
AcDb2dVertex
 10
160.0022921692008
 20
-162.810389499228
 30
0.0
  0
VERTEX
  5
118
330
116
100
AcDbEntity
  8
Ebene 1
370
     0
100
AcDbVertex
100
AcDb2dVertex
 10
160.5951931022123
 20
-150.8090548668116
 30
0.0
  0
VERTEX
  5
119
330
116
100
AcDbEntity
  8
Ebene 1
370
     0
100
AcDbVertex
100
AcDb2dVertex
 10
160.5951931022123
 20
-162.810389499228
 30
0.0
  0
VERTEX
  5
11A
330
116
100
AcDbEntity
  8
Ebene 1
370
     0
100
AcDbVertex
100
AcDb2dVertex
 10
160.0022921692008
 20
-162.810389499228
 30
0.0
  0
SEQEND
  5
11B
330
116
100
AcDbEntity
  8
Ebene 1
370
     0
  0
HATCH
  5
11C
330
1F
100
AcDbEntity
  8
Ebene 1
 62
   179
420
  1709851
100
AcDbHatch
 10
0.0
 20
0.0
 30
0.0
210
0.0
220
0.0
230
1.0
  2
SOLID
 70
     1
 71
     0
 91
        1
 92
        1
 93
        3
 72
     1
 10
160.0022921692008
 20
-162.810389499228
 11
160.5951931022123
 21
-150.8090548668116
 72
     1
 10
160.5951931022123
 20
-150.8090548668116
 11
160.5951931022123
 21
-162.810389499228
 72
     1
 10
160.5951931022123
 20
-162.810389499228
 11
160.0022921692008
 21
-162.810389499228
 97
        0
 75
     2
 76
     1
 98
        0
  0
POLYLINE
  5
11D
330
1F
100
AcDbEntity
  8
Ebene 1
370
     0
100
AcDb2dPolyline
 66
     1
 10
0.0
 20
0.0
 30
0.0
  0
VERTEX
  5
11E
330
11D
100
AcDbEntity
  8
Ebene 1
370
     0
100
AcDbVertex
100
AcDb2dVertex
 10
160.0022921692008
 20
-156.5237792577441
 30
0.0
  0
VERTEX
  5
11F
330
11D
100
AcDbEntity
  8
Ebene 1
370
     0
100
AcDbVertex
100
AcDb2dVertex
 10
150.6044161949878
 20
-157.1170247003041
 30
0.0
  0
VERTEX
  5
120
330
11D
100
AcDbEntity
  8
Ebene 1
370
     0
100
AcDbVertex
100
AcDb2dVertex
 10
150.6044161949878
 20
-156.5237792577441
 30
0.0
  0
VERTEX
  5
121
330
11D
100
AcDbEntity
  8
Ebene 1
370
     0
100
AcDbVertex
100
AcDb2dVertex
 10
160.0022921692008
 20
-156.5237792577441
 30
0.0
  0
SEQEND
  5
122
330
11D
100
AcDbEntity
  8
Ebene 1
370
     0
  0
HATCH
  5
123
330
1F
100
AcDbEntity
  8
Ebene 1
 62
   179
420
  1709851
100
AcDbHatch
 10
0.0
 20
0.0
 30
0.0
210
0.0
220
0.0
230
1.0
  2
SOLID
 70
     1
 71
     0
 91
        1
 92
        1
 93
        3
 72
     1
 10
160.0022921692008
 20
-156.5237792577441
 11
150.6044161949878
 21
-157.1170247003041
 72
     1
 10
150.6044161949878
 20
-157.1170247003041
 11
150.6044161949878
 21
-156.5237792577441
 72
     1
 10
150.6044161949878
 20
-156.5237792577441
 11
160.0022921692008
 21
-156.5237792577441
 97
        0
 75
     2
 76
     1
 98
        0
  0
POLYLINE
  5
124
330
1F
100
AcDbEntity
  8
Ebene 1
370
     0
100
AcDb2dPolyline
 66
     1
 10
0.0
 20
0.0
 30
0.0
  0
VERTEX
  5
125
330
124
100
AcDbEntity
  8
Ebene 1
370
     0
100
AcDbVertex
100
AcDb2dVertex
 10
150.6044161949878
 20
-157.116335681207
 30
0.0
  0
VERTEX
  5
126
330
124
100
AcDbEntity
  8
Ebene 1
370
     0
100
AcDbVertex
100
AcDb2dVertex
 10
160.0022921692008
 20
-156.5237792577441
 30
0.0
  0
VERTEX
  5
127
330
124
100
AcDbEntity
  8
Ebene 1
370
     0
100
AcDbVertex
100
AcDb2dVertex
 10
160.0022921692008
 20
-157.116335681207
 30
0.0
  0
VERTEX
  5
128
330
124
100
AcDbEntity
  8
Ebene 1
370
     0
100
AcDbVertex
100
AcDb2dVertex
 10
150.6044161949878
 20
-157.116335681207
 30
0.0
  0
SEQEND
  5
129
330
124
100
AcDbEntity
  8
Ebene 1
370
     0
  0
HATCH
  5
12A
330
1F
100
AcDbEntity
  8
Ebene 1
 62
   179
420
  1709851
100
AcDbHatch
 10
0.0
 20
0.0
 30
0.0
210
0.0
220
0.0
230
1.0
  2
SOLID
 70
     1
 71
     0
 91
        1
 92
        1
 93
        3
 72
     1
 10
150.6044161949878
 20
-157.116335681207
 11
160.0022921692008
 21
-156.5237792577441
 72
     1
 10
160.0022921692008
 20
-156.5237792577441
 11
160.0022921692008
 21
-157.116335681207
 72
     1
 10
160.0022921692008
 20
-157.116335681207
 11
150.6044161949878
 21
-157.116335681207
 97
        0
 75
     2
 76
     1
 98
        0
  0
POLYLINE
  5
12B
330
1F
100
AcDbEntity
  8
Ebene 1
370
     0
100
AcDb2dPolyline
 66
     1
 10
0.0
 20
0.0
 30
0.0
  0
VERTEX
  5
12C
330
12B
100
AcDbEntity
  8
Ebene 1
370
     0
100
AcDbVertex
100
AcDb2dVertex
 10
33.404679353628
 20
-211.2188042006675
 30
0.0
  0
VERTEX
  5
12D
330
12B
100
AcDbEntity
  8
Ebene 1
370
     0
100
AcDbVertex
100
AcDb2dVertex
 10
51.41753335303103
 20
-211.2188042006675
 30
0.0
  0
VERTEX
  5
12E
330
12B
100
AcDbEntity
  8
Ebene 1
370
     0
100
AcDbVertex
100
AcDb2dVertex
 10
33.404679353628
 20
-209.6106336281529
 30
0.0
  0
VERTEX
  5
12F
330
12B
100
AcDbEntity
  8
Ebene 1
370
     0
100
AcDbVertex
100
AcDb2dVertex
 10
33.404679353628
 20
-211.2188042006675
 30
0.0
  0
SEQEND
  5
130
330
12B
100
AcDbEntity
  8
Ebene 1
370
     0
  0
HATCH
  5
131
330
1F
100
AcDbEntity
  8
Ebene 1
 62
   254
420
 14803683
100
AcDbHatch
 10
0.0
 20
0.0
 30
0.0
210
0.0
220
0.0
230
1.0
  2
SOLID
 70
     1
 71
     0
 91
        1
 92
        1
 93
        3
 72
     1
 10
33.404679353628
 20
-211.2188042006675
 11
51.41753335303103
 21
-211.2188042006675
 72
     1
 10
51.41753335303103
 20
-211.2188042006675
 11
33.404679353628
 21
-209.6106336281529
 72
     1
 10
33.404679353628
 20
-209.6106336281529
 11
33.404679353628
 21
-211.2188042006675
 97
        0
 75
     2
 76
     1
 98
        0
  0
POLYLINE
  5
132
330
1F
100
AcDbEntity
  8
Ebene 1
370
     0
100
AcDb2dPolyline
 66
     1
 10
0.0
 20
0.0
 30
0.0
  0
VERTEX
  5
133
330
132
100
AcDbEntity
  8
Ebene 1
370
     0
100
AcDbVertex
100
AcDb2dVertex
 10
33.404679353628
 20
-209.6099446090558
 30
0.0
  0
VERTEX
  5
134
330
132
100
AcDbEntity
  8
Ebene 1
370
     0
100
AcDbVertex
100
AcDb2dVertex
 10
51.41753335303103
 20
-211.2188042006675
 30
0.0
  0
VERTEX
  5
135
330
132
100
AcDbEntity
  8
Ebene 1
370
     0
100
AcDbVertex
100
AcDb2dVertex
 10
51.41753335303103
 20
-209.6099446090558
 30
0.0
  0
VERTEX
  5
136
330
132
100
AcDbEntity
  8
Ebene 1
370
     0
100
AcDbVertex
100
AcDb2dVertex
 10
33.404679353628
 20
-209.6099446090558
 30
0.0
  0
SEQEND
  5
137
330
132
100
AcDbEntity
  8
Ebene 1
370
     0
  0
HATCH
  5
138
330
1F
100
AcDbEntity
  8
Ebene 1
 62
   254
420
 14803683
100
AcDbHatch
 10
0.0
 20
0.0
 30
0.0
210
0.0
220
0.0
230
1.0
  2
SOLID
 70
     1
 71
     0
 91
        1
 92
        1
 93
        3
 72
     1
 10
33.404679353628
 20
-209.6099446090558
 11
51.41753335303103
 21
-211.2188042006675
 72
     1
 10
51.41753335303103
 20
-211.2188042006675
 11
51.41753335303103
 21
-209.6099446090558
 72
     1
 10
51.41753335303103
 20
-209.6099446090558
 11
33.404679353628
 21
-209.6099446090558
 97
        0
 75
     2
 76
     1
 98
        0
  0
POLYLINE
  5
139
330
1F
100
AcDbEntity
  8
Ebene 1
370
     0
100
AcDb2dPolyline
 66
     1
 10
0.0
 20
0.0
 30
0.0
  0
VERTEX
  5
13A
330
139
100
AcDbEntity
  8
Ebene 1
370
     0
100
AcDbVertex
100
AcDb2dVertex
 10
169.802555296091
 20
-77.21268579883919
 30
0.0
  0
VERTEX
  5
13B
330
139
100
AcDbEntity
  8
Ebene 1
370
     0
100
AcDbVertex
100
AcDb2dVertex
 10
169.802555296091
 20
-88.02856307478106
 30
0.0
  0
VERTEX
  5
13C
330
139
100
AcDbEntity
  8
Ebene 1
370
     0
100
AcDbVertex
100
AcDb2dVertex
 10
171.4114148877027
 20
-77.21268579883919
 30
0.0
  0
VERTEX
  5
13D
330
139
100
AcDbEntity
  8
Ebene 1
370
     0
100
AcDbVertex
100
AcDb2dVertex
 10
169.802555296091
 20
-77.21268579883919
 30
0.0
  0
SEQEND
  5
13E
330
139
100
AcDbEntity
  8
Ebene 1
370
     0
  0
HATCH
  5
13F
330
1F
100
AcDbEntity
  8
Ebene 1
 62
   254
420
 14803683
100
AcDbHatch
 10
0.0
 20
0.0
 30
0.0
210
0.0
220
0.0
230
1.0
  2
SOLID
 70
     1
 71
     0
 91
        1
 92
        1
 93
        3
 72
     1
 10
169.802555296091
 20
-77.21268579883919
 11
169.802555296091
 21
-88.02856307478106
 72
     1
 10
169.802555296091
 20
-88.02856307478106
 11
171.4114148877027
 21
-77.21268579883919
 72
     1
 10
171.4114148877027
 20
-77.21268579883919
 11
169.802555296091
 21
-77.21268579883919
 97
        0
 75
     2
 76
     1
 98
        0
  0
POLYLINE
  5
140
330
1F
100
AcDbEntity
  8
Ebene 1
370
     0
100
AcDb2dPolyline
 66
     1
 10
0.0
 20
0.0
 30
0.0
  0
VERTEX
  5
141
330
140
100
AcDbEntity
  8
Ebene 1
370
     0
100
AcDbVertex
100
AcDb2dVertex
 10
169.802555296091
 20
-88.02856307478106
 30
0.0
  0
VERTEX
  5
142
330
140
100
AcDbEntity
  8
Ebene 1
370
     0
100
AcDbVertex
100
AcDb2dVertex
 10
171.4114148877027
 20
-88.02856307478106
 30
0.0
  0
VERTEX
  5
143
330
140
100
AcDbEntity
  8
Ebene 1
370
     0
100
AcDbVertex
100
AcDb2dVertex
 10
171.4114148877027
 20
-77.21303030838772
 30
0.0
  0
VERTEX
  5
144
330
140
100
AcDbEntity
  8
Ebene 1
370
     0
100
AcDbVertex
100
AcDb2dVertex
 10
169.802555296091
 20
-88.02856307478106
 30
0.0
  0
SEQEND
  5
145
330
140
100
AcDbEntity
  8
Ebene 1
370
     0
  0
HATCH
  5
146
330
1F
100
AcDbEntity
  8
Ebene 1
 62
   254
420
 14803683
100
AcDbHatch
 10
0.0
 20
0.0
 30
0.0
210
0.0
220
0.0
230
1.0
  2
SOLID
 70
     1
 71
     0
 91
        1
 92
        1
 93
        3
 72
     1
 10
169.802555296091
 20
-88.02856307478106
 11
171.4114148877027
 21
-88.02856307478106
 72
     1
 10
171.4114148877027
 20
-88.02856307478106
 11
171.4114148877027
 21
-77.21303030838772
 72
     1
 10
171.4114148877027
 20
-77.21303030838772
 11
169.802555296091
 21
-88.02856307478106
 97
        0
 75
     2
 76
     1
 98
        0
  0
INSERT
  5
148
330
1F
100
AcDbEntity
  8
Ebene 1
100
AcDbBlockReference
  2
block 3
 10
0.0
 20
0.0
 30
0.0
  0
POLYLINE
  5
162
330
1F
100
AcDbEntity
  8
Ebene 1
 62
   179
420
  1709851
370
    25
100
AcDb2dPolyline
 66
     1
 10
0.0
 20
0.0
 30
0.0
  0
VERTEX
  5
163
330
162
100
AcDbEntity
  8
Ebene 1
 62
   179
420
  1709851
370
    25
100
AcDbVertex
100
AcDb2dVertex
 10
53.0048610978599
 20
-209.6099446090558
 30
0.0
  0
VERTEX
  5
164
330
162
100
AcDbEntity
  8
Ebene 1
 62
   179
420
  1709851
370
    25
100
AcDbVertex
100
AcDb2dVertex
 10
171.4114148877027
 20
-209.6099446090558
 30
0.0
  0
SEQEND
  5
165
330
162
100
AcDbEntity
  8
Ebene 1
370
    25
  0
POLYLINE
  5
166
330
1F
100
AcDbEntity
  8
Ebene 1
 62
   179
420
  1709851
370
    25
100
AcDb2dPolyline
 66
     1
 10
0.0
 20
0.0
 30
0.0
  0
VERTEX
  5
167
330
166
100
AcDbEntity
  8
Ebene 1
 62
   179
420
  1709851
370
    25
100
AcDbVertex
100
AcDb2dVertex
 10
171.4114148877027
 20
-211.2188042006675
 30
0.0
  0
VERTEX
  5
168
330
166
100
AcDbEntity
  8
Ebene 1
 62
   179
420
  1709851
370
    25
100
AcDbVertex
100
AcDb2dVertex
 10
53.0048610978599
 20
-211.2188042006675
 30
0.0
  0
SEQEND
  5
169
330
166
100
AcDbEntity
  8
Ebene 1
370
    25
  0
POLYLINE
  5
16A
330
1F
100
AcDbEntity
  8
Ebene 1
 62
   179
420
  1709851
370
    25
100
AcDb2dPolyline
 66
     1
 10
0.0
 20
0.0
 30
0.0
  0
VERTEX
  5
16B
330
16A
100
AcDbEntity
  8
Ebene 1
 62
   179
420
  1709851
370
    25
100
AcDbVertex
100
AcDb2dVertex
 10
51.41736109825678
 20
-211.2188042006675
 30
0.0
  0
VERTEX
  5
16C
330
16A
100
AcDbEntity
  8
Ebene 1
 62
   179
420
  1709851
370
    25
100
AcDbVertex
100
AcDb2dVertex
 10
51.41736109825678
 20
-209.6099446090558
 30
0.0
  0
SEQEND
  5
16D
330
16A
100
AcDbEntity
  8
Ebene 1
370
    25
  0
POLYLINE
  5
16E
330
1F
100
AcDbEntity
  8
Ebene 1
 62
   179
420
  1709851
370
    25
100
AcDb2dPolyline
 66
     1
 10
0.0
 20
0.0
 30
0.0
  0
VERTEX
  5
16F
330
16E
100
AcDbEntity
  8
Ebene 1
 62
   179
420
  1709851
370
    25
100
AcDbVertex
100
AcDb2dVertex
 10
53.0048610978599
 20
-211.2188042006675
 30
0.0
  0
VERTEX
  5
170
330
16E
100
AcDbEntity
  8
Ebene 1
 62
   179
420
  1709851
370
    25
100
AcDbVertex
100
AcDb2dVertex
 10
53.0048610978599
 20
-209.6099446090558
 30
0.0
  0
SEQEND
  5
171
330
16E
100
AcDbEntity
  8
Ebene 1
370
    25
  0
POLYLINE
  5
172
330
1F
100
AcDbEntity
  8
Ebene 1
 62
   179
420
  1709851
370
    18
100
AcDb2dPolyline
 66
     1
 10
0.0
 20
0.0
 30
0.0
  0
VERTEX
  5
173
330
172
100
AcDbEntity
  8
Ebene 1
 62
   179
420
  1709851
370
    18
100
AcDbVertex
100
AcDb2dVertex
 10
143.0055690831722
 20
-202.0114420067888
 30
0.0
  0
VERTEX
  5
174
330
172
100
AcDbEntity
  8
Ebene 1
 62
   179
420
  1709851
370
    18
100
AcDbVertex
100
AcDb2dVertex
 10
84.20450708615374
 20
-202.0114420067888
 30
0.0
  0
SEQEND
  5
175
330
172
100
AcDbEntity
  8
Ebene 1
370
    18
  0
POLYLINE
  5
176
330
1F
100
AcDbEntity
  8
Ebene 1
 62
   179
420
  1709851
370
    18
100
AcDb2dPolyline
 66
     1
 10
0.0
 20
0.0
 30
0.0
  0
VERTEX
  5
177
330
176
100
AcDbEntity
  8
Ebene 1
 62
   179
420
  1709851
370
    18
100
AcDbVertex
100
AcDb2dVertex
 10
81.81274954551904
 20
-202.0114420067888
 30
0.0
  0
VERTEX
  5
178
330
176
100
AcDbEntity
  8
Ebene 1
 62
   179
420
  1709851
370
    18
100
AcDbVertex
100
AcDb2dVertex
 10
81.41053464761612
 20
-202.0114420067888
 30
0.0
  0
SEQEND
  5
179
330
176
100
AcDbEntity
  8
Ebene 1
370
    18
  0
POLYLINE
  5
17A
330
1F
100
AcDbEntity
  8
Ebene 1
 62
   179
420
  1709851
370
    18
100
AcDb2dPolyline
 66
     1
 10
0.0
 20
0.0
 30
0.0
  0
VERTEX
  5
17B
330
17A
100
AcDbEntity
  8
Ebene 1
 62
   179
420
  1709851
370
    18
100
AcDbVertex
100
AcDb2dVertex
 10
81.41053464761612
 20
-206.4135850178411
 30
0.0
  0
VERTEX
  5
17C
330
17A
100
AcDbEntity
  8
Ebene 1
 62
   179
420
  1709851
370
    18
100
AcDbVertex
100
AcDb2dVertex
 10
81.81274954551904
 20
-206.4135850178411
 30
0.0
  0
SEQEND
  5
17D
330
17A
100
AcDbEntity
  8
Ebene 1
370
    18
  0
POLYLINE
  5
17E
330
1F
100
AcDbEntity
  8
Ebene 1
 62
   179
420
  1709851
370
    18
100
AcDb2dPolyline
 66
     1
 10
0.0
 20
0.0
 30
0.0
  0
VERTEX
  5
17F
330
17E
100
AcDbEntity
  8
Ebene 1
 62
   179
420
  1709851
370
    18
100
AcDbVertex
100
AcDb2dVertex
 10
81.41053464761612
 20
-202.0114420067888
 30
0.0
  0
VERTEX
  5
180
330
17E
100
AcDbEntity
  8
Ebene 1
 62
   179
420
  1709851
370
    18
100
AcDbVertex
100
AcDb2dVertex
 10
81.81274954551904
 20
-202.0114420067888
 30
0.0
  0
SEQEND
  5
181
330
17E
100
AcDbEntity
  8
Ebene 1
370
    18
  0
POLYLINE
  5
182
330
1F
100
AcDbEntity
  8
Ebene 1
 62
   179
420
  1709851
370
    18
100
AcDb2dPolyline
 66
     1
 10
0.0
 20
0.0
 30
0.0
  0
VERTEX
  5
183
330
182
100
AcDbEntity
  8
Ebene 1
 62
   179
420
  1709851
370
    18
100
AcDbVertex
100
AcDb2dVertex
 10
84.20450708615374
 20
-206.4135850178411
 30
0.0
  0
VERTEX
  5
184
330
182
100
AcDbEntity
  8
Ebene 1
 62
   179
420
  1709851
370
    18
100
AcDbVertex
100
AcDb2dVertex
 10
143.0055690831722
 20
-206.4135850178411
 30
0.0
  0
SEQEND
  5
185
330
182
100
AcDbEntity
  8
Ebene 1
370
    18
  0
POLYLINE
  5
186
330
1F
100
AcDbEntity
  8
Ebene 1
 62
   179
420
  1709851
370
    18
100
AcDb2dPolyline
 66
     1
 10
0.0
 20
0.0
 30
0.0
  0
VERTEX
  5
187
330
186
100
AcDbEntity
  8
Ebene 1
 62
   179
420
  1709851
370
    18
100
AcDbVertex
100
AcDb2dVertex
 10
143.3018472949037
 20
-207.0068304604011
 30
0.0
  0
VERTEX
  5
188
330
186
100
AcDbEntity
  8
Ebene 1
 62
   179
420
  1709851
370
    18
100
AcDbVertex
100
AcDb2dVertex
 10
149.9057508305791
 20
-207.0068304604011
 30
0.0
  0
SEQEND
  5
189
330
186
100
AcDbEntity
  8
Ebene 1
370
    18
  0
POLYLINE
  5
18A
330
1F
100
AcDbEntity
  8
Ebene 1
 62
   179
420
  1709851
370
    18
100
AcDb2dPolyline
 66
     1
 10
0.0
 20
0.0
 30
0.0
  0
VERTEX
  5
18B
330
18A
100
AcDbEntity
  8
Ebene 1
 62
   179
420
  1709851
370
    18
100
AcDbVertex
100
AcDb2dVertex
 10
142.6035264400436
 20
-209.4197753382701
 30
0.0
  0
VERTEX
  5
18C
330
18A
100
AcDbEntity
  8
Ebene 1
 62
   179
420
  1709851
370
    18
100
AcDbVertex
100
AcDb2dVertex
 10
142.4764024166379
 20
-209.4624945222872
 30
0.0
  0
VERTEX
  5
18D
330
18A
100
AcDbEntity
  8
Ebene 1
 62
   179
420
  1709851
370
    18
100
AcDbVertex
100
AcDb2dVertex
 10
142.4130126597093
 20
-209.5679144441358
 30
0.0
  0
VERTEX
  5
18E
330
18A
100
AcDbEntity
  8
Ebene 1
 62
   179
420
  1709851
370
    18
100
AcDbVertex
100
AcDb2dVertex
 10
142.4130126597093
 20
-209.6106336281529
 30
0.0
  0
SEQEND
  5
18F
330
18A
100
AcDbEntity
  8
Ebene 1
370
    18
  0
POLYLINE
  5
190
330
1F
100
AcDbEntity
  8
Ebene 1
 62
   179
420
  1709851
370
    18
100
AcDb2dPolyline
 66
     1
 10
0.0
 20
0.0
 30
0.0
  0
VERTEX
  5
191
330
190
100
AcDbEntity
  8
Ebene 1
 62
   179
420
  1709851
370
    18
100
AcDbVertex
100
AcDb2dVertex
 10
150.7949299753221
 20
-209.6106336281529
 30
0.0
  0
VERTEX
  5
192
330
190
100
AcDbEntity
  8
Ebene 1
 62
   179
420
  1709851
370
    18
100
AcDbVertex
100
AcDb2dVertex
 10
150.7739148928621
 20
-209.4831650951987
 30
0.0
  0
VERTEX
  5
193
330
190
100
AcDbEntity
  8
Ebene 1
 62
   179
420
  1709851
370
    18
100
AcDbVertex
100
AcDb2dVertex
 10
150.6467908694564
 20
-209.4197753382701
 30
0.0
  0
VERTEX
  5
194
330
190
100
AcDbEntity
  8
Ebene 1
 62
   179
420
  1709851
370
    18
100
AcDbVertex
100
AcDb2dVertex
 10
150.6044161949878
 20
-209.4197753382701
 30
0.0
  0
SEQEND
  5
195
330
190
100
AcDbEntity
  8
Ebene 1
370
    18
  0
POLYLINE
  5
196
330
1F
100
AcDbEntity
  8
Ebene 1
 62
   179
420
  1709851
370
    18
100
AcDb2dPolyline
 66
     1
 10
0.0
 20
0.0
 30
0.0
  0
VERTEX
  5
197
330
196
100
AcDbEntity
  8
Ebene 1
 62
   179
420
  1709851
370
    18
100
AcDbVertex
100
AcDb2dVertex
 10
150.6044161949878
 20
-209.4197753382701
 30
0.0
  0
VERTEX
  5
198
330
196
100
AcDbEntity
  8
Ebene 1
 62
   179
420
  1709851
370
    18
100
AcDbVertex
100
AcDb2dVertex
 10
146.6039713175157
 20
-209.4197753382701
 30
0.0
  0
VERTEX
  5
199
330
196
100
AcDbEntity
  8
Ebene 1
 62
   179
420
  1709851
370
    18
100
AcDbVertex
100
AcDb2dVertex
 10
142.6035264400436
 20
-209.4197753382701
 30
0.0
  0
SEQEND
  5
19A
330
196
100
AcDbEntity
  8
Ebene 1
370
    18
  0
POLYLINE
  5
19B
330
1F
100
AcDbEntity
  8
Ebene 1
 62
   179
420
  1709851
370
    18
100
AcDb2dPolyline
 66
     1
 10
0.0
 20
0.0
 30
0.0
  0
VERTEX
  5
19C
330
19B
100
AcDbEntity
  8
Ebene 1
 62
   179
420
  1709851
370
    18
100
AcDbVertex
100
AcDb2dVertex
 10
150.6044161949878
 20
-209.4197753382701
 30
0.0
  0
VERTEX
  5
19D
330
19B
100
AcDbEntity
  8
Ebene 1
 62
   179
420
  1709851
370
    18
100
AcDbVertex
100
AcDb2dVertex
 10
146.6039713175157
 20
-209.4197753382701
 30
0.0
  0
SEQEND
  5
19E
330
19B
100
AcDbEntity
  8
Ebene 1
370
    18
  0
POLYLINE
  5
19F
330
1F
100
AcDbEntity
  8
Ebene 1
 62
   179
420
  1709851
370
    18
100
AcDb2dPolyline
 66
     1
 10
0.0
 20
0.0
 30
0.0
  0
VERTEX
  5
1A0
330
19F
100
AcDbEntity
  8
Ebene 1
 62
   179
420
  1709851
370
    18
100
AcDbVertex
100
AcDb2dVertex
 10
142.6035264400436
 20
-209.4197753382701
 30
0.0
  0
VERTEX
  5
1A1
330
19F
100
AcDbEntity
  8
Ebene 1
 62
   179
420
  1709851
370
    18
100
AcDbVertex
100
AcDb2dVertex
 10
146.6039713175157
 20
-209.4197753382701
 30
0.0
  0
SEQEND
  5
1A2
330
19F
100
AcDbEntity
  8
Ebene 1
370
    18
  0
POLYLINE
  5
1A3
330
1F
100
AcDbEntity
  8
Ebene 1
 62
   179
420
  1709851
370
    18
100
AcDb2dPolyline
 66
     1
 10
0.0
 20
0.0
 30
0.0
  0
VERTEX
  5
1A4
330
1A3
100
AcDbEntity
  8
Ebene 1
 62
   179
420
  1709851
370
    18
100
AcDbVertex
100
AcDb2dVertex
 10
142.6035264400436
 20
-209.4197753382701
 30
0.0
  0
VERTEX
  5
1A5
330
1A3
100
AcDbEntity
  8
Ebene 1
 62
   179
420
  1709851
370
    18
100
AcDbVertex
100
AcDb2dVertex
 10
142.6035264400436
 20
-207.4085285939812
 30
0.0
  0
SEQEND
  5
1A6
330
1A3
100
AcDbEntity
  8
Ebene 1
370
    18
  0
POLYLINE
  5
1A7
330
1F
100
AcDbEntity
  8
Ebene 1
 62
   179
420
  1709851
370
    18
100
AcDb2dPolyline
 66
     1
 10
0.0
 20
0.0
 30
0.0
  0
VERTEX
  5
1A8
330
1A7
100
AcDbEntity
  8
Ebene 1
 62
   179
420
  1709851
370
    18
100
AcDbVertex
100
AcDb2dVertex
 10
150.6044161949878
 20
-207.4085285939812
 30
0.0
  0
VERTEX
  5
1A9
330
1A7
100
AcDbEntity
  8
Ebene 1
 62
   179
420
  1709851
370
    18
100
AcDbVertex
100
AcDb2dVertex
 10
150.6044161949878
 20
-209.4197753382701
 30
0.0
  0
SEQEND
  5
1AA
330
1A7
100
AcDbEntity
  8
Ebene 1
370
    18
  0
POLYLINE
  5
1AB
330
1F
100
AcDbEntity
  8
Ebene 1
 62
   179
420
  1709851
370
    18
100
AcDb2dPolyline
 66
     1
 10
0.0
 20
0.0
 30
0.0
  0
VERTEX
  5
1AC
330
1AB
100
AcDbEntity
  8
Ebene 1
 62
   179
420
  1709851
370
    18
100
AcDbVertex
100
AcDb2dVertex
 10
142.6035264400436
 20
-207.4085285939812
 30
0.0
  0
VERTEX
  5
1AD
330
1AB
100
AcDbEntity
  8
Ebene 1
 62
   179
420
  1709851
370
    18
100
AcDbVertex
100
AcDb2dVertex
 10
150.6044161949878
 20
-207.4085285939812
 30
0.0
  0
VERTEX
  5
1AE
330
1AB
100
AcDbEntity
  8
Ebene 1
 62
   179
420
  1709851
370
    18
100
AcDbVertex
100
AcDb2dVertex
 10
149.9057508305791
 20
-207.0068304604011
 30
0.0
  0
SEQEND
  5
1AF
330
1AB
100
AcDbEntity
  8
Ebene 1
370
    18
  0
POLYLINE
  5
1B0
330
1F
100
AcDbEntity
  8
Ebene 1
 62
   179
420
  1709851
370
    18
100
AcDb2dPolyline
 66
     1
 10
0.0
 20
0.0
 30
0.0
  0
VERTEX
  5
1B1
330
1B0
100
AcDbEntity
  8
Ebene 1
 62
   179
420
  1709851
370
    18
100
AcDbVertex
100
AcDb2dVertex
 10
142.6035264400436
 20
-207.4085285939812
 30
0.0
  0
VERTEX
  5
1B2
330
1B0
100
AcDbEntity
  8
Ebene 1
 62
   179
420
  1709851
370
    18
100
AcDbVertex
100
AcDb2dVertex
 10
143.3018472949037
 20
-207.0068304604011
 30
0.0
  0
SEQEND
  5
1B3
330
1B0
100
AcDbEntity
  8
Ebene 1
370
    18
  0
POLYLINE
  5
1B4
330
1F
100
AcDbEntity
  8
Ebene 1
 62
   179
420
  1709851
370
    18
100
AcDb2dPolyline
 66
     1
 10
0.0
 20
0.0
 30
0.0
  0
VERTEX
  5
1B5
330
1B4
100
AcDbEntity
  8
Ebene 1
 62
   179
420
  1709851
370
    18
100
AcDbVertex
100
AcDb2dVertex
 10
74.51018064543496
 20
-207.0068304604011
 30
0.0
  0
VERTEX
  5
1B6
330
1B4
100
AcDbEntity
  8
Ebene 1
 62
   179
420
  1709851
370
    18
100
AcDbVertex
100
AcDb2dVertex
 10
81.11425643588463
 20
-207.0068304604011
 30
0.0
  0
SEQEND
  5
1B7
330
1B4
100
AcDbEntity
  8
Ebene 1
370
    18
  0
POLYLINE
  5
1B8
330
1F
100
AcDbEntity
  8
Ebene 1
 62
   179
420
  1709851
370
    18
100
AcDb2dPolyline
 66
     1
 10
0.0
 20
0.0
 30
0.0
  0
VERTEX
  5
1B9
330
1B8
100
AcDbEntity
  8
Ebene 1
 62
   179
420
  1709851
370
    18
100
AcDbVertex
100
AcDb2dVertex
 10
73.81168753580056
 20
-209.4197753382701
 30
0.0
  0
VERTEX
  5
1BA
330
1B8
100
AcDbEntity
  8
Ebene 1
 62
   179
420
  1709851
370
    18
100
AcDbVertex
100
AcDb2dVertex
 10
73.6847357671691
 20
-209.4624945222872
 30
0.0
  0
VERTEX
  5
1BB
330
1B8
100
AcDbEntity
  8
Ebene 1
 62
   179
420
  1709851
370
    18
100
AcDbVertex
100
AcDb2dVertex
 10
73.62117375546623
 20
-209.5679144441358
 30
0.0
  0
VERTEX
  5
1BC
330
1B8
100
AcDbEntity
  8
Ebene 1
 62
   179
420
  1709851
370
    18
100
AcDbVertex
100
AcDb2dVertex
 10
73.62117375546623
 20
-209.6106336281529
 30
0.0
  0
SEQEND
  5
1BD
330
1B8
100
AcDbEntity
  8
Ebene 1
370
    18
  0
POLYLINE
  5
1BE
330
1F
100
AcDbEntity
  8
Ebene 1
 62
   179
420
  1709851
370
    18
100
AcDb2dPolyline
 66
     1
 10
0.0
 20
0.0
 30
0.0
  0
VERTEX
  5
1BF
330
1BE
100
AcDbEntity
  8
Ebene 1
 62
   179
420
  1709851
370
    18
100
AcDbVertex
100
AcDb2dVertex
 10
82.00326332585335
 20
-209.6106336281529
 30
0.0
  0
VERTEX
  5
1C0
330
1BE
100
AcDbEntity
  8
Ebene 1
 62
   179
420
  1709851
370
    18
100
AcDbVertex
100
AcDb2dVertex
 10
81.98207598861907
 20
-209.4831650951987
 30
0.0
  0
VERTEX
  5
1C1
330
1BE
100
AcDbEntity
  8
Ebene 1
 62
   179
420
  1709851
370
    18
100
AcDbVertex
100
AcDb2dVertex
 10
81.87613930244764
 20
-209.4197753382701
 30
0.0
  0
VERTEX
  5
1C2
330
1BE
100
AcDbEntity
  8
Ebene 1
 62
   179
420
  1709851
370
    18
100
AcDbVertex
100
AcDb2dVertex
 10
81.81274954551904
 20
-209.4197753382701
 30
0.0
  0
SEQEND
  5
1C3
330
1BE
100
AcDbEntity
  8
Ebene 1
370
    18
  0
POLYLINE
  5
1C4
330
1F
100
AcDbEntity
  8
Ebene 1
 62
   179
420
  1709851
370
    18
100
AcDb2dPolyline
 66
     1
 10
0.0
 20
0.0
 30
0.0
  0
VERTEX
  5
1C5
330
1C4
100
AcDbEntity
  8
Ebene 1
 62
   179
420
  1709851
370
    18
100
AcDbVertex
100
AcDb2dVertex
 10
81.81274954551904
 20
-209.4197753382701
 30
0.0
  0
VERTEX
  5
1C6
330
1C4
100
AcDbEntity
  8
Ebene 1
 62
   179
420
  1709851
370
    18
100
AcDbVertex
100
AcDb2dVertex
 10
77.81230466804693
 20
-209.4197753382701
 30
0.0
  0
VERTEX
  5
1C7
330
1C4
100
AcDbEntity
  8
Ebene 1
 62
   179
420
  1709851
370
    18
100
AcDbVertex
100
AcDb2dVertex
 10
73.81168753580056
 20
-209.4197753382701
 30
0.0
  0
SEQEND
  5
1C8
330
1C4
100
AcDbEntity
  8
Ebene 1
370
    18
  0
POLYLINE
  5
1C9
330
1F
100
AcDbEntity
  8
Ebene 1
 62
   179
420
  1709851
370
    18
100
AcDb2dPolyline
 66
     1
 10
0.0
 20
0.0
 30
0.0
  0
VERTEX
  5
1CA
330
1C9
100
AcDbEntity
  8
Ebene 1
 62
   179
420
  1709851
370
    18
100
AcDbVertex
100
AcDb2dVertex
 10
81.81274954551904
 20
-209.4197753382701
 30
0.0
  0
VERTEX
  5
1CB
330
1C9
100
AcDbEntity
  8
Ebene 1
 62
   179
420
  1709851
370
    18
100
AcDbVertex
100
AcDb2dVertex
 10
77.81230466804693
 20
-209.4197753382701
 30
0.0
  0
SEQEND
  5
1CC
330
1C9
100
AcDbEntity
  8
Ebene 1
370
    18
  0
POLYLINE
  5
1CD
330
1F
100
AcDbEntity
  8
Ebene 1
 62
   179
420
  1709851
370
    18
100
AcDb2dPolyline
 66
     1
 10
0.0
 20
0.0
 30
0.0
  0
VERTEX
  5
1CE
330
1CD
100
AcDbEntity
  8
Ebene 1
 62
   179
420
  1709851
370
    18
100
AcDbVertex
100
AcDb2dVertex
 10
73.81168753580056
 20
-209.4197753382701
 30
0.0
  0
VERTEX
  5
1CF
330
1CD
100
AcDbEntity
  8
Ebene 1
 62
   179
420
  1709851
370
    18
100
AcDbVertex
100
AcDb2dVertex
 10
77.81230466804693
 20
-209.4197753382701
 30
0.0
  0
SEQEND
  5
1D0
330
1CD
100
AcDbEntity
  8
Ebene 1
370
    18
  0
POLYLINE
  5
1D1
330
1F
100
AcDbEntity
  8
Ebene 1
 62
   179
420
  1709851
370
    18
100
AcDb2dPolyline
 66
     1
 10
0.0
 20
0.0
 30
0.0
  0
VERTEX
  5
1D2
330
1D1
100
AcDbEntity
  8
Ebene 1
 62
   179
420
  1709851
370
    18
100
AcDbVertex
100
AcDb2dVertex
 10
73.81168753580056
 20
-209.4197753382701
 30
0.0
  0
VERTEX
  5
1D3
330
1D1
100
AcDbEntity
  8
Ebene 1
 62
   179
420
  1709851
370
    18
100
AcDbVertex
100
AcDb2dVertex
 10
73.81168753580056
 20
-207.4085285939812
 30
0.0
  0
SEQEND
  5
1D4
330
1D1
100
AcDbEntity
  8
Ebene 1
370
    18
  0
POLYLINE
  5
1D5
330
1F
100
AcDbEntity
  8
Ebene 1
 62
   179
420
  1709851
370
    18
100
AcDb2dPolyline
 66
     1
 10
0.0
 20
0.0
 30
0.0
  0
VERTEX
  5
1D6
330
1D5
100
AcDbEntity
  8
Ebene 1
 62
   179
420
  1709851
370
    18
100
AcDbVertex
100
AcDb2dVertex
 10
81.81274954551904
 20
-207.4085285939812
 30
0.0
  0
VERTEX
  5
1D7
330
1D5
100
AcDbEntity
  8
Ebene 1
 62
   179
420
  1709851
370
    18
100
AcDbVertex
100
AcDb2dVertex
 10
81.81274954551904
 20
-209.4197753382701
 30
0.0
  0
SEQEND
  5
1D8
330
1D5
100
AcDbEntity
  8
Ebene 1
370
    18
  0
POLYLINE
  5
1D9
330
1F
100
AcDbEntity
  8
Ebene 1
 62
   179
420
  1709851
370
    18
100
AcDb2dPolyline
 66
     1
 10
0.0
 20
0.0
 30
0.0
  0
VERTEX
  5
1DA
330
1D9
100
AcDbEntity
  8
Ebene 1
 62
   179
420
  1709851
370
    18
100
AcDbVertex
100
AcDb2dVertex
 10
73.81168753580056
 20
-207.4085285939812
 30
0.0
  0
VERTEX
  5
1DB
330
1D9
100
AcDbEntity
  8
Ebene 1
 62
   179
420
  1709851
370
    18
100
AcDbVertex
100
AcDb2dVertex
 10
81.81274954551904
 20
-207.4085285939812
 30
0.0
  0
VERTEX
  5
1DC
330
1D9
100
AcDbEntity
  8
Ebene 1
 62
   179
420
  1709851
370
    18
100
AcDbVertex
100
AcDb2dVertex
 10
81.11425643588463
 20
-207.0068304604011
 30
0.0
  0
SEQEND
  5
1DD
330
1D9
100
AcDbEntity
  8
Ebene 1
370
    18
  0
POLYLINE
  5
1DE
330
1F
100
AcDbEntity
  8
Ebene 1
 62
   179
420
  1709851
370
    18
100
AcDb2dPolyline
 66
     1
 10
0.0
 20
0.0
 30
0.0
  0
VERTEX
  5
1DF
330
1DE
100
AcDbEntity
  8
Ebene 1
 62
   179
420
  1709851
370
    18
100
AcDbVertex
100
AcDb2dVertex
 10
73.81168753580056
 20
-207.4085285939812
 30
0.0
  0
VERTEX
  5
1E0
330
1DE
100
AcDbEntity
  8
Ebene 1
 62
   179
420
  1709851
370
    18
100
AcDbVertex
100
AcDb2dVertex
 10
74.51018064543496
 20
-207.0068304604011
 30
0.0
  0
SEQEND
  5
1E1
330
1DE
100
AcDbEntity
  8
Ebene 1
370
    18
  0
POLYLINE
  5
1E2
330
1F
100
AcDbEntity
  8
Ebene 1
 62
   179
420
  1709851
370
    18
100
AcDb2dPolyline
 66
     1
 10
0.0
 20
0.0
 30
0.0
  0
VERTEX
  5
1E3
330
1E2
100
AcDbEntity
  8
Ebene 1
 62
   179
420
  1709851
370
    18
100
AcDbVertex
100
AcDb2dVertex
 10
81.81274954551904
 20
-202.0114420067888
 30
0.0
  0
VERTEX
  5
1E4
330
1E2
100
AcDbEntity
  8
Ebene 1
 62
   179
420
  1709851
370
    18
100
AcDbVertex
100
AcDb2dVertex
 10
81.41053464761612
 20
-202.0114420067888
 30
0.0
  0
SEQEND
  5
1E5
330
1E2
100
AcDbEntity
  8
Ebene 1
370
    18
  0
POLYLINE
  5
1E6
330
1F
100
AcDbEntity
  8
Ebene 1
 62
   179
420
  1709851
370
    18
100
AcDb2dPolyline
 66
     1
 10
0.0
 20
0.0
 30
0.0
  0
VERTEX
  5
1E7
330
1E6
100
AcDbEntity
  8
Ebene 1
 62
   179
420
  1709851
370
    18
100
AcDbVertex
100
AcDb2dVertex
 10
81.41053464761612
 20
-206.4135850178411
 30
0.0
  0
VERTEX
  5
1E8
330
1E6
100
AcDbEntity
  8
Ebene 1
 62
   179
420
  1709851
370
    18
100
AcDbVertex
100
AcDb2dVertex
 10
81.81274954551904
 20
-206.4135850178411
 30
0.0
  0
SEQEND
  5
1E9
330
1E6
100
AcDbEntity
  8
Ebene 1
370
    18
  0
POLYLINE
  5
1EA
330
1F
100
AcDbEntity
  8
Ebene 1
 62
   179
420
  1709851
370
    25
100
AcDb2dPolyline
 66
     1
 10
0.0
 20
0.0
 30
0.0
  0
VERTEX
  5
1EB
330
1EA
100
AcDbEntity
  8
Ebene 1
 62
   179
420
  1709851
370
    25
100
AcDbVertex
100
AcDb2dVertex
 10
171.4114148877027
 20
-208.0010850174442
 30
0.0
  0
VERTEX
  5
1EC
330
1EA
100
AcDbEntity
  8
Ebene 1
 62
   179
420
  1709851
370
    25
100
AcDbVertex
100
AcDb2dVertex
 10
169.802555296091
 20
-208.0010850174442
 30
0.0
  0
SEQEND
  5
1ED
330
1EA
100
AcDbEntity
  8
Ebene 1
370
    25
  0
POLYLINE
  5
1EE
330
1F
100
AcDbEntity
  8
Ebene 1
 62
   179
420
  1709851
370
    25
100
AcDb2dPolyline
 66
     1
 10
0.0
 20
0.0
 30
0.0
  0
VERTEX
  5
1EF
330
1EE
100
AcDbEntity
  8
Ebene 1
 62
   179
420
  1709851
370
    25
100
AcDbVertex
100
AcDb2dVertex
 10
169.802555296091
 20
-89.61606307438419
 30
0.0
  0
VERTEX
  5
1F0
330
1EE
100
AcDbEntity
  8
Ebene 1
 62
   179
420
  1709851
370
    25
100
AcDbVertex
100
AcDb2dVertex
 10
169.802555296091
 20
-208.0010850174442
 30
0.0
  0
SEQEND
  5
1F1
330
1EE
100
AcDbEntity
  8
Ebene 1
370
    25
  0
POLYLINE
  5
1F2
330
1F
100
AcDbEntity
  8
Ebene 1
 62
   179
420
  1709851
370
    25
100
AcDb2dPolyline
 66
     1
 10
0.0
 20
0.0
 30
0.0
  0
VERTEX
  5
1F3
330
1F2
100
AcDbEntity
  8
Ebene 1
 62
   179
420
  1709851
370
    25
100
AcDbVertex
100
AcDb2dVertex
 10
171.4114148877027
 20
-208.0010850174442
 30
0.0
  0
VERTEX
  5
1F4
330
1F2
100
AcDbEntity
  8
Ebene 1
 62
   179
420
  1709851
370
    25
100
AcDbVertex
100
AcDb2dVertex
 10
171.4114148877027
 20
-89.61606307438419
 30
0.0
  0
SEQEND
  5
1F5
330
1F2
100
AcDbEntity
  8
Ebene 1
370
    25
  0
POLYLINE
  5
1F6
330
1F
100
AcDbEntity
  8
Ebene 1
 62
   179
420
  1709851
370
    25
100
AcDb2dPolyline
 66
     1
 10
0.0
 20
0.0
 30
0.0
  0
VERTEX
  5
1F7
330
1F6
100
AcDbEntity
  8
Ebene 1
 62
   179
420
  1709851
370
    25
100
AcDbVertex
100
AcDb2dVertex
 10
171.4114148877027
 20
-88.02856307478106
 30
0.0
  0
VERTEX
  5
1F8
330
1F6
100
AcDbEntity
  8
Ebene 1
 62
   179
420
  1709851
370
    25
100
AcDbVertex
100
AcDb2dVertex
 10
169.802555296091
 20
-88.02856307478106
 30
0.0
  0
SEQEND
  5
1F9
330
1F6
100
AcDbEntity
  8
Ebene 1
370
    25
  0
POLYLINE
  5
1FA
330
1F
100
AcDbEntity
  8
Ebene 1
 62
   179
420
  1709851
370
    25
100
AcDb2dPolyline
 66
     1
 10
0.0
 20
0.0
 30
0.0
  0
VERTEX
  5
1FB
330
1FA
100
AcDbEntity
  8
Ebene 1
 62
   179
420
  1709851
370
    25
100
AcDbVertex
100
AcDb2dVertex
 10
171.4114148877027
 20
-89.61606307438419
 30
0.0
  0
VERTEX
  5
1FC
330
1FA
100
AcDbEntity
  8
Ebene 1
 62
   179
420
  1709851
370
    25
100
AcDbVertex
100
AcDb2dVertex
 10
169.802555296091
 20
-89.61606307438419
 30
0.0
  0
SEQEND
  5
1FD
330
1FA
100
AcDbEntity
  8
Ebene 1
370
    25
  0
POLYLINE
  5
1FE
330
1F
100
AcDbEntity
  8
Ebene 1
 62
   179
420
  1709851
370
    25
100
AcDb2dPolyline
 66
     1
 10
0.0
 20
0.0
 30
0.0
  0
VERTEX
  5
1FF
330
1FE
100
AcDbEntity
  8
Ebene 1
 62
   179
420
  1709851
370
    25
100
AcDbVertex
100
AcDb2dVertex
 10
171.4114148877027
 20
-211.2188042006675
 30
0.0
  0
VERTEX
  5
200
330
1FE
100
AcDbEntity
  8
Ebene 1
 62
   179
420
  1709851
370
    25
100
AcDbVertex
100
AcDb2dVertex
 10
171.4114148877027
 20
-209.6099446090558
 30
0.0
  0
SEQEND
  5
201
330
1FE
100
AcDbEntity
  8
Ebene 1
370
    25
  0
POLYLINE
  5
202
330
1F
100
AcDbEntity
  8
Ebene 1
 62
   179
420
  1709851
370
    18
100
AcDb2dPolyline
 66
     1
 10
0.0
 20
0.0
 30
0.0
  0
VERTEX
  5
203
330
202
100
AcDbEntity
  8
Ebene 1
 62
   179
420
  1709851
370
    18
100
AcDbVertex
100
AcDb2dVertex
 10
167.1990966378877
 20
-111.1217271315078
 30
0.0
  0
VERTEX
  5
204
330
202
100
AcDbEntity
  8
Ebene 1
 62
   179
420
  1709851
370
    18
100
AcDbVertex
100
AcDb2dVertex
 10
167.1990966378877
 20
-117.7256306671832
 30
0.0
  0
SEQEND
  5
205
330
202
100
AcDbEntity
  8
Ebene 1
370
    18
  0
POLYLINE
  5
206
330
1F
100
AcDbEntity
  8
Ebene 1
 62
   179
420
  1709851
370
    18
100
AcDb2dPolyline
 66
     1
 10
0.0
 20
0.0
 30
0.0
  0
VERTEX
  5
207
330
206
100
AcDbEntity
  8
Ebene 1
 62
   179
420
  1709851
370
    18
100
AcDbVertex
100
AcDb2dVertex
 10
169.802555296091
 20
-110.2115329043048
 30
0.0
  0
VERTEX
  5
208
330
206
100
AcDbEntity
  8
Ebene 1
 62
   179
420
  1709851
370
    18
100
AcDbVertex
100
AcDb2dVertex
 10
169.6754312726853
 20
-110.2539075787733
 30
0.0
  0
VERTEX
  5
209
330
206
100
AcDbEntity
  8
Ebene 1
 62
   179
420
  1709851
370
    18
100
AcDbVertex
100
AcDb2dVertex
 10
169.6120415157567
 20
-110.3596720101705
 30
0.0
  0
VERTEX
  5
20A
330
206
100
AcDbEntity
  8
Ebene 1
 62
   179
420
  1709851
370
    18
100
AcDbVertex
100
AcDb2dVertex
 10
169.6120415157567
 20
-110.4230617670991
 30
0.0
  0
SEQEND
  5
20B
330
206
100
AcDbEntity
  8
Ebene 1
370
    18
  0
POLYLINE
  5
20C
330
1F
100
AcDbEntity
  8
Ebene 1
 62
   179
420
  1709851
370
    18
100
AcDb2dPolyline
 66
     1
 10
0.0
 20
0.0
 30
0.0
  0
VERTEX
  5
20D
330
20C
100
AcDbEntity
  8
Ebene 1
 62
   179
420
  1709851
370
    18
100
AcDbVertex
100
AcDb2dVertex
 10
169.6120415157567
 20
-118.4242960315919
 30
0.0
  0
VERTEX
  5
20E
330
20C
100
AcDbEntity
  8
Ebene 1
 62
   179
420
  1709851
370
    18
100
AcDbVertex
100
AcDb2dVertex
 10
169.6544161902253
 20
-118.551075545449
 30
0.0
  0
VERTEX
  5
20F
330
20C
100
AcDbEntity
  8
Ebene 1
 62
   179
420
  1709851
370
    18
100
AcDbVertex
100
AcDb2dVertex
 10
169.7601806216225
 20
-118.6148098119262
 30
0.0
  0
VERTEX
  5
210
330
20C
100
AcDbEntity
  8
Ebene 1
 62
   179
420
  1709851
370
    18
100
AcDbVertex
100
AcDb2dVertex
 10
169.802555296091
 20
-118.6148098119262
 30
0.0
  0
SEQEND
  5
211
330
20C
100
AcDbEntity
  8
Ebene 1
370
    18
  0
POLYLINE
  5
212
330
1F
100
AcDbEntity
  8
Ebene 1
 62
   179
420
  1709851
370
    18
100
AcDb2dPolyline
 66
     1
 10
0.0
 20
0.0
 30
0.0
  0
VERTEX
  5
213
330
212
100
AcDbEntity
  8
Ebene 1
 62
   179
420
  1709851
370
    18
100
AcDbVertex
100
AcDb2dVertex
 10
169.6120415157567
 20
-118.4242960315919
 30
0.0
  0
VERTEX
  5
214
330
212
100
AcDbEntity
  8
Ebene 1
 62
   179
420
  1709851
370
    18
100
AcDbVertex
100
AcDb2dVertex
 10
169.6120415157567
 20
-114.4235066445712
 30
0.0
  0
VERTEX
  5
215
330
212
100
AcDbEntity
  8
Ebene 1
 62
   179
420
  1709851
370
    18
100
AcDbVertex
100
AcDb2dVertex
 10
169.6120415157567
 20
-110.4230617670991
 30
0.0
  0
SEQEND
  5
216
330
212
100
AcDbEntity
  8
Ebene 1
370
    18
  0
POLYLINE
  5
217
330
1F
100
AcDbEntity
  8
Ebene 1
 62
   179
420
  1709851
370
    18
100
AcDb2dPolyline
 66
     1
 10
0.0
 20
0.0
 30
0.0
  0
VERTEX
  5
218
330
217
100
AcDbEntity
  8
Ebene 1
 62
   179
420
  1709851
370
    18
100
AcDbVertex
100
AcDb2dVertex
 10
169.6120415157567
 20
-118.4242960315919
 30
0.0
  0
VERTEX
  5
219
330
217
100
AcDbEntity
  8
Ebene 1
 62
   179
420
  1709851
370
    18
100
AcDbVertex
100
AcDb2dVertex
 10
169.6120415157567
 20
-114.4235066445712
 30
0.0
  0
SEQEND
  5
21A
330
217
100
AcDbEntity
  8
Ebene 1
370
    18
  0
POLYLINE
  5
21B
330
1F
100
AcDbEntity
  8
Ebene 1
 62
   179
420
  1709851
370
    18
100
AcDb2dPolyline
 66
     1
 10
0.0
 20
0.0
 30
0.0
  0
VERTEX
  5
21C
330
21B
100
AcDbEntity
  8
Ebene 1
 62
   179
420
  1709851
370
    18
100
AcDbVertex
100
AcDb2dVertex
 10
169.6120415157567
 20
-110.4230617670991
 30
0.0
  0
VERTEX
  5
21D
330
21B
100
AcDbEntity
  8
Ebene 1
 62
   179
420
  1709851
370
    18
100
AcDbVertex
100
AcDb2dVertex
 10
169.6120415157567
 20
-114.4235066445712
 30
0.0
  0
SEQEND
  5
21E
330
21B
100
AcDbEntity
  8
Ebene 1
370
    18
  0
POLYLINE
  5
21F
330
1F
100
AcDbEntity
  8
Ebene 1
 62
   179
420
  1709851
370
    18
100
AcDb2dPolyline
 66
     1
 10
0.0
 20
0.0
 30
0.0
  0
VERTEX
  5
220
330
21F
100
AcDbEntity
  8
Ebene 1
 62
   179
420
  1709851
370
    18
100
AcDbVertex
100
AcDb2dVertex
 10
169.6120415157567
 20
-110.4230617670991
 30
0.0
  0
VERTEX
  5
221
330
21F
100
AcDbEntity
  8
Ebene 1
 62
   179
420
  1709851
370
    18
100
AcDbVertex
100
AcDb2dVertex
 10
167.6011392810164
 20
-110.4230617670991
 30
0.0
  0
SEQEND
  5
222
330
21F
100
AcDbEntity
  8
Ebene 1
370
    18
  0
POLYLINE
  5
223
330
1F
100
AcDbEntity
  8
Ebene 1
 62
   179
420
  1709851
370
    18
100
AcDb2dPolyline
 66
     1
 10
0.0
 20
0.0
 30
0.0
  0
VERTEX
  5
224
330
223
100
AcDbEntity
  8
Ebene 1
 62
   179
420
  1709851
370
    18
100
AcDbVertex
100
AcDb2dVertex
 10
167.6011392810164
 20
-118.4242960315919
 30
0.0
  0
VERTEX
  5
225
330
223
100
AcDbEntity
  8
Ebene 1
 62
   179
420
  1709851
370
    18
100
AcDbVertex
100
AcDb2dVertex
 10
169.6120415157567
 20
-118.4242960315919
 30
0.0
  0
SEQEND
  5
226
330
223
100
AcDbEntity
  8
Ebene 1
370
    18
  0
POLYLINE
  5
227
330
1F
100
AcDbEntity
  8
Ebene 1
 62
   179
420
  1709851
370
    18
100
AcDb2dPolyline
 66
     1
 10
0.0
 20
0.0
 30
0.0
  0
VERTEX
  5
228
330
227
100
AcDbEntity
  8
Ebene 1
 62
   179
420
  1709851
370
    18
100
AcDbVertex
100
AcDb2dVertex
 10
167.6011392810164
 20
-110.4230617670991
 30
0.0
  0
VERTEX
  5
229
330
227
100
AcDbEntity
  8
Ebene 1
 62
   179
420
  1709851
370
    18
100
AcDbVertex
100
AcDb2dVertex
 10
167.6011392810164
 20
-118.4242960315919
 30
0.0
  0
VERTEX
  5
22A
330
227
100
AcDbEntity
  8
Ebene 1
 62
   179
420
  1709851
370
    18
100
AcDbVertex
100
AcDb2dVertex
 10
167.1990966378877
 20
-117.7256306671832
 30
0.0
  0
SEQEND
  5
22B
330
227
100
AcDbEntity
  8
Ebene 1
370
    18
  0
POLYLINE
  5
22C
330
1F
100
AcDbEntity
  8
Ebene 1
 62
   179
420
  1709851
370
    18
100
AcDb2dPolyline
 66
     1
 10
0.0
 20
0.0
 30
0.0
  0
VERTEX
  5
22D
330
22C
100
AcDbEntity
  8
Ebene 1
 62
   179
420
  1709851
370
    18
100
AcDbVertex
100
AcDb2dVertex
 10
167.6011392810164
 20
-110.4230617670991
 30
0.0
  0
VERTEX
  5
22E
330
22C
100
AcDbEntity
  8
Ebene 1
 62
   179
420
  1709851
370
    18
100
AcDbVertex
100
AcDb2dVertex
 10
167.1990966378877
 20
-111.1217271315078
 30
0.0
  0
SEQEND
  5
22F
330
22C
100
AcDbEntity
  8
Ebene 1
370
    18
  0
POLYLINE
  5
230
330
1F
100
AcDbEntity
  8
Ebene 1
 62
   179
420
  1709851
370
    35
100
AcDb2dPolyline
 66
     1
 10
0.0
 20
0.0
 30
0.0
  0
VERTEX
  5
231
330
230
100
AcDbEntity
  8
Ebene 1
 62
   179
420
  1709851
370
    35
100
AcDbVertex
100
AcDb2dVertex
 10
113.4146104317158
 20
-160.4608343782876
 30
0.0
  0
VERTEX
  5
232
330
230
100
AcDbEntity
  8
Ebene 1
 62
   179
420
  1709851
370
    35
100
AcDbVertex
100
AcDb2dVertex
 10
113.4146104317158
 20
-157.2231336412498
 30
0.0
  0
SEQEND
  5
233
330
230
100
AcDbEntity
  8
Ebene 1
370
    35
  0
POLYLINE
  5
234
330
1F
100
AcDbEntity
  8
Ebene 1
 62
   179
420
  1709851
370
    35
100
AcDb2dPolyline
 66
     1
 10
0.0
 20
0.0
 30
0.0
  0
VERTEX
  5
235
330
234
100
AcDbEntity
  8
Ebene 1
 62
   179
420
  1709851
370
    35
100
AcDbVertex
100
AcDb2dVertex
 10
113.4146104317158
 20
-162.4507215305679
 30
0.0
  0
VERTEX
  5
236
330
234
100
AcDbEntity
  8
Ebene 1
 62
   179
420
  1709851
370
    35
100
AcDbVertex
100
AcDb2dVertex
 10
113.4146104317158
 20
-161.4564669735248
 30
0.0
  0
SEQEND
  5
237
330
234
100
AcDbEntity
  8
Ebene 1
370
    35
  0
POLYLINE
  5
238
330
1F
100
AcDbEntity
  8
Ebene 1
 62
   179
420
  1709851
370
    35
100
AcDb2dPolyline
 66
     1
 10
0.0
 20
0.0
 30
0.0
  0
VERTEX
  5
239
330
238
100
AcDbEntity
  8
Ebene 1
 62
   179
420
  1709851
370
    35
100
AcDbVertex
100
AcDb2dVertex
 10
113.4146104317158
 20
-170.4523003046092
 30
0.0
  0
VERTEX
  5
23A
330
238
100
AcDbEntity
  8
Ebene 1
 62
   179
420
  1709851
370
    35
100
AcDbVertex
100
AcDb2dVertex
 10
113.4146104317158
 20
-163.445665106708
 30
0.0
  0
SEQEND
  5
23B
330
238
100
AcDbEntity
  8
Ebene 1
370
    35
  0
POLYLINE
  5
23C
330
1F
100
AcDbEntity
  8
Ebene 1
 62
   179
420
  1709851
370
    35
100
AcDb2dPolyline
 66
     1
 10
0.0
 20
0.0
 30
0.0
  0
VERTEX
  5
23D
330
23C
100
AcDbEntity
  8
Ebene 1
 62
   179
420
  1709851
370
    35
100
AcDbVertex
100
AcDb2dVertex
 10
113.4146104317158
 20
-172.4621690107039
 30
0.0
  0
VERTEX
  5
23E
330
23C
100
AcDbEntity
  8
Ebene 1
 62
   179
420
  1709851
370
    35
100
AcDbVertex
100
AcDb2dVertex
 10
113.4146104317158
 20
-171.4465548616523
 30
0.0
  0
SEQEND
  5
23F
330
23C
100
AcDbEntity
  8
Ebene 1
370
    35
  0
POLYLINE
  5
240
330
1F
100
AcDbEntity
  8
Ebene 1
 62
   179
420
  1709851
370
    35
100
AcDb2dPolyline
 66
     1
 10
0.0
 20
0.0
 30
0.0
  0
VERTEX
  5
241
330
240
100
AcDbEntity
  8
Ebene 1
 62
   179
420
  1709851
370
    35
100
AcDbVertex
100
AcDb2dVertex
 10
113.4146104317158
 20
-180.4423881927366
 30
0.0
  0
VERTEX
  5
242
330
240
100
AcDbEntity
  8
Ebene 1
 62
   179
420
  1709851
370
    35
100
AcDbVertex
100
AcDb2dVertex
 10
113.4146104317158
 20
-173.4571125868441
 30
0.0
  0
SEQEND
  5
243
330
240
100
AcDbEntity
  8
Ebene 1
370
    35
  0
POLYLINE
  5
244
330
1F
100
AcDbEntity
  8
Ebene 1
 62
   179
420
  1709851
370
    18
100
AcDb2dPolyline
 66
     1
 10
0.0
 20
0.0
 30
0.0
  0
VERTEX
  5
245
330
244
100
AcDbEntity
  8
Ebene 1
 62
   179
420
  1709851
370
    18
100
AcDbVertex
100
AcDb2dVertex
 10
118.9178059598539
 20
-194.2220811146389
 30
0.0
  0
VERTEX
  5
246
330
244
100
AcDbEntity
  8
Ebene 1
 62
   179
420
  1709851
370
    18
100
AcDbVertex
100
AcDb2dVertex
 10
115.7007757957276
 20
-194.2220811146389
 30
0.0
  0
SEQEND
  5
247
330
244
100
AcDbEntity
  8
Ebene 1
370
    18
  0
POLYLINE
  5
248
330
1F
100
AcDbEntity
  8
Ebene 1
 62
   179
420
  1709851
370
    18
100
AcDb2dPolyline
 66
     1
 10
0.0
 20
0.0
 30
0.0
  0
VERTEX
  5
249
330
248
100
AcDbEntity
  8
Ebene 1
 62
   179
420
  1709851
370
    18
100
AcDbVertex
100
AcDb2dVertex
 10
117.3092908777907
 20
-199.8100259917142
 30
0.0
  0
VERTEX
  5
24A
330
248
100
AcDbEntity
  8
Ebene 1
 62
   179
420
  1709851
370
    18
100
AcDbVertex
100
AcDb2dVertex
 10
117.3092908777907
 20
-196.2112792478222
 30
0.0
  0
VERTEX
  5
24B
330
248
100
AcDbEntity
  8
Ebene 1
 62
   179
420
  1709851
370
    18
100
AcDbVertex
100
AcDb2dVertex
 10
117.9018473012537
 20
-196.2112792478222
 30
0.0
  0
VERTEX
  5
24C
330
248
100
AcDbEntity
  8
Ebene 1
 62
   179
420
  1709851
370
    18
100
AcDbVertex
100
AcDb2dVertex
 10
117.9018473012537
 20
-177.2039984366018
 30
0.0
  0
SEQEND
  5
24D
330
248
100
AcDbEntity
  8
Ebene 1
370
    18
  0
POLYLINE
  5
24E
330
1F
100
AcDbEntity
  8
Ebene 1
 62
   179
420
  1709851
370
    18
100
AcDb2dPolyline
 66
     1
 10
0.0
 20
0.0
 30
0.0
  0
VERTEX
  5
24F
330
24E
100
AcDbEntity
  8
Ebene 1
 62
   179
420
  1709851
370
    18
100
AcDbVertex
100
AcDb2dVertex
 10
117.3092908777907
 20
-178.8128580282135
 30
0.0
  0
VERTEX
  5
250
330
24E
100
AcDbEntity
  8
Ebene 1
 62
   179
420
  1709851
370
    18
100
AcDbVertex
100
AcDb2dVertex
 10
117.3092908777907
 20
-196.2112792478222
 30
0.0
  0
SEQEND
  5
251
330
24E
100
AcDbEntity
  8
Ebene 1
370
    18
  0
POLYLINE
  5
252
330
1F
100
AcDbEntity
  8
Ebene 1
 62
   179
420
  1709851
370
    18
100
AcDb2dPolyline
 66
     1
 10
0.0
 20
0.0
 30
0.0
  0
VERTEX
  5
253
330
252
100
AcDbEntity
  8
Ebene 1
 62
   179
420
  1709851
370
    18
100
AcDbVertex
100
AcDb2dVertex
 10
116.1024739293077
 20
-201.4181965642288
 30
0.0
  0
VERTEX
  5
254
330
252
100
AcDbEntity
  8
Ebene 1
 62
   179
420
  1709851
370
    18
100
AcDbVertex
100
AcDb2dVertex
 10
116.1024739293077
 20
-198.815082415574
 30
0.0
  0
SEQEND
  5
255
330
252
100
AcDbEntity
  8
Ebene 1
370
    18
  0
POLYLINE
  5
256
330
1F
100
AcDbEntity
  8
Ebene 1
 62
   179
420
  1709851
370
    18
100
AcDb2dPolyline
 66
     1
 10
0.0
 20
0.0
 30
0.0
  0
VERTEX
  5
257
330
256
100
AcDbEntity
  8
Ebene 1
 62
   179
420
  1709851
370
    18
100
AcDbVertex
100
AcDb2dVertex
 10
111.0016655538468
 20
-200.4025824151771
 30
0.0
  0
VERTEX
  5
258
330
256
100
AcDbEntity
  8
Ebene 1
 62
   179
420
  1709851
370
    18
100
AcDbVertex
100
AcDb2dVertex
 10
123.0030001862632
 20
-200.4025824151771
 30
0.0
  0
SEQEND
  5
259
330
256
100
AcDbEntity
  8
Ebene 1
370
    18
  0
POLYLINE
  5
25A
330
1F
100
AcDbEntity
  8
Ebene 1
 62
   179
420
  1709851
370
    18
100
AcDb2dPolyline
 66
     1
 10
0.0
 20
0.0
 30
0.0
  0
VERTEX
  5
25B
330
25A
100
AcDbEntity
  8
Ebene 1
 62
   179
420
  1709851
370
    18
100
AcDbVertex
100
AcDb2dVertex
 10
116.7163899447792
 20
-199.8100259917142
 30
0.0
  0
VERTEX
  5
25C
330
25A
100
AcDbEntity
  8
Ebene 1
 62
   179
420
  1709851
370
    18
100
AcDbVertex
100
AcDb2dVertex
 10
111.0016655538468
 20
-199.8100259917142
 30
0.0
  0
SEQEND
  5
25D
330
25A
100
AcDbEntity
  8
Ebene 1
370
    18
  0
POLYLINE
  5
25E
330
1F
100
AcDbEntity
  8
Ebene 1
 62
   179
420
  1709851
370
    18
100
AcDb2dPolyline
 66
     1
 10
0.0
 20
0.0
 30
0.0
  0
VERTEX
  5
25F
330
25E
100
AcDbEntity
  8
Ebene 1
 62
   179
420
  1709851
370
    18
100
AcDbVertex
100
AcDb2dVertex
 10
111.0016655538468
 20
-199.8100259917142
 30
0.0
  0
VERTEX
  5
260
330
25E
100
AcDbEntity
  8
Ebene 1
 62
   179
420
  1709851
370
    18
100
AcDbVertex
100
AcDb2dVertex
 10
111.0016655538468
 20
-200.4025824151771
 30
0.0
  0
SEQEND
  5
261
330
25E
100
AcDbEntity
  8
Ebene 1
370
    18
  0
POLYLINE
  5
262
330
1F
100
AcDbEntity
  8
Ebene 1
 62
   179
420
  1709851
370
    18
100
AcDb2dPolyline
 66
     1
 10
0.0
 20
0.0
 30
0.0
  0
VERTEX
  5
263
330
262
100
AcDbEntity
  8
Ebene 1
 62
   179
420
  1709851
370
    18
100
AcDbVertex
100
AcDb2dVertex
 10
123.0030001862632
 20
-200.4025824151771
 30
0.0
  0
VERTEX
  5
264
330
262
100
AcDbEntity
  8
Ebene 1
 62
   179
420
  1709851
370
    18
100
AcDbVertex
100
AcDb2dVertex
 10
123.0030001862632
 20
-199.8100259917142
 30
0.0
  0
SEQEND
  5
265
330
262
100
AcDbEntity
  8
Ebene 1
370
    18
  0
POLYLINE
  5
266
330
1F
100
AcDbEntity
  8
Ebene 1
 62
   179
420
  1709851
370
    18
100
AcDb2dPolyline
 66
     1
 10
0.0
 20
0.0
 30
0.0
  0
VERTEX
  5
267
330
266
100
AcDbEntity
  8
Ebene 1
 62
   179
420
  1709851
370
    18
100
AcDbVertex
100
AcDb2dVertex
 10
123.0030001862632
 20
-199.8100259917142
 30
0.0
  0
VERTEX
  5
268
330
266
100
AcDbEntity
  8
Ebene 1
 62
   179
420
  1709851
370
    18
100
AcDbVertex
100
AcDb2dVertex
 10
117.3092908777907
 20
-199.8100259917142
 30
0.0
  0
SEQEND
  5
269
330
266
100
AcDbEntity
  8
Ebene 1
370
    18
  0
POLYLINE
  5
26A
330
1F
100
AcDbEntity
  8
Ebene 1
 62
   179
420
  1709851
370
    18
100
AcDb2dPolyline
 66
     1
 10
0.0
 20
0.0
 30
0.0
  0
VERTEX
  5
26B
330
26A
100
AcDbEntity
  8
Ebene 1
 62
   179
420
  1709851
370
    18
100
AcDbVertex
100
AcDb2dVertex
 10
109.8162081973723
 20
-178.2196125856534
 30
0.0
  0
VERTEX
  5
26C
330
26A
100
AcDbEntity
  8
Ebene 1
 62
   179
420
  1709851
370
    18
100
AcDbVertex
100
AcDb2dVertex
 10
117.9018473012537
 20
-178.2196125856534
 30
0.0
  0
SEQEND
  5
26D
330
26A
100
AcDbEntity
  8
Ebene 1
370
    18
  0
POLYLINE
  5
26E
330
1F
100
AcDbEntity
  8
Ebene 1
 62
   179
420
  1709851
370
    18
100
AcDb2dPolyline
 66
     1
 10
0.0
 20
0.0
 30
0.0
  0
VERTEX
  5
26F
330
26E
100
AcDbEntity
  8
Ebene 1
 62
   179
420
  1709851
370
    18
100
AcDbVertex
100
AcDb2dVertex
 10
117.3092908777907
 20
-190.4124945270497
 30
0.0
  0
VERTEX
  5
270
330
26E
100
AcDbEntity
  8
Ebene 1
 62
   179
420
  1709851
370
    18
100
AcDbVertex
100
AcDb2dVertex
 10
116.7163899447792
 20
-190.4124945270497
 30
0.0
  0
VERTEX
  5
271
330
26E
100
AcDbEntity
  8
Ebene 1
 62
   179
420
  1709851
370
    18
100
AcDbVertex
100
AcDb2dVertex
 10
116.7163899447792
 20
-199.8100259917142
 30
0.0
  0
SEQEND
  5
272
330
26E
100
AcDbEntity
  8
Ebene 1
370
    18
  0
POLYLINE
  5
273
330
1F
100
AcDbEntity
  8
Ebene 1
 62
   179
420
  1709851
370
    18
100
AcDb2dPolyline
 66
     1
 10
0.0
 20
0.0
 30
0.0
  0
VERTEX
  5
274
330
273
100
AcDbEntity
  8
Ebene 1
 62
   179
420
  1709851
370
    18
100
AcDbVertex
100
AcDb2dVertex
 10
109.8162081973723
 20
-178.2196125856534
 30
0.0
  0
VERTEX
  5
275
330
273
100
AcDbEntity
  8
Ebene 1
 62
   179
420
  1709851
370
    18
100
AcDbVertex
100
AcDb2dVertex
 10
109.8162081973723
 20
-177.2039984366018
 30
0.0
  0
SEQEND
  5
276
330
273
100
AcDbEntity
  8
Ebene 1
370
    18
  0
POLYLINE
  5
277
330
1F
100
AcDbEntity
  8
Ebene 1
 62
   179
420
  1709851
370
    18
100
AcDb2dPolyline
 66
     1
 10
0.0
 20
0.0
 30
0.0
  0
VERTEX
  5
278
330
277
100
AcDbEntity
  8
Ebene 1
 62
   179
420
  1709851
370
    18
100
AcDbVertex
100
AcDb2dVertex
 10
109.8162081973723
 20
-178.2196125856534
 30
0.0
  0
VERTEX
  5
279
330
277
100
AcDbEntity
  8
Ebene 1
 62
   179
420
  1709851
370
    18
100
AcDbVertex
100
AcDb2dVertex
 10
109.8162081973723
 20
-178.8128580282135
 30
0.0
  0
VERTEX
  5
27A
330
277
100
AcDbEntity
  8
Ebene 1
 62
   179
420
  1709851
370
    18
100
AcDbVertex
100
AcDb2dVertex
 10
117.3092908777907
 20
-178.8128580282135
 30
0.0
  0
SEQEND
  5
27B
330
277
100
AcDbEntity
  8
Ebene 1
370
    18
  0
POLYLINE
  5
27C
330
1F
100
AcDbEntity
  8
Ebene 1
 62
   179
420
  1709851
370
    35
100
AcDb2dPolyline
 66
     1
 10
0.0
 20
0.0
 30
0.0
  0
VERTEX
  5
27D
330
27C
100
AcDbEntity
  8
Ebene 1
 62
   179
420
  1709851
370
    35
100
AcDbVertex
100
AcDb2dVertex
 10
136.8670979475541
 20
-153.2219997446806
 30
0.0
  0
VERTEX
  5
27E
330
27C
100
AcDbEntity
  8
Ebene 1
 62
   179
420
  1709851
370
    35
100
AcDbVertex
100
AcDb2dVertex
 10
141.0160264404404
 20
-153.2219997446806
 30
0.0
  0
SEQEND
  5
27F
330
27C
100
AcDbEntity
  8
Ebene 1
370
    35
  0
POLYLINE
  5
280
330
1F
100
AcDbEntity
  8
Ebene 1
 62
   179
420
  1709851
370
    35
100
AcDb2dPolyline
 66
     1
 10
0.0
 20
0.0
 30
0.0
  0
VERTEX
  5
281
330
280
100
AcDbEntity
  8
Ebene 1
 62
   179
420
  1709851
370
    35
100
AcDbVertex
100
AcDb2dVertex
 10
134.8565402223623
 20
-153.2219997446806
 30
0.0
  0
VERTEX
  5
282
330
280
100
AcDbEntity
  8
Ebene 1
 62
   179
420
  1709851
370
    35
100
AcDbVertex
100
AcDb2dVertex
 10
135.8511392889539
 20
-153.2219997446806
 30
0.0
  0
SEQEND
  5
283
330
280
100
AcDbEntity
  8
Ebene 1
370
    35
  0
POLYLINE
  5
284
330
1F
100
AcDbEntity
  8
Ebene 1
 62
   179
420
  1709851
370
    35
100
AcDb2dPolyline
 66
     1
 10
0.0
 20
0.0
 30
0.0
  0
VERTEX
  5
285
330
284
100
AcDbEntity
  8
Ebene 1
 62
   179
420
  1709851
370
    35
100
AcDbVertex
100
AcDb2dVertex
 10
126.8553059578695
 20
-153.2219997446806
 30
0.0
  0
VERTEX
  5
286
330
284
100
AcDbEntity
  8
Ebene 1
 62
   179
420
  1709851
370
    35
100
AcDbVertex
100
AcDb2dVertex
 10
133.8619411557706
 20
-153.2219997446806
 30
0.0
  0
SEQEND
  5
287
330
284
100
AcDbEntity
  8
Ebene 1
370
    35
  0
POLYLINE
  5
288
330
1F
100
AcDbEntity
  8
Ebene 1
 62
   179
420
  1709851
370
    35
100
AcDb2dPolyline
 66
     1
 10
0.0
 20
0.0
 30
0.0
  0
VERTEX
  5
289
330
288
100
AcDbEntity
  8
Ebene 1
 62
   179
420
  1709851
370
    35
100
AcDbVertex
100
AcDb2dVertex
 10
124.8661078246863
 20
-153.2219997446806
 30
0.0
  0
VERTEX
  5
28A
330
288
100
AcDbEntity
  8
Ebene 1
 62
   179
420
  1709851
370
    35
100
AcDbVertex
100
AcDb2dVertex
 10
125.8607068912779
 20
-153.2219997446806
 30
0.0
  0
SEQEND
  5
28B
330
288
100
AcDbEntity
  8
Ebene 1
370
    35
  0
POLYLINE
  5
28C
330
1F
100
AcDbEntity
  8
Ebene 1
 62
   179
420
  1709851
370
    35
100
AcDb2dPolyline
 66
     1
 10
0.0
 20
0.0
 30
0.0
  0
VERTEX
  5
28D
330
28C
100
AcDbEntity
  8
Ebene 1
 62
   179
420
  1709851
370
    35
100
AcDbVertex
100
AcDb2dVertex
 10
117.4150553091879
 20
-153.2219997446806
 30
0.0
  0
VERTEX
  5
28E
330
28C
100
AcDbEntity
  8
Ebene 1
 62
   179
420
  1709851
370
    35
100
AcDbVertex
100
AcDb2dVertex
 10
117.4150553091879
 20
-153.2219997446806
 30
0.0
  0
VERTEX
  5
28F
330
28C
100
AcDbEntity
  8
Ebene 1
 62
   179
420
  1709851
370
    35
100
AcDbVertex
100
AcDb2dVertex
 10
123.8498046565376
 20
-153.2219997446806
 30
0.0
  0
SEQEND
  5
290
330
28C
100
AcDbEntity
  8
Ebene 1
370
    35
  0
INSERT
  5
292
330
1F
100
AcDbEntity
  8
Ebene 1
100
AcDbBlockReference
  2
block 4
 10
0.0
 20
0.0
 30
0.0
  0
ENDSEC
  0
SECTION
  2
OBJECTS
  0
DICTIONARY
  5
C
330
0
100
AcDbDictionary
281
     1
  3
ACAD_GROUP
350
D
  3
ACAD_LAYOUT
350
1A
  3
ACAD_MLINESTYLE
350
17
  3
ACAD_PLOTSETTINGS
350
19
  3
ACAD_PLOTSTYLENAME
350
E
  3
ACAD_TABLESTYLE
350
5C4
  3
ACAD_VISUALSTYLE
350
2A
  0
DICTIONARY
  5
D
102
{ACAD_REACTORS
330
C
102
}
330
C
100
AcDbDictionary
281
     1
  0
DICTIONARY
  5
1A
102
{ACAD_REACTORS
330
C
102
}
330
C
100
AcDbDictionary
281
     1
  3
Layout1
350
1E
  3
Layout2
350
26
  3
Model
350
22
  0
DICTIONARY
  5
17
102
{ACAD_REACTORS
330
C
102
}
330
C
100
AcDbDictionary
281
     1
  3
Standard
350
18
  0
DICTIONARY
  5
19
102
{ACAD_REACTORS
330
C
102
}
330
C
100
AcDbDictionary
281
     1
  0
ACDBDICTIONARYWDFLT
  5
E
102
{ACAD_REACTORS
330
C
102
}
330
C
100
AcDbDictionary
281
     1
  3
Normal
350
F
100
AcDbDictionaryWithDefault
340
F
  0
DICTIONARY
  5
5C4
102
{ACAD_REACTORS
330
C
102
}
330
C
100
AcDbDictionary
281
     1
  0
DICTIONARY
  5
2A
102
{ACAD_REACTORS
330
C
102
}
330
C
100
AcDbDictionary
281
     1
  3
2dWireframe
350
2F
  3
3D Hidden
350
31
  3
3dWireframe
350
30
  3
Basic
350
32
  3
Brighten
350
36
  3
ColorChange
350
3A
  3
Conceptual
350
34
  3
Dim
350
35
  3
Facepattern
350
39
  3
Flat
350
2B
  3
FlatWithEdges
350
2C
  3
Gouraud
350
2D
  3
GouraudWithEdges
350
2E
  3
Linepattern
350
38
  3
Realistic
350
33
  3
Thicken
350
37
  0
LAYOUT
  5
1E
102
{ACAD_REACTORS
330
1A
102
}
330
1A
100
AcDbPlotSettings
  1

  2
none_device
  4

  6

 40
0.0
 41
0.0
 42
0.0
 43
0.0
 44
0.0
 45
0.0
 46
0.0
 47
0.0
 48
0.0
 49
0.0
140
0.0
141
0.0
142
1.0
143
1.0
 70
   688
 72
     0
 73
     0
 74
     5
  7

 75
    16
 76
     0
 77
     2
 78
   300
147
1.0
148
0.0
149
0.0
100
AcDbLayout
  1
Layout1
 70
     1
 71
     1
 10
0.0
 20
0.0
 11
12.0
 21
9.0
 12
0.0
 22
0.0
 32
0.0
 14
1.000000000000000E+20
 24
1.000000000000000E+20
 34
1.000000000000000E+20
 15
-1.000000000000000E+20
 25
-1.000000000000000E+20
 35
-1.000000000000000E+20
146
0.0
 13
0.0
 23
0.0
 33
0.0
 16
1.0
 26
0.0
 36
0.0
 17
0.0
 27
1.0
 37
0.0
 76
     0
330
1B
  0
LAYOUT
  5
26
102
{ACAD_REACTORS
330
1A
102
}
330
1A
100
AcDbPlotSettings
  1

  2
none_device
  4

  6

 40
0.0
 41
0.0
 42
0.0
 43
0.0
 44
0.0
 45
0.0
 46
0.0
 47
0.0
 48
0.0
 49
0.0
140
0.0
141
0.0
142
1.0
143
1.0
 70
   688
 72
     0
 73
     0
 74
     5
  7

 75
    16
 76
     0
 77
     2
 78
   300
147
1.0
148
0.0
149
0.0
100
AcDbLayout
  1
Layout2
 70
     1
 71
     2
 10
0.0
 20
0.0
 11
0.0
 21
0.0
 12
0.0
 22
0.0
 32
0.0
 14
0.0
 24
0.0
 34
0.0
 15
0.0
 25
0.0
 35
0.0
146
0.0
 13
0.0
 23
0.0
 33
0.0
 16
1.0
 26
0.0
 36
0.0
 17
0.0
 27
1.0
 37
0.0
 76
     0
330
23
  0
LAYOUT
  5
22
102
{ACAD_REACTORS
330
1A
102
}
330
1A
100
AcDbPlotSettings
  1

  2
none_device
  4

  6

 40
0.0
 41
0.0
 42
0.0
 43
0.0
 44
0.0
 45
0.0
 46
0.0
 47
0.0
 48
0.0
 49
0.0
140
0.0
141
0.0
142
1.0
143
1.0
 70
  1712
 72
     0
 73
     0
 74
     0
  7

 75
     0
 76
     0
 77
     2
 78
   300
147
1.0
148
0.0
149
0.0
100
AcDbLayout
  1
Model
 70
     1
 71
     0
 10
0.0
 20
0.0
 11
12.0
 21
9.0
 12
0.0
 22
0.0
 32
0.0
 14
1.000000000000000E+20
 24
1.000000000000000E+20
 34
1.000000000000000E+20
 15
-1.000000000000000E+20
 25
-1.000000000000000E+20
 35
-1.000000000000000E+20
146
0.0
 13
0.0
 23
0.0
 33
0.0
 16
1.0
 26
0.0
 36
0.0
 17
0.0
 27
1.0
 37
0.0
 76
     0
330
1F
331
29
  0
MLINESTYLE
  5
18
102
{ACAD_REACTORS
330
17
102
}
330
17
100
AcDbMlineStyle
  2
Standard
 70
     0
  3

 62
   256
 51
90.0
 52
90.0
 71
     2
 49
0.5
 62
   256
  6
BYLAYER
 49
-0.5
 62
   256
  6
BYLAYER
  0
ACDBPLACEHOLDER
  5
F
102
{ACAD_REACTORS
330
E
102
}
330
E
  0
VISUALSTYLE
  5
2F
102
{ACAD_REACTORS
330
2A
102
}
330
2A
100
AcDbVisualStyle
  2
2dWireframe
 70
     4
 71
     0
 72
     2
 73
     0
 90
        0
 40
-0.6
 41
-30.0
 62
     5
 63
     7
421
 16777215
 74
     1
 91
        4
 64
     7
 65
   257
 75
     1
175
     1
 42
1.0
 92
        0
 66
   257
 43
1.0
 76
     1
 77
     6
 78
     2
 67
     7
 79
     5
170
     0
171
     0
290
     0
174
     0
 93
        1
 44
0.0
173
     0
291
     0
 45
0.0
1001
ACAD
1000
AcDbSavedByObjectVersion
1070
     0
  0
VISUALSTYLE
  5
31
102
{ACAD_REACTORS
330
2A
102
}
330
2A
100
AcDbVisualStyle
  2
3D Hidden
 70
     6
 71
     1
 72
     2
 73
     2
 90
        0
 40
-0.6
 41
-30.0
 62
     5
 63
     7
421
 16777215
 74
     2
 91
        2
 64
     7
 65
   257
 75
     2
175
     1
 42
40.0
 92
        0
 66
   257
 43
1.0
 76
     1
 77
     6
 78
     2
 67
     7
 79
     3
170
     0
171
     0
290
     0
174
     0
 93
        1
 44
0.0
173
     0
291
     0
 45
0.0
1001
ACAD
1000
AcDbSavedByObjectVersion
1070
     0
  0
VISUALSTYLE
  5
30
102
{ACAD_REACTORS
330
2A
102
}
330
2A
100
AcDbVisualStyle
  2
3dWireframe
 70
     5
 71
     0
 72
     2
 73
     0
 90
        0
 40
-0.6
 41
-30.0
 62
     5
 63
     7
421
 16777215
 74
     1
 91
        4
 64
     7
 65
   257
 75
     1
175
     1
 42
1.0
 92
        0
 66
   257
 43
1.0
 76
     1
 77
     6
 78
     2
 67
     7
 79
     5
170
     0
171
     0
290
     0
174
     0
 93
        1
 44
0.0
173
     0
291
     0
 45
0.0
1001
ACAD
1000
AcDbSavedByObjectVersion
1070
     0
  0
VISUALSTYLE
  5
32
102
{ACAD_REACTORS
330
2A
102
}
330
2A
100
AcDbVisualStyle
  2
Basic
 70
     7
 71
     1
 72
     0
 73
     1
 90
        0
 40
-0.6
 41
-30.0
 62
     5
 63
     7
421
 16777215
 74
     0
 91
        4
 64
     7
 65
   257
 75
     1
175
     1
 42
1.0
 92
        8
 66
     7
 43
1.0
 76
     1
 77
     6
 78
     2
 67
     7
 79
     5
170
     0
171
     0
290
     0
174
     0
 93
        1
 44
0.0
173
     0
291
     1
 45
0.0
1001
ACAD
1000
AcDbSavedByObjectVersion
1070
     0
  0
VISUALSTYLE
  5
36
102
{ACAD_REACTORS
330
2A
102
}
330
2A
100
AcDbVisualStyle
  2
Brighten
 70
    12
 71
     2
 72
     2
 73
     0
 90
        0
 40
-0.6
 41
-30.0
 62
     5
 63
     7
421
 16777215
 74
     1
 91
        4
 64
     7
 65
   257
 75
     1
175
     1
 42
1.0
 92
        8
 66
     7
 43
1.0
 76
     1
 77
     6
 78
     2
 67
     7
 79
     5
170
     0
171
     0
290
     0
174
     0
 93
        1
 44
50.0
173
     0
291
     1
 45
0.0
1001
ACAD
1000
AcDbSavedByObjectVersion
1070
     0
  0
VISUALSTYLE
  5
3A
102
{ACAD_REACTORS
330
2A
102
}
330
2A
100
AcDbVisualStyle
  2
ColorChange
 70
    16
 71
     2
 72
     2
 73
     3
 90
        0
 40
-0.6
 41
-30.0
 62
     5
 63
     8
421
  8421504
 74
     1
 91
        4
 64
     7
 65
   257
 75
     1
175
     1
 42
1.0
 92
        8
 66
     8
424
  8421504
 43
1.0
 76
     1
 77
     6
 78
     2
 67
     7
 79
     5
170
     0
171
     0
290
     0
174
     0
 93
        1
 44
0.0
173
     0
291
     1
 45
0.0
1001
ACAD
1000
AcDbSavedByObjectVersion
1070
     0
  0
VISUALSTYLE
  5
34
102
{ACAD_REACTORS
330
2A
102
}
330
2A
100
AcDbVisualStyle
  2
Conceptual
 70
     9
 71
     3
 72
     2
 73
     0
 90
        0
 40
-0.6
 41
-30.0
 62
     5
 63
     7
421
 16777215
 74
     2
 91
        2
 64
     7
 65
   257
 75
     1
175
     1
 42
40.0
 92
        8
 66
     7
 43
1.0
 76
     1
 77
     6
 78
     2
 67
     7
 79
     3
170
     0
171
     0
290
     0
174
     0
 93
        1
 44
0.0
173
     0
291
     0
 45
0.0
1001
ACAD
1000
AcDbSavedByObjectVersion
1070
     0
  0
VISUALSTYLE
  5
35
102
{ACAD_REACTORS
330
2A
102
}
330
2A
100
AcDbVisualStyle
  2
Dim
 70
    11
 71
     2
 72
     2
 73
     0
 90
        0
 40
-0.6
 41
-30.0
 62
     5
 63
     7
421
 16777215
 74
     1
 91
        4
 64
     7
 65
   257
 75
     1
175
     1
 42
1.0
 92
        8
 66
     7
 43
1.0
 76
     1
 77
     6
 78
     2
 67
     7
 79
     5
170
     0
171
     0
290
     0
174
     0
 93
        1
 44
-50.0
173
     0
291
     1
 45
0.0
1001
ACAD
1000
AcDbSavedByObjectVersion
1070
     0
  0
VISUALSTYLE
  5
39
102
{ACAD_REACTORS
330
2A
102
}
330
2A
100
AcDbVisualStyle
  2
Facepattern
 70
    15
 71
     2
 72
     2
 73
     0
 90
        0
 40
-0.6
 41
-30.0
 62
     5
 63
     7
421
 16777215
 74
     1
 91
        4
 64
     7
 65
   257
 75
     1
175
     1
 42
1.0
 92
        8
 66
     7
 43
1.0
 76
     1
 77
     6
 78
     2
 67
     7
 79
     5
170
     0
171
     0
290
     0
174
     0
 93
        1
 44
0.0
173
     0
291
     1
 45
0.0
1001
ACAD
1000
AcDbSavedByObjectVersion
1070
     0
  0
VISUALSTYLE
  5
2B
102
{ACAD_REACTORS
330
2A
102
}
330
2A
100
AcDbVisualStyle
  2
Flat
 70
     0
 71
     2
 72
     1
 73
     1
 90
        2
 40
-0.6
 41
30.0
 62
     5
 63
     7
421
 16777215
 74
     0
 91
        4
 64
     7
 65
   257
 75
     1
175
     1
 42
1.0
 92
        8
 66
     7
 43
1.0
 76
     1
 77
     6
 78
     2
 67
     7
 79
     5
170
     0
171
     0
290
     0
174
     0
 93
       13
 44
0.0
173
     0
291
     1
 45
0.0
1001
ACAD
1000
AcDbSavedByObjectVersion
1070
     0
  0
VISUALSTYLE
  5
2C
102
{ACAD_REACTORS
330
2A
102
}
330
2A
100
AcDbVisualStyle
  2
FlatWithEdges
 70
     1
 71
     2
 72
     1
 73
     1
 90
        2
 40
-0.6
 41
30.0
 62
     5
 63
     7
421
 16777215
 74
     1
 91
        4
 64
     7
 65
   257
 75
     1
175
     1
 42
1.0
 92
        0
 66
   257
 43
1.0
 76
     1
 77
     6
 78
     2
 67
     7
 79
     5
170
     0
171
     0
290
     0
174
     0
 93
       13
 44
0.0
173
     0
291
     1
 45
0.0
1001
ACAD
1000
AcDbSavedByObjectVersion
1070
     0
  0
VISUALSTYLE
  5
2D
102
{ACAD_REACTORS
330
2A
102
}
330
2A
100
AcDbVisualStyle
  2
Gouraud
 70
     2
 71
     2
 72
     2
 73
     1
 90
        2
 40
-0.6
 41
30.0
 62
     5
 63
     7
421
 16777215
 74
     0
 91
        4
 64
     7
 65
   257
 75
     1
175
     1
 42
1.0
 92
        0
 66
     7
 43
1.0
 76
     1
 77
     6
 78
     2
 67
     7
 79
     5
170
     0
171
     0
290
     0
174
     0
 93
       13
 44
0.0
173
     0
291
     1
 45
0.0
1001
ACAD
1000
AcDbSavedByObjectVersion
1070
     0
  0
VISUALSTYLE
  5
2E
102
{ACAD_REACTORS
330
2A
102
}
330
2A
100
AcDbVisualStyle
  2
GouraudWithEdges
 70
     3
 71
     2
 72
     2
 73
     1
 90
        2
 40
-0.6
 41
30.0
 62
     5
 63
     7
421
 16777215
 74
     1
 91
        4
 64
     7
 65
   257
 75
     1
175
     1
 42
1.0
 92
        0
 66
   257
 43
1.0
 76
     1
 77
     6
 78
     2
 67
     7
 79
     5
170
     0
171
     0
290
     0
174
     0
 93
       13
 44
0.0
173
     0
291
     1
 45
0.0
1001
ACAD
1000
AcDbSavedByObjectVersion
1070
     0
  0
VISUALSTYLE
  5
38
102
{ACAD_REACTORS
330
2A
102
}
330
2A
100
AcDbVisualStyle
  2
Linepattern
 70
    14
 71
     2
 72
     2
 73
     0
 90
        0
 40
-0.6
 41
-30.0
 62
     5
 63
     7
421
 16777215
 74
     1
 91
        4
 64
     7
 65
   257
 75
     7
175
     7
 42
1.0
 92
        8
 66
     7
 43
1.0
 76
     1
 77
     6
 78
     2
 67
     7
 79
     5
170
     0
171
     0
290
     0
174
     0
 93
        1
 44
0.0
173
     0
291
     1
 45
0.0
1001
ACAD
1000
AcDbSavedByObjectVersion
1070
     0
  0
VISUALSTYLE
  5
33
102
{ACAD_REACTORS
330
2A
102
}
330
2A
100
AcDbVisualStyle
  2
Realistic
 70
     8
 71
     2
 72
     2
 73
     0
 90
        0
 40
-0.6
 41
-30.0
 62
     5
 63
     7
421
 16777215
 74
     1
 91
        0
 64
     7
 65
   257
 75
     1
175
     1
 42
1.0
 92
        8
 66
     8
424
  7895160
 43
1.0
 76
     1
 77
     6
 78
     2
 67
     7
 79
     5
170
     0
171
     0
290
     0
174
     0
 93
       13
 44
0.0
173
     0
291
     0
 45
0.0
1001
ACAD
1000
AcDbSavedByObjectVersion
1070
     0
  0
VISUALSTYLE
  5
37
102
{ACAD_REACTORS
330
2A
102
}
330
2A
100
AcDbVisualStyle
  2
Thicken
 70
    13
 71
     2
 72
     2
 73
     0
 90
        0
 40
-0.6
 41
-30.0
 62
     5
 63
     7
421
 16777215
 74
     1
 91
        4
 64
     7
 65
   257
 75
     1
175
     1
 42
1.0
 92
       12
 66
     7
 43
1.0
 76
     1
 77
     6
 78
     2
 67
     7
 79
     5
170
     0
171
     0
290
     0
174
     0
 93
        1
 44
0.0
173
     0
291
     1
 45
0.0
1001
ACAD
1000
AcDbSavedByObjectVersion
1070
     0
  0
ENDSEC
  0
EOF
