  0
SECTION
  2
HEADER
  9
$ACADVER
  1
AC1018
  9
$ACADMAINTVER
 70
     0
  9
$DWGCODEPAGE
  3
ANSI_1252
  9
$INSBASE
 10
0.0
 20
0.0
 30
0.0
  9
$EXTMIN
 10
-5.356485992394366
 20
-0.31259700103286
 30
-5.356485992394366
  9
$EXTMAX
 10
-4.306485992394366
 20
1.17238814896714
 30
-4.306485992394366
  9
$LIMMIN
 10
-5.356485992394366
 20
-0.31259700103286
  9
$LIMMAX
 10
-4.306485992394366
 20
1.17238814896714
  9
$ORTHOMODE
 70
     0
  9
$REGENMODE
 70
     1
  9
$FILLMODE
 70
     1
  9
$QTEXTMODE
 70
     0
  9
$MIRRTEXT
 70
     1
  9
$LTSCALE
 40
1.0
  9
$ATTMODE
 70
     1
  9
$TEXTSIZE
 40
0.2
  9
$TRACEWID
 40
0.05
  9
$TEXTSTYLE
  7
Standard
  9
$CLAYER
  8
0
  9
$CELTYPE
  6
ByLayer
  9
$CECOLOR
 62
   256
  9
$CELTSCALE
 40
1.0
  9
$DISPSILH
 70
     0
  9
$DIMSCALE
 40
1.0
  9
$DIMASZ
 40
0.18
  9
$DIMEXO
 40
0.0625
  9
$DIMDLI
 40
0.38
  9
$DIMRND
 40
0.0
  9
$DIMDLE
 40
0.0
  9
$DIMEXE
 40
0.18
  9
$DIMTP
 40
0.0
  9
$DIMTM
 40
0.0
  9
$DIMTXT
 40
0.18
  9
$DIMCEN
 40
0.09
  9
$DIMTSZ
 40
0.0
  9
$DIMTOL
 70
     0
  9
$DIMLIM
 70
     0
  9
$DIMTIH
 70
     1
  9
$DIMTOH
 70
     1
  9
$DIMSE1
 70
     0
  9
$DIMSE2
 70
     0
  9
$DIMTAD
 70
     0
  9
$DIMZIN
 70
     0
  9
$DIMBLK
  1

  9
$DIMASO
 70
     1
  9
$DIMSHO
 70
     1
  9
$DIMPOST
  1

  9
$DIMAPOST
  1

  9
$DIMALT
 70
     0
  9
$DIMALTD
 70
     2
  9
$DIMALTF
 40
25.4
  9
$DIMLFAC
 40
1.0
  9
$DIMTOFL
 70
     0
  9
$DIMTVP
 40
0.0
  9
$DIMTIX
 70
     0
  9
$DIMSOXD
 70
     0
  9
$DIMSAH
 70
     0
  9
$DIMBLK1
  1

  9
$DIMBLK2
  1

  9
$DIMSTYLE
  2
Standard
  9
$DIMCLRD
 70
     0
  9
$DIMCLRE
 70
     0
  9
$DIMCLRT
 70
     0
  9
$DIMTFAC
 40
1.0
  9
$DIMGAP
 40
0.09
  9
$DIMJUST
 70
     0
  9
$DIMSD1
 70
     0
  9
$DIMSD2
 70
     0
  9
$DIMTOLJ
 70
     1
  9
$DIMTZIN
 70
     0
  9
$DIMALTZ
 70
     0
  9
$DIMALTTZ
 70
     0
  9
$DIMUPT
 70
     0
  9
$DIMDEC
 70
     4
  9
$DIMTDEC
 70
     4
  9
$DIMALTU
 70
     2
  9
$DIMALTTD
 70
     2
  9
$DIMTXSTY
  7
Standard
  9
$DIMAUNIT
 70
     0
  9
$DIMADEC
 70
     0
  9
$DIMALTRND
 40
0.0
  9
$DIMAZIN
 70
     0
  9
$DIMDSEP
 70
    46
  9
$DIMATFIT
 70
     3
  9
$DIMFRAC
 70
     0
  9
$DIMLDRBLK
  1

  9
$DIMLUNIT
 70
     2
  9
$DIMLWD
 70
    -2
  9
$DIMLWE
 70
    -2
  9
$DIMTMOVE
 70
     0
  9
$LUNITS
 70
     2
  9
$LUPREC
 70
     4
  9
$SKETCHINC
 40
0.1
  9
$FILLETRAD
 40
0.5
  9
$AUNITS
 70
     0
  9
$AUPREC
 70
     0
  9
$MENU
  1
.
  9
$ELEVATION
 40
0.0
  9
$PELEVATION
 40
0.0
  9
$THICKNESS
 40
0.0
  9
$LIMCHECK
 70
     0
  9
$CHAMFERA
 40
0.5
  9
$CHAMFERB
 40
0.5
  9
$CHAMFERC
 40
1.0
  9
$CHAMFERD
 40
0.0
  9
$SKPOLY
 70
     0
  9
$TDCREATE
 40
2456756.396669896
  9
$TDUCREATE
 40
2456756.313336562
  9
$TDUPDATE
 40
2456756.396669907
  9
$TDUUPDATE
 40
2456756.313336574
  9
$TDINDWG
 40
0.0000000116
  9
$TDUSRTIMER
 40
0.0000000116
  9
$USRTIMER
 70
     1
  9
$ANGBASE
 50
0.0
  9
$ANGDIR
 70
     0
  9
$PDMODE
 70
    65
  9
$PDSIZE
 40
0.0
  9
$PLINEWID
 40
0.0
  9
$SPLFRAME
 70
     0
  9
$SPLINETYPE
 70
     6
  9
$SPLINESEGS
 70
     8
  9
$HANDSEED
  5
10B
  9
$SURFTAB1
 70
     6
  9
$SURFTAB2
 70
     6
  9
$SURFTYPE
 70
     6
  9
$SURFU
 70
     6
  9
$SURFV
 70
     6
  9
$UCSBASE
  2

  9
$UCSNAME
  2

  9
$UCSORG
 10
0.0
 20
0.0
 30
0.0
  9
$UCSXDIR
 10
1.0
 20
0.0
 30
0.0
  9
$UCSYDIR
 10
0.0
 20
1.0
 30
0.0
  9
$UCSORTHOREF
  2

  9
$UCSORTHOVIEW
 70
     0
  9
$UCSORGTOP
 10
0.0
 20
0.0
 30
0.0
  9
$UCSORGBOTTOM
 10
0.0
 20
0.0
 30
0.0
  9
$UCSORGLEFT
 10
0.0
 20
0.0
 30
0.0
  9
$UCSORGRIGHT
 10
0.0
 20
0.0
 30
0.0
  9
$UCSORGFRONT
 10
0.0
 20
0.0
 30
0.0
  9
$UCSORGBACK
 10
0.0
 20
0.0
 30
0.0
  9
$PUCSBASE
  2

  9
$PUCSNAME
  2

  9
$PUCSORG
 10
0.0
 20
0.0
 30
0.0
  9
$PUCSXDIR
 10
1.0
 20
0.0
 30
0.0
  9
$PUCSYDIR
 10
0.0
 20
1.0
 30
0.0
  9
$PUCSORTHOREF
  2

  9
$PUCSORTHOVIEW
 70
     0
  9
$PUCSORGTOP
 10
0.0
 20
0.0
 30
0.0
  9
$PUCSORGBOTTOM
 10
0.0
 20
0.0
 30
0.0
  9
$PUCSORGLEFT
 10
0.0
 20
0.0
 30
0.0
  9
$PUCSORGRIGHT
 10
0.0
 20
0.0
 30
0.0
  9
$PUCSORGFRONT
 10
0.0
 20
0.0
 30
0.0
  9
$PUCSORGBACK
 10
0.0
 20
0.0
 30
0.0
  9
$USERI1
 70
     0
  9
$USERI2
 70
     0
  9
$USERI3
 70
     0
  9
$USERI4
 70
     0
  9
$USERI5
 70
     0
  9
$USERR1
 40
0.0
  9
$USERR2
 40
0.0
  9
$USERR3
 40
0.0
  9
$USERR4
 40
0.0
  9
$USERR5
 40
0.0
  9
$WORLDVIEW
 70
     1
  9
$SHADEDGE
 70
     3
  9
$SHADEDIF
 70
    70
  9
$TILEMODE
 70
     1
  9
$MAXACTVP
 70
    64
  9
$PINSBASE
 10
0.0
 20
0.0
 30
0.0
  9
$PLIMCHECK
 70
     0
  9
$PEXTMIN
 10
1.000000000000000E+20
 20
1.000000000000000E+20
 30
1.000000000000000E+20
  9
$PEXTMAX
 10
-1.000000000000000E+20
 20
-1.000000000000000E+20
 30
-1.000000000000000E+20
  9
$PLIMMIN
 10
0.0
 20
0.0
  9
$PLIMMAX
 10
12.0
 20
9.0
  9
$UNITMODE
 70
     0
  9
$VISRETAIN
 70
     1
  9
$PLINEGEN
 70
     0
  9
$PSLTSCALE
 70
     1
  9
$TREEDEPTH
 70
  3020
  9
$CMLSTYLE
  2
Standard
  9
$CMLJUST
 70
     0
  9
$CMLSCALE
 40
1.0
  9
$PROXYGRAPHICS
 70
     1
  9
$MEASUREMENT
 70
     1
  9
$CELWEIGHT
370
    -1
  9
$ENDCAPS
280
     0
  9
$JOINSTYLE
280
     0
  9
$LWDISPLAY
290
     0
  9
$INSUNITS
 70
     6
  9
$HYPERLINKBASE
  1

  9
$STYLESHEET
  1

  9
$XEDIT
290
     1
  9
$CEPSNTYPE
380
     0
  9
$PSTYLEMODE
290
     1
  9
$FINGERPRINTGUID
  2
{BB026B9B-561B-4A0F-8CFA-BEA18A78C465}
  9
$VERSIONGUID
  2
{FAEB1C32-E019-11D5-929B-00C0DF256EC4}
  9
$EXTNAMES
290
     1
  9
$PSVPSCALE
 40
0.0
  9
$OLESTARTUP
290
     0
  9
$SORTENTS
280
   127
  9
$INDEXCTL
280
     0
  9
$HIDETEXT
280
     1
  9
$XCLIPFRAME
290
     0
  9
$HALOGAP
280
     0
  9
$OBSCOLOR
 70
   257
  9
$OBSLTYPE
280
     0
  9
$INTERSECTIONDISPLAY
280
     0
  9
$INTERSECTIONCOLOR
 70
   257
  9
$DIMASSOC
280
     2
  9
$PROJECTNAME
  1

  0
ENDSEC
  0
SECTION
  2
CLASSES
  0
CLASS
  1
ACDBDICTIONARYWDFLT
  2
AcDbDictionaryWithDefault
  3
ObjectDBX Classes
 90
        0
 91
       12
280
     0
281
     0
  0
CLASS
  1
SORTENTSTABLE
  2
AcDbSortentsTable
  3
ObjectDBX Classes
 90
        0
 91
       11
280
     0
281
     0
  0
ENDSEC
  0
SECTION
  2
TABLES
  0
TABLE
  2
VPORT
  5
8
330
0
100
AcDbSymbolTable
 70
     1
  0
VPORT
  5
29
330
8
100
AcDbSymbolTableRecord
100
AcDbViewportTableRecord
  2
*Active
 70
     0
 10
0.0
 20
0.0
 11
1.0
 21
1.0
 12
-4.831485992394366
 22
0.4298955739671401
 13
0.0
 23
0.0
 14
0.5
 24
0.5
 15
0.5
 25
0.5
 16
0.0
 26
0.0
 36
1.0
 17
0.0
 27
0.0
 37
0.0
 40
1.78198218
 41
0.8484933334181824
 42
50.0
 43
0.0
 44
0.0
 50
0.0
 51
0.0
 71
     0
 72
   100
 73
     1
 74
     3
 75
     0
 76
     0
 77
     0
 78
     0
281
     0
 65
     1
110
0.0
120
0.0
130
0.0
111
1.0
121
0.0
131
0.0
112
0.0
122
1.0
132
0.0
 79
     0
146
0.0
  0
ENDTAB
  0
TABLE
  2
LTYPE
  5
5
330
0
100
AcDbSymbolTable
 70
     4
  0
LTYPE
  5
14
330
5
100
AcDbSymbolTableRecord
100
AcDbLinetypeTableRecord
  2
ByBlock
 70
     0
  3

 72
    65
 73
     0
 40
0.0
  0
LTYPE
  5
15
330
5
100
AcDbSymbolTableRecord
100
AcDbLinetypeTableRecord
  2
ByLayer
 70
     0
  3

 72
    65
 73
     0
 40
0.0
  0
LTYPE
  5
16
330
5
100
AcDbSymbolTableRecord
100
AcDbLinetypeTableRecord
  2
Continuous
 70
     0
  3
Solid line
 72
    65
 73
     0
 40
0.0
  0
LTYPE
  5
2A
330
5
100
AcDbSymbolTableRecord
100
AcDbLinetypeTableRecord
  2
AUSGEZOGEN
 70
     0
  3
durchgezogene Linie
 72
    65
 73
     0
 40
0.0
  0
LTYPE
  5
2B
330
5
100
AcDbSymbolTableRecord
100
AcDbLinetypeTableRecord
  2
STRICHPUNKT
 70
     0
  3
Strichpunktiert ___ . ___ . ___ . ___ . ___ . _
 72
    65
 73
     4
 40
25.4
 49
12.7
 74
     0
 49
-6.35
 74
     0
 49
0.0
 74
     0
 49
-6.35
 74
     0
  0
LTYPE
  5
2C
330
5
100
AcDbSymbolTableRecord
100
AcDbLinetypeTableRecord
  2
VERDECKT
 70
     0
  3
Kurzgestrichelt __ __ __ __ __ __ __ __ __ __ _
 72
    65
 73
     2
 40
9.524999999999999
 49
6.35
 74
     0
 49
-3.175
 74
     0
  0
ENDTAB
  0
TABLE
  2
LAYER
  5
2
330
0
100
AcDbSymbolTable
 70
     2
  0
LAYER
  5
10
330
2
100
AcDbSymbolTableRecord
100
AcDbLayerTableRecord
  2
0
 70
     0
 62
     7
  6
Continuous
370
    -3
390
F
  0
LAYER
  5
2E
330
2
100
AcDbSymbolTableRecord
100
AcDbLayerTableRecord
  2
STANDARD
 70
     0
 62
     7
  6
AUSGEZOGEN
370
    18
390
F
1001
AcAecLayerStandard
1000

1000
STANDARD
  0
ENDTAB
  0
TABLE
  2
STYLE
  5
3
330
0
100
AcDbSymbolTable
 70
     2
  0
STYLE
  5
11
330
3
100
AcDbSymbolTableRecord
100
AcDbTextStyleTableRecord
  2
Standard
 70
     0
 40
0.0
 41
1.0
 50
0.0
 71
     0
 42
0.2
  3
txt
  4

  0
STYLE
  5
2D
330
3
100
AcDbSymbolTableRecord
100
AcDbTextStyleTableRecord
  2
ARIAL
 70
     0
 40
0.0
 41
1.0
 50
0.0
 71
     0
 42
0.0
  3
ARIAL.TTF
  4

1001
ACAD
1000
Arial
1071
       34
  0
ENDTAB
  0
TABLE
  2
VIEW
  5
6
330
0
100
AcDbSymbolTable
 70
     0
  0
ENDTAB
  0
TABLE
  2
UCS
  5
7
330
0
100
AcDbSymbolTable
 70
     0
  0
ENDTAB
  0
TABLE
  2
APPID
  5
9
330
0
100
AcDbSymbolTable
 70
     3
  0
APPID
  5
12
330
9
100
AcDbSymbolTableRecord
100
AcDbRegAppTableRecord
  2
ACAD
 70
     0
  0
APPID
  5
2F
330
9
100
AcDbSymbolTableRecord
100
AcDbRegAppTableRecord
  2
AcAecLayerStandard
 70
     0
  0
APPID
  5
5C
330
9
100
AcDbSymbolTableRecord
100
AcDbRegAppTableRecord
  2
NEM_ODX
 70
     0
  0
ENDTAB
  0
TABLE
  2
DIMSTYLE
  5
A
330
0
100
AcDbSymbolTable
 70
     1
100
AcDbDimStyleTable
  0
DIMSTYLE
105
27
330
A
100
AcDbSymbolTableRecord
100
AcDbDimStyleTableRecord
  2
Standard
 70
     0
340
11
  0
ENDTAB
  0
TABLE
  2
BLOCK_RECORD
  5
1
330
0
100
AcDbSymbolTable
 70
     1
  0
BLOCK_RECORD
  5
1F
102
{ACAD_XDICTIONARY
360
109
102
}
330
1
100
AcDbSymbolTableRecord
100
AcDbBlockTableRecord
  2
*Model_Space
340
22
  0
BLOCK_RECORD
  5
1B
330
1
100
AcDbSymbolTableRecord
100
AcDbBlockTableRecord
  2
*Paper_Space
340
1E
  0
BLOCK_RECORD
  5
23
330
1
100
AcDbSymbolTableRecord
100
AcDbBlockTableRecord
  2
*Paper_Space0
340
26
  0
ENDTAB
  0
ENDSEC
  0
SECTION
  2
BLOCKS
  0
BLOCK
  5
20
330
1F
100
AcDbEntity
  8
0
100
AcDbBlockBegin
  2
*Model_Space
 70
     0
 71
     0
 10
0.0
 20
0.0
 30
0.0
  3
*Model_Space
  1

  0
ENDBLK
  5
21
330
1F
100
AcDbEntity
  8
0
100
AcDbBlockEnd
  0
BLOCK
  5
1C
330
1B
100
AcDbEntity
 67
     1
  8
0
100
AcDbBlockBegin
  2
*Paper_Space
 70
     0
 71
     0
 10
0.0
 20
0.0
 30
0.0
  3
*Paper_Space
  1

  0
ENDBLK
  5
1D
330
1B
100
AcDbEntity
 67
     1
  8
0
100
AcDbBlockEnd
  0
BLOCK
  5
24
330
23
100
AcDbEntity
  8
0
100
AcDbBlockBegin
  2
*Paper_Space0
 70
     0
 71
     0
 10
0.0
 20
0.0
 30
0.0
  3
*Paper_Space0
  1

  0
ENDBLK
  5
25
330
23
100
AcDbEntity
  8
0
100
AcDbBlockEnd
  0
ENDSEC
  0
SECTION
  2
ENTITIES
  0
LINE
  5
30
330
1F
100
AcDbEntity
  8
STANDARD
  6
AUSGEZOGEN
 62
   240
370
    70
100
AcDbLine
 10
-5.356475492394366
 20
-0.31259700103286
 30
0.0
 11
-5.356475492394366
 21
1.17238814896714
 31
0.0
  0
MTEXT
  5
31
330
1F
100
AcDbEntity
  8
STANDARD
  6
AUSGEZOGEN
 62
     7
370
    18
100
AcDbMText
 10
-5.238319954658516
 20
1.09375041336267
 30
0.0
 40
0.025
 41
0.2925190020566942
 71
     7
 72
     5
  1
\W1.00;FENSTERSTURZ
  7
ARIAL
 73
     1
 44
1.0
  0
MTEXT
  5
32
330
1F
100
AcDbEntity
  8
STANDARD
  6
AUSGEZOGEN
 62
     7
370
    18
100
AcDbMText
 10
-5.238319954658516
 20
1.05873930225156
 30
0.0
 40
0.0175
 41
0.205921069768819
 71
     7
 72
     5
  1
\W1.00;WINDOW\~LINTEL
  7
ARIAL
 73
     1
 44
1.0
  0
MTEXT
  5
33
330
1F
100
AcDbEntity
  8
STANDARD
  6
AUSGEZOGEN
 62
     7
370
    18
100
AcDbMText
 10
-5.238319954658516
 20
1.03248930225156
 30
0.0
 40
0.0175
 41
0.3109327434484095
 71
     7
 72
     5
  1
\W1.00;LINTEAU\~DE\~LA\~FENETRE
  7
ARIAL
 73
     1
 44
1.0
  0
LINE
  5
34
330
1F
100
AcDbEntity
  8
STANDARD
  6
AUSGEZOGEN
 62
    22
370
    50
100
AcDbLine
 10
-4.651521013114103
 20
0.49559373012358
 30
0.0
 11
-4.501521013114102
 21
0.49559373012358
 31
0.0
  0
LINE
  5
35
330
1F
100
AcDbEntity
  8
STANDARD
  6
AUSGEZOGEN
 62
    22
370
    50
100
AcDbLine
 10
-4.651521013114103
 20
0.67559373012358
 30
0.0
 11
-4.501521013114102
 21
0.67559373012358
 31
0.0
  0
LINE
  5
36
330
1F
100
AcDbEntity
  8
STANDARD
  6
AUSGEZOGEN
 62
     7
370
    18
100
AcDbLine
 10
-4.847521013114103
 20
0.2520959974184001
 30
0.0
 11
-4.877521013114103
 21
0.2520959974184001
 31
0.0
  0
LINE
  5
37
330
1F
100
AcDbEntity
  8
STANDARD
  6
AUSGEZOGEN
 62
     7
370
    18
100
AcDbLine
 10
-4.877521013114103
 20
0.2520959974184001
 30
0.0
 11
-4.877521013114103
 21
0.2550959974184001
 31
0.0
  0
LINE
  5
38
330
1F
100
AcDbEntity
  8
STANDARD
  6
AUSGEZOGEN
 62
     7
370
    18
100
AcDbLine
 10
-4.874521013114103
 20
0.2570959974184001
 30
0.0
 11
-4.877521013114103
 21
0.2550959974184001
 31
0.0
  0
LINE
  5
39
330
1F
100
AcDbEntity
  8
STANDARD
  6
AUSGEZOGEN
 62
     7
370
    18
100
AcDbLine
 10
-4.874521013114103
 20
0.2550959974184001
 30
0.0
 11
-4.874521013114103
 21
0.2570959974184001
 31
0.0
  0
LINE
  5
3A
330
1F
100
AcDbEntity
  8
STANDARD
  6
AUSGEZOGEN
 62
     7
370
    18
100
AcDbLine
 10
-4.850521013114103
 20
0.2550959974184001
 30
0.0
 11
-4.874521013114103
 21
0.2550959974184001
 31
0.0
  0
LINE
  5
3B
330
1F
100
AcDbEntity
  8
STANDARD
  6
AUSGEZOGEN
 62
     7
370
    18
100
AcDbLine
 10
-4.850521013114103
 20
0.2650959974184001
 30
0.0
 11
-4.877521013114103
 21
0.2650959974184001
 31
0.0
  0
LINE
  5
3C
330
1F
100
AcDbEntity
  8
STANDARD
  6
AUSGEZOGEN
 62
     7
370
    18
100
AcDbLine
 10
-4.877521013114103
 20
0.2620959974184001
 30
0.0
 11
-4.877521013114103
 21
0.2650959974184001
 31
0.0
  0
LINE
  5
3D
330
1F
100
AcDbEntity
  8
STANDARD
  6
AUSGEZOGEN
 62
     7
370
    18
100
AcDbLine
 10
-4.874521013114103
 20
0.2600959974184001
 30
0.0
 11
-4.877521013114103
 21
0.2620959974184001
 31
0.0
  0
LINE
  5
3E
330
1F
100
AcDbEntity
  8
STANDARD
  6
AUSGEZOGEN
 62
     7
370
    18
100
AcDbLine
 10
-4.874521013114103
 20
0.2620959974184001
 30
0.0
 11
-4.874521013114103
 21
0.2600959974184001
 31
0.0
  0
LINE
  5
3F
330
1F
100
AcDbEntity
  8
STANDARD
  6
AUSGEZOGEN
 62
     7
370
    18
100
AcDbLine
 10
-4.850521013114103
 20
0.2620959974184001
 30
0.0
 11
-4.874521013114103
 21
0.2620959974184001
 31
0.0
  0
LINE
  5
40
330
1F
100
AcDbEntity
  8
STANDARD
  6
AUSGEZOGEN
 62
     7
370
    18
100
AcDbLine
 10
-4.850521013114103
 20
0.2550959974184001
 30
0.0
 11
-4.850521013114103
 21
0.2620959974184001
 31
0.0
  0
LINE
  5
41
330
1F
100
AcDbEntity
  8
STANDARD
  6
STRICHPUNKT
 62
     7
370
    18
100
AcDbLine
 10
-4.501521013114102
 20
0.47559373012358
 30
0.0
 11
-4.501521013114102
 21
0.6955937301235801
 31
0.0
  0
LINE
  5
42
330
1F
100
AcDbEntity
  8
STANDARD
  6
AUSGEZOGEN
 62
    22
370
    50
100
AcDbLine
 10
-4.651521013114103
 20
0.3000959974184
 30
0.0
 11
-4.651521013114103
 21
0.49559373012358
 31
0.0
  0
LINE
  5
43
330
1F
100
AcDbEntity
  8
STANDARD
  6
AUSGEZOGEN
 62
     7
370
    18
100
AcDbLine
 10
-4.651521013114103
 20
0.03809599741839
 30
0.0
 11
-4.651521013114103
 21
0.3000959974184
 31
0.0
  0
LINE
  5
44
330
1F
100
AcDbEntity
  8
STANDARD
  6
AUSGEZOGEN
 62
    22
370
    50
100
AcDbLine
 10
-4.651521013114103
 20
0.3000959974184
 30
0.0
 11
-4.951521013114103
 21
0.3000959974184
 31
0.0
  0
LINE
  5
45
330
1F
100
AcDbEntity
  8
STANDARD
  6
AUSGEZOGEN
 62
   100
370
    25
100
AcDbLine
 10
-4.787521013114103
 20
0.2150959974184
 30
0.0
 11
-4.847521013114103
 21
0.2150959974184
 31
0.0
  0
LINE
  5
46
330
1F
100
AcDbEntity
  8
STANDARD
  6
AUSGEZOGEN
 62
   100
370
    25
100
AcDbLine
 10
-4.787521013114103
 20
0.2400959974184
 30
0.0
 11
-4.772521013114103
 21
0.2400959974184
 31
0.0
  0
LINE
  5
47
330
1F
100
AcDbEntity
  8
STANDARD
  6
AUSGEZOGEN
 62
   100
370
    25
100
AcDbLine
 10
-4.772521013114103
 20
0.1600959974184
 30
0.0
 11
-4.832521013114103
 21
0.1600959974184
 31
0.0
  0
LINE
  5
48
330
1F
100
AcDbEntity
  8
STANDARD
  6
AUSGEZOGEN
 62
   100
370
    25
100
AcDbLine
 10
-4.832521013114103
 20
0.2150959974184
 30
0.0
 11
-4.832521013114103
 21
0.1600959974184
 31
0.0
  0
LINE
  5
49
330
1F
100
AcDbEntity
  8
STANDARD
  6
AUSGEZOGEN
 62
   100
370
    25
100
AcDbLine
 10
-4.772521013114103
 20
0.2400959974184
 30
0.0
 11
-4.772521013114103
 21
0.1600959974184
 31
0.0
  0
LINE
  5
4A
330
1F
100
AcDbEntity
  8
STANDARD
  6
AUSGEZOGEN
 62
     7
370
    18
100
AcDbLine
 10
-4.772521013114103
 20
0.03809599741839
 30
0.0
 11
-4.772521013114103
 21
0.1600959974184
 31
0.0
  0
LINE
  5
4B
330
1F
100
AcDbEntity
  8
STANDARD
  6
AUSGEZOGEN
 62
     7
370
    18
100
AcDbLine
 10
-4.832521013114103
 20
0.03809599741839
 30
0.0
 11
-4.832521013114103
 21
0.1600959974184
 31
0.0
  0
LINE
  5
4C
330
1F
100
AcDbEntity
  8
STANDARD
  6
AUSGEZOGEN
 62
     7
370
    18
100
AcDbLine
 10
-4.847521013114103
 20
0.03809599741839
 30
0.0
 11
-4.847521013114103
 21
0.2150959974184
 31
0.0
  0
LINE
  5
4D
330
1F
100
AcDbEntity
  8
STANDARD
  6
AUSGEZOGEN
 62
   100
370
    25
100
AcDbLine
 10
-4.787521013114103
 20
0.2150959974184
 30
0.0
 11
-4.787521013114103
 21
0.3000959974184
 31
0.0
  0
LINE
  5
4E
330
1F
100
AcDbEntity
  8
STANDARD
  6
AUSGEZOGEN
 62
   100
370
    25
100
AcDbLine
 10
-4.847521013114103
 20
0.2150959974184
 30
0.0
 11
-4.847521013114103
 21
0.3000959974184
 31
0.0
  0
LINE
  5
4F
330
1F
100
AcDbEntity
  8
STANDARD
  6
AUSGEZOGEN
 62
     7
370
    18
100
AcDbLine
 10
-4.847521013114103
 20
0.2880959974184
 30
0.0
 11
-4.850521013114103
 21
0.2880959974184
 31
0.0
  0
LINE
  5
50
330
1F
100
AcDbEntity
  8
STANDARD
  6
AUSGEZOGEN
 62
     7
370
    18
100
AcDbLine
 10
-4.850521013114103
 20
0.2650959974184001
 30
0.0
 11
-4.850521013114103
 21
0.2880959974184
 31
0.0
  0
HATCH
  5
51
330
1F
100
AcDbEntity
  8
STANDARD
  6
AUSGEZOGEN
 62
     0
370
    18
100
AcDbHatch
 10
0.0
 20
0.0
 30
0.0
210
0.0
220
0.0
230
1.0
  2
SOLID
 70
     1
 71
     0
 91
        1
 92
        3
 72
     0
 73
     1
 93
       14
 10
-4.847521013114103
 20
0.2520959974184001
 10
-4.847521013114103
 20
0.2880959974184
 10
-4.850521013114103
 20
0.2880959974184
 10
-4.850521013114103
 20
0.2650959974184001
 10
-4.877521013114103
 20
0.2650959974184001
 10
-4.877521013114103
 20
0.2620959974184001
 10
-4.874521013114103
 20
0.2600959974184001
 10
-4.874521013114103
 20
0.2620959974184001
 10
-4.850521013114103
 20
0.2620959974184001
 10
-4.850521013114103
 20
0.2550959974184001
 10
-4.874521013114103
 20
0.2550959974184001
 10
-4.874521013114103
 20
0.2570959974184001
 10
-4.877521013114103
 20
0.2550959974184001
 10
-4.877521013114103
 20
0.2520959974184001
 97
        0
 75
     0
 76
     1
 98
        0
  0
LINE
  5
52
330
1F
100
AcDbEntity
  8
STANDARD
  6
AUSGEZOGEN
 62
     7
370
    18
100
AcDbLine
 10
-4.842521013114103
 20
0.2770959974184
 30
0.0
 11
-4.855521013114103
 21
0.2770959974184
 31
0.0
  0
LINE
  5
53
330
1F
100
AcDbEntity
  8
STANDARD
  6
AUSGEZOGEN
 62
   100
370
    25
100
AcDbLine
 10
-4.787521013114103
 20
0.2900959974184
 30
0.0
 11
-4.847521013114103
 21
0.2900959974184
 31
0.0
  0
LINE
  5
54
330
1F
100
AcDbEntity
  8
STANDARD
  6
AUSGEZOGEN
 62
     7
370
    18
100
AcDbLine
 10
-4.854521013114103
 20
0.2570959974184001
 30
0.0
 11
-4.854521013114103
 21
0.2600959974184001
 31
0.0
  0
HATCH
  5
55
330
1F
100
AcDbEntity
  8
STANDARD
  6
AUSGEZOGEN
 62
     0
370
    18
100
AcDbHatch
 10
0.0
 20
0.0
 30
0.0
210
0.0
220
0.0
230
1.0
  2
SOLID
 70
     1
 71
     0
 91
        1
 92
        3
 72
     0
 73
     1
 93
        4
 10
-5.069171013114102
 20
0.2600959974184001
 10
-5.069171013114102
 20
0.2570959974184001
 10
-5.064171013114102
 20
0.2570959974184001
 10
-5.064171013114102
 20
0.2600959974184001
 97
        0
 75
     0
 76
     1
 98
        0
  0
HATCH
  5
56
330
1F
100
AcDbEntity
  8
STANDARD
  6
AUSGEZOGEN
 62
     0
370
    18
100
AcDbHatch
 10
0.0
 20
0.0
 30
0.0
210
0.0
220
0.0
230
1.0
  2
SOLID
 70
     1
 71
     0
 91
        1
 92
        3
 72
     0
 73
     1
 93
        4
 10
-5.059171013114102
 20
0.2600959974184001
 10
-5.059171013114102
 20
0.2570959974184001
 10
-5.054171013114102
 20
0.2570959974184001
 10
-5.054171013114102
 20
0.2600959974184001
 97
        0
 75
     0
 76
     1
 98
        0
  0
HATCH
  5
57
330
1F
100
AcDbEntity
  8
STANDARD
  6
AUSGEZOGEN
 62
     0
370
    18
100
AcDbHatch
 10
0.0
 20
0.0
 30
0.0
210
0.0
220
0.0
230
1.0
  2
SOLID
 70
     1
 71
     0
 91
        1
 92
        3
 72
     0
 73
     1
 93
        4
 10
-5.049171013114102
 20
0.2600959974184001
 10
-5.049171013114102
 20
0.2570959974184001
 10
-5.044171013114102
 20
0.2570959974184001
 10
-5.044171013114102
 20
0.2600959974184001
 97
        0
 75
     0
 76
     1
 98
        0
  0
HATCH
  5
58
330
1F
100
AcDbEntity
  8
STANDARD
  6
AUSGEZOGEN
 62
     0
370
    18
100
AcDbHatch
 10
0.0
 20
0.0
 30
0.0
210
0.0
220
0.0
230
1.0
  2
SOLID
 70
     1
 71
     0
 91
        1
 92
        3
 72
     0
 73
     1
 93
        4
 10
-5.039171013114101
 20
0.2600959974184001
 10
-5.039171013114101
 20
0.2570959974184001
 10
-5.034171013114102
 20
0.2570959974184001
 10
-5.034171013114102
 20
0.2600959974184001
 97
        0
 75
     0
 76
     1
 98
        0
  0
LINE
  5
59
330
1F
100
AcDbEntity
  8
STANDARD
  6
AUSGEZOGEN
 62
    52
370
    18
100
AcDbLine
 10
-4.798521013114103
 20
0.1600959974184
 30
0.0
 11
-4.798521013114103
 21
0.03809599741839
 31
0.0
  0
LINE
  5
5A
330
1F
100
AcDbEntity
  8
STANDARD
  6
AUSGEZOGEN
 62
    52
370
    18
100
AcDbLine
 10
-4.806521013114103
 20
0.1600959974184
 30
0.0
 11
-4.806521013114103
 21
0.03809599741839
 31
0.0
  0
LINE
  5
5B
330
1F
100
AcDbEntity
  8
STANDARD
  6
AUSGEZOGEN
 62
    22
370
    50
100
AcDbLine
 10
-4.651521013114103
 20
0.67559373012358
 30
0.0
 11
-4.651521013114103
 21
0.86511071014343
 31
0.0
  0
HATCH
  5
5D
330
1F
100
AcDbEntity
  8
STANDARD
  6
AUSGEZOGEN
 62
     7
370
    18
100
AcDbHatch
 10
0.0
 20
0.0
 30
0.0
210
0.0
220
0.0
230
1.0
  2
SCHRAFFUR_3
 70
     0
 71
     0
 91
        1
 92
        0
 93
        8
 72
     1
 10
-4.651521013114103
 20
0.3000959974184
 11
-4.651521013114103
 21
0.49559373012358
 72
     1
 10
-4.651521013114103
 20
0.49559373012358
 11
-4.501521013114102
 21
0.49559373012358
 72
     1
 10
-4.501521013114102
 20
0.49559373012358
 11
-4.501521013114102
 21
0.67559373012358
 72
     1
 10
-4.501521013114102
 20
0.67559373012358
 11
-4.651521013114103
 21
0.67559373012358
 72
     1
 10
-4.651521013114103
 20
0.67559373012358
 11
-4.651521013114103
 21
0.86511071014343
 72
     1
 10
-4.651521013114103
 20
0.86511071014343
 11
-4.951521013114103
 21
0.86511071014343
 72
     1
 10
-4.951521013114103
 20
0.86511071014343
 11
-4.951521013114103
 21
0.3000959974184
 72
     1
 10
-4.951521013114103
 20
0.3000959974184
 11
-4.651521013114103
 21
0.3000959974184
 97
        0
 75
     0
 76
     2
 52
-45.00000000000001
 41
0.005
 77
     0
 78
     2
 53
44.99999999999999
 43
0.0
 44
0.0
 45
-0.0353553390593274
 46
0.0353553390593274
 79
     0
 53
44.99999999999999
 43
-0.0176776695296637
 44
0.0176776695296637
 45
-0.0353553390593274
 46
0.0353553390593274
 79
     0
 98
        0
1001
ACAD
1010
0.0
1020
0.0
1030
0.0
1001
NEM_ODX
1002
{
1000
BZM_DEPEND
1070
     1
1000
BZM_SCALE
1040
5.0
1000
SCHRAFFUR_3
1002
}
  0
LINE
  5
5E
330
1F
100
AcDbEntity
  8
STANDARD
  6
AUSGEZOGEN
 62
   240
370
    70
100
AcDbLine
 10
-5.356485992394366
 20
-0.31259700103286
 30
0.0
 11
-4.306496492394364
 21
-0.31259700103286
 31
0.0
  0
LINE
  5
5F
330
1F
100
AcDbEntity
  8
STANDARD
  6
AUSGEZOGEN
 62
   240
370
    70
100
AcDbLine
 10
-5.356485992394366
 20
1.17238814896714
 30
0.0
 11
-5.356485992394366
 21
-0.31259700103286
 31
0.0
  0
LINE
  5
60
330
1F
100
AcDbEntity
  8
STANDARD
  6
AUSGEZOGEN
 62
    52
370
    13
100
AcDbLine
 10
-4.941521013114103
 20
0.3000959974184
 30
0.0
 11
-4.931521013114103
 21
0.2600959974184001
 31
0.0
  0
LINE
  5
61
330
1F
100
AcDbEntity
  8
STANDARD
  6
AUSGEZOGEN
 62
    52
370
    13
100
AcDbLine
 10
-4.931521013114103
 20
0.2600959974184001
 30
0.0
 11
-4.921521013114103
 21
0.3000959974184
 31
0.0
  0
LINE
  5
62
330
1F
100
AcDbEntity
  8
STANDARD
  6
AUSGEZOGEN
 62
    52
370
    13
100
AcDbLine
 10
-4.921521013114103
 20
0.3000959974184
 30
0.0
 11
-4.911521013114103
 21
0.2600959974184001
 31
0.0
  0
LINE
  5
63
330
1F
100
AcDbEntity
  8
STANDARD
  6
AUSGEZOGEN
 62
    52
370
    13
100
AcDbLine
 10
-4.910781013114104
 20
0.2600959974184001
 30
0.0
 11
-4.900781013114103
 21
0.3000959974184
 31
0.0
  0
LINE
  5
64
330
1F
100
AcDbEntity
  8
STANDARD
  6
AUSGEZOGEN
 62
    52
370
    13
100
AcDbLine
 10
-4.900781013114103
 20
0.3000959974184
 30
0.0
 11
-4.890781013114103
 21
0.2600959974184001
 31
0.0
  0
LINE
  5
65
330
1F
100
AcDbEntity
  8
STANDARD
  6
AUSGEZOGEN
 62
    52
370
    13
100
AcDbLine
 10
-4.890781013114103
 20
0.2600959974184001
 30
0.0
 11
-4.880781013114103
 21
0.3000959974184
 31
0.0
  0
LINE
  5
66
330
1F
100
AcDbEntity
  8
STANDARD
  6
AUSGEZOGEN
 62
    52
370
    13
100
AcDbLine
 10
-4.880781013114103
 20
0.3000959974184
 30
0.0
 11
-4.872031013114103
 21
0.2650959974184001
 31
0.0
  0
LINE
  5
67
330
1F
100
AcDbEntity
  8
STANDARD
  6
AUSGEZOGEN
 62
    52
370
    13
100
AcDbLine
 10
-4.869531013114103
 20
0.2650959974184001
 30
0.0
 11
-4.860781013114103
 21
0.3000959974184
 31
0.0
  0
LINE
  5
68
330
1F
100
AcDbEntity
  8
STANDARD
  6
AUSGEZOGEN
 62
    52
370
    13
100
AcDbLine
 10
-4.860781013114103
 20
0.3000959974184
 30
0.0
 11
-4.852031013114103
 21
0.2650959974184001
 31
0.0
  0
LINE
  5
69
330
1F
100
AcDbEntity
  8
STANDARD
  6
AUSGEZOGEN
 62
    52
370
    13
100
AcDbLine
 10
-5.031521013114103
 20
0.5511567725520501
 30
0.0
 11
-4.951521013114103
 21
0.57615677255205
 31
0.0
  0
LINE
  5
6A
330
1F
100
AcDbEntity
  8
STANDARD
  6
AUSGEZOGEN
 62
    52
370
    13
100
AcDbLine
 10
-4.951521013114103
 20
0.57615677255205
 30
0.0
 11
-5.031521013114103
 21
0.60115677255205
 31
0.0
  0
LINE
  5
6B
330
1F
100
AcDbEntity
  8
STANDARD
  6
AUSGEZOGEN
 62
    52
370
    13
100
AcDbLine
 10
-5.031521013114103
 20
0.60115677255205
 30
0.0
 11
-4.951521013114103
 21
0.62615677255205
 31
0.0
  0
LINE
  5
6C
330
1F
100
AcDbEntity
  8
STANDARD
  6
AUSGEZOGEN
 62
    52
370
    13
100
AcDbLine
 10
-4.951521013114103
 20
0.62615677255205
 30
0.0
 11
-5.031521013114103
 21
0.6511567725520501
 31
0.0
  0
LINE
  5
6D
330
1F
100
AcDbEntity
  8
STANDARD
  6
AUSGEZOGEN
 62
    52
370
    13
100
AcDbLine
 10
-5.031521013114103
 20
0.6511567725520501
 30
0.0
 11
-4.951521013114103
 21
0.6761567725520501
 31
0.0
  0
LINE
  5
6E
330
1F
100
AcDbEntity
  8
STANDARD
  6
AUSGEZOGEN
 62
    52
370
    13
100
AcDbLine
 10
-4.951521013114103
 20
0.6761567725520501
 30
0.0
 11
-5.031521013114103
 21
0.70115677255205
 31
0.0
  0
LINE
  5
6F
330
1F
100
AcDbEntity
  8
STANDARD
  6
AUSGEZOGEN
 62
    52
370
    13
100
AcDbLine
 10
-5.031521013114103
 20
0.70115677255205
 30
0.0
 11
-4.951521013114103
 21
0.72615677255205
 31
0.0
  0
LINE
  5
70
330
1F
100
AcDbEntity
  8
STANDARD
  6
AUSGEZOGEN
 62
    52
370
    13
100
AcDbLine
 10
-4.951521013114103
 20
0.72615677255205
 30
0.0
 11
-5.031521013114103
 21
0.75115677255205
 31
0.0
  0
LINE
  5
71
330
1F
100
AcDbEntity
  8
STANDARD
  6
AUSGEZOGEN
 62
    52
370
    13
100
AcDbLine
 10
-5.031521013114103
 20
0.75115677255205
 30
0.0
 11
-4.951521013114103
 21
0.7761567725520501
 31
0.0
  0
LINE
  5
72
330
1F
100
AcDbEntity
  8
STANDARD
  6
AUSGEZOGEN
 62
    52
370
    13
100
AcDbLine
 10
-4.951521013114103
 20
0.7761567725520501
 30
0.0
 11
-5.031521013114103
 21
0.8011567725520501
 31
0.0
  0
LINE
  5
73
330
1F
100
AcDbEntity
  8
STANDARD
  6
AUSGEZOGEN
 62
    52
370
    13
100
AcDbLine
 10
-5.031521013114103
 20
0.8011567725520501
 30
0.0
 11
-4.951521013114103
 21
0.82615677255205
 31
0.0
  0
LINE
  5
74
330
1F
100
AcDbEntity
  8
STANDARD
  6
AUSGEZOGEN
 62
    52
370
    13
100
AcDbLine
 10
-4.951521013114103
 20
0.82615677255205
 30
0.0
 11
-5.031521013114103
 21
0.85115677255205
 31
0.0
  0
LINE
  5
75
330
1F
100
AcDbEntity
  8
STANDARD
  6
AUSGEZOGEN
 62
    52
370
    13
100
AcDbLine
 10
-5.031521013114103
 20
0.85115677255205
 30
0.0
 11
-4.986868412821694
 21
0.86511071014343
 31
0.0
  0
MTEXT
  5
76
330
1F
100
AcDbEntity
  8
STANDARD
  6
AUSGEZOGEN
 62
     7
370
    18
100
AcDbMText
 10
-5.238668476709076
 20
-0.24501985310236
 30
0.0
 40
0.009
 41
0.8964604604692511
 71
     7
 72
     5
  1
\W0.85;THESE\~ARE\~NOT\~BINDING\~CONSTRUCTION\~PROPOSALS\~WHICH\~HAVE\~TO\~BE\~VERIFIED\~FOR\~EACH\~INDIVIDUAL\~PROJECT\~AS\~REGARDS\~APPLICABILITY\~AND\~CORRECTNESS.
  7
ARIAL
 73
     1
 44
1.0
  0
MTEXT
  5
77
330
1F
100
AcDbEntity
  8
STANDARD
  6
AUSGEZOGEN
 62
     7
370
    18
100
AcDbMText
 10
-5.238668476709077
 20
-0.22702003310236
 30
0.0
 40
0.009
 41
0.8975001858667652
 71
     7
 72
     5
  1
\W0.91;DIES\~SIND\~UNVERBINDLICHE\~KONSTRUKTIONSVORSCHLÄGE,\~DIE\~FÜR\~JEDES\~PROJEKT\~AUF\~ANWENDBARKEIT\~UND\~RICHTIGKEIT\~GEPRÜFT\~WERDEN\~MÜSSEN.
  7
ARIAL
 73
     1
 44
1.0
  0
MTEXT
  5
78
330
1F
100
AcDbEntity
  8
STANDARD
  6
AUSGEZOGEN
 62
     7
370
    18
100
AcDbMText
 10
-5.238668476709077
 20
-0.26301967310236
 30
0.0
 40
0.009
 41
0.8958042950981262
 71
     7
 72
     5
  1
\W0.80;IL\~S'\~AGIT\~DE\~PROPOSITIONS\~DE\~CONSTRUCTION\~SANS\~ENGAGEMENT\~DE\~NOTRE\~PART\~QUI\~DOIVENT\~ETRE\~VERIFIEES\~POUR\~CHAQUE\~PROJET\~A\~LEUR\~EXACTITUDE\~ET\~FAISABILITE.
  7
ARIAL
 73
     1
 44
1.0
  0
MTEXT
  5
79
330
1F
100
AcDbEntity
  8
STANDARD
  6
AUSGEZOGEN
 62
     7
370
    18
100
AcDbMText
 10
-5.236082418480553
 20
0.9863000112296201
 30
0.0
 40
0.0225
 41
0.2355245098039216
 71
     7
 72
     5
  1
\W1.00;KeraTwin\~\~\~K20\~
  7
ARIAL
 73
     1
 44
1.0
  0
MTEXT
  5
7A
330
1F
100
AcDbEntity
  8
STANDARD
  6
AUSGEZOGEN
 62
     7
370
    18
100
AcDbMText
 10
-5.103023699294508
 20
0.99541733747435
 30
0.0
 40
0.01
 41
0.024254406130268
 71
     7
 72
     5
  1
{\fArial|i0|b0;\H0.017500;\W0.911111;\C7;®}\P
  7
ARIAL
 73
     1
 44
1.0
  0
LINE
  5
7B
330
1F
100
AcDbEntity
  8
STANDARD
  6
AUSGEZOGEN
 62
    52
370
    13
100
AcDbLine
 10
-4.951521013114103
 20
0.5261567725520501
 30
0.0
 11
-5.031521013114103
 21
0.5511567725520501
 31
0.0
  0
LINE
  5
7C
330
1F
100
AcDbEntity
  8
STANDARD
  6
AUSGEZOGEN
 62
    52
370
    13
100
AcDbLine
 10
-5.031521013114103
 20
0.50115677255205
 30
0.0
 11
-4.951521013114103
 21
0.5261567725520501
 31
0.0
  0
LINE
  5
7D
330
1F
100
AcDbEntity
  8
STANDARD
  6
AUSGEZOGEN
 62
   240
370
    70
100
AcDbLine
 10
-4.306496492394364
 20
-0.31259700103286
 30
0.0
 11
-4.306496492394364
 21
1.17238814896714
 31
0.0
  0
LINE
  5
7E
330
1F
100
AcDbEntity
  8
STANDARD
  6
AUSGEZOGEN
 62
   240
370
    70
100
AcDbLine
 10
-4.306485992394366
 20
1.17238814896714
 30
0.0
 11
-5.356475492394366
 21
1.17238814896714
 31
0.0
  0
LINE
  5
7F
330
1F
100
AcDbEntity
  8
STANDARD
  6
AUSGEZOGEN
 62
   240
370
    70
100
AcDbLine
 10
-4.306506992394365
 20
1.17238814896714
 30
0.0
 11
-4.306506992394365
 21
-0.31259700103286
 31
0.0
  0
LINE
  5
80
330
1F
100
AcDbEntity
  8
STANDARD
  6
AUSGEZOGEN
 62
     7
370
    18
100
AcDbLine
 10
-4.951521013114103
 20
0.2800959974184
 30
0.0
 11
-4.953521013114103
 21
0.2800959974184
 31
0.0
  0
LINE
  5
81
330
1F
100
AcDbEntity
  8
STANDARD
  6
AUSGEZOGEN
 62
     7
370
    18
100
AcDbLine
 10
-4.953521013114103
 20
0.2620959974184001
 30
0.0
 11
-4.971521013114103
 21
0.2620959974184001
 31
0.0
  0
LINE
  5
82
330
1F
100
AcDbEntity
  8
STANDARD
  6
AUSGEZOGEN
 62
     7
370
    18
100
AcDbLine
 10
-4.971521013114103
 20
0.2600959974184001
 30
0.0
 11
-4.971521013114103
 21
0.2620959974184001
 31
0.0
  0
HATCH
  5
83
330
1F
100
AcDbEntity
  8
STANDARD
  6
AUSGEZOGEN
 62
     0
370
    18
100
AcDbHatch
 10
0.0
 20
0.0
 30
0.0
210
0.0
220
0.0
230
1.0
  2
SOLID
 70
     1
 71
     0
 91
        1
 92
        3
 72
     0
 73
     1
 93
        6
 10
-4.951521013114103
 20
0.2800959974184
 10
-4.953521013114103
 20
0.2800959974184
 10
-4.953521013114103
 20
0.2620959974184001
 10
-4.971521013114103
 20
0.2620959974184001
 10
-4.971521013114103
 20
0.2600959974184001
 10
-4.951521013114103
 20
0.2600959974184001
 97
        0
 75
     0
 76
     1
 98
        0
  0
LINE
  5
84
330
1F
100
AcDbEntity
  8
STANDARD
  6
AUSGEZOGEN
 62
    52
370
    18
100
AcDbLine
 10
-4.951546028932508
 20
0.28008179030492
 30
0.0
 11
-4.951521013114103
 21
0.3000959974184
 31
0.0
  0
LINE
  5
85
330
1F
100
AcDbEntity
  8
STANDARD
  6
AUSGEZOGEN
 62
     7
370
    18
100
AcDbLine
 10
-4.951521013114103
 20
0.2800959974184
 30
0.0
 11
-4.951521013114103
 21
0.2600959974184001
 31
0.0
  0
LINE
  5
86
330
1F
100
AcDbEntity
  8
STANDARD
  6
AUSGEZOGEN
 62
    52
370
    13
100
AcDbLine
 10
-4.951521013114103
 20
0.2600959974184001
 30
0.0
 11
-4.941521013114103
 21
0.3000959974184
 31
0.0
  0
LINE
  5
87
330
1F
100
AcDbEntity
  8
STANDARD
  6
AUSGEZOGEN
 62
     7
370
    18
100
AcDbLine
 10
-4.953521013114103
 20
0.2800959974184
 30
0.0
 11
-4.953521013114103
 21
0.2620959974184001
 31
0.0
  0
LINE
  5
88
330
1F
100
AcDbEntity
  8
STANDARD
  6
AUSGEZOGEN
 62
    52
370
    13
100
AcDbLine
 10
-5.002915493541792
 20
0.2600959974184001
 30
0.0
 11
-4.953521013114103
 21
0.27553177255205
 31
0.0
  0
LINE
  5
89
330
1F
100
AcDbEntity
  8
STANDARD
  6
AUSGEZOGEN
 62
     7
370
    18
100
AcDbLine
 10
-4.953521013114103
 20
0.2620959974184001
 30
0.0
 11
-4.953521013114103
 21
0.2800959974184
 31
0.0
  0
LINE
  5
8A
330
1F
100
AcDbEntity
  8
STANDARD
  6
AUSGEZOGEN
 62
    52
370
    13
100
AcDbLine
 10
-4.953521013114103
 20
0.2767817725520501
 30
0.0
 11
-5.031521013114103
 21
0.30115677255205
 31
0.0
  0
LINE
  5
8B
330
1F
100
AcDbEntity
  8
STANDARD
  6
AUSGEZOGEN
 62
    52
370
    13
100
AcDbLine
 10
-5.031521013114103
 20
0.35115677255205
 30
0.0
 11
-4.951521013114103
 21
0.37615677255205
 31
0.0
  0
LINE
  5
8C
330
1F
100
AcDbEntity
  8
STANDARD
  6
AUSGEZOGEN
 62
    52
370
    13
100
AcDbLine
 10
-4.951521013114103
 20
0.3261567725520501
 30
0.0
 11
-5.031521013114103
 21
0.35115677255205
 31
0.0
  0
LINE
  5
8D
330
1F
100
AcDbEntity
  8
STANDARD
  6
AUSGEZOGEN
 62
    22
370
    50
100
AcDbLine
 10
-4.951521013114103
 20
0.3000959974184
 30
0.0
 11
-4.951521013114103
 21
0.86511071014343
 31
0.0
  0
LINE
  5
8E
330
1F
100
AcDbEntity
  8
STANDARD
  6
AUSGEZOGEN
 62
    52
370
    13
100
AcDbLine
 10
-5.031521013114103
 20
0.30115677255205
 30
0.0
 11
-4.951521013114103
 21
0.3261567725520501
 31
0.0
  0
LINE
  5
8F
330
1F
100
AcDbEntity
  8
STANDARD
  6
AUSGEZOGEN
 62
     7
370
    18
100
AcDbLine
 10
-5.053776495475121
 20
0.28884910462249
 30
0.0
 11
-5.031521013114103
 21
0.28884910462249
 31
0.0
  0
LINE
  5
90
330
1F
100
AcDbEntity
  8
STANDARD
  6
VERDECKT
 62
     7
370
    18
100
AcDbLine
 10
-5.031521013114103
 20
0.28884910462249
 30
0.0
 11
-5.003776495475119
 21
0.28884910462249
 31
0.0
  0
LINE
  5
91
330
1F
100
AcDbEntity
  8
STANDARD
  6
AUSGEZOGEN
 62
     7
370
    18
100
AcDbLine
 10
-5.053776495475121
 20
0.28884910462249
 30
0.0
 11
-5.053776495475121
 21
0.86511071014343
 31
0.0
  0
LINE
  5
92
330
1F
100
AcDbEntity
  8
STANDARD
  6
STRICHPUNKT
 62
     7
370
    18
100
AcDbLine
 10
-5.126827840249645
 20
0.03761037703502
 30
0.0
 11
-4.631521013114103
 21
0.03809599741839
 31
0.0
  0
ARC
  5
93
330
1F
100
AcDbEntity
  8
STANDARD
  6
AUSGEZOGEN
 62
     7
370
    18
100
AcDbCircle
 10
-5.107541013114104
 20
0.2605959974184001
 30
0.0
 40
0.0035
100
AcDbArc
 50
180.0
 51
270.0
  0
LINE
  5
94
330
1F
100
AcDbEntity
  8
STANDARD
  6
AUSGEZOGEN
 62
     7
370
    18
100
AcDbLine
 10
-4.854521013114103
 20
0.2570959974184001
 30
0.0
 11
-5.107541013114104
 21
0.2570959974184001
 31
0.0
  0
ARC
  5
95
330
1F
100
AcDbEntity
  8
STANDARD
  6
AUSGEZOGEN
 62
     7
370
    18
100
AcDbCircle
 10
-5.107041013114103
 20
0.2610959974184001
 30
0.0
 40
0.001
100
AcDbArc
 50
180.0
 51
270.0
  0
ARC
  5
96
330
1F
100
AcDbEntity
  8
STANDARD
  6
AUSGEZOGEN
 62
     7
370
    18
100
AcDbCircle
 10
-5.108041013114104
 20
0.2840959974184
 30
0.0
 40
0.003
100
AcDbArc
 50
90.0
 51
180.0
  0
LINE
  5
97
330
1F
100
AcDbEntity
  8
STANDARD
  6
AUSGEZOGEN
 62
     7
370
    18
100
AcDbLine
 10
-5.111041013114104
 20
0.2605959974184001
 30
0.0
 11
-5.111041013114104
 21
0.2840959974184
 31
0.0
  0
ARC
  5
98
330
1F
100
AcDbEntity
  8
STANDARD
  6
AUSGEZOGEN
 62
     7
370
    18
100
AcDbCircle
 10
-5.107041013114103
 20
0.2830959974184
 30
0.0
 40
0.001
100
AcDbArc
 50
90.0
 51
180.0
  0
LINE
  5
99
330
1F
100
AcDbEntity
  8
STANDARD
  6
AUSGEZOGEN
 62
     7
370
    18
100
AcDbLine
 10
-5.108041013114104
 20
0.2830959974184
 30
0.0
 11
-5.108041013114104
 21
0.2610959974184001
 31
0.0
  0
LINE
  5
9A
330
1F
100
AcDbEntity
  8
STANDARD
  6
AUSGEZOGEN
 62
     7
370
    18
100
AcDbLine
 10
-5.110987840249646
 20
0.03761037703502
 30
0.0
 11
-5.110987840249646
 21
0.25998822879656
 31
0.0
  0
LINE
  5
9B
330
1F
100
AcDbEntity
  8
STANDARD
  6
AUSGEZOGEN
 62
     7
370
    18
100
AcDbLine
 10
-4.854521013114103
 20
0.2600959974184001
 30
0.0
 11
-5.107041013114103
 21
0.2600959974184001
 31
0.0
  0
LINE
  5
9C
330
1F
100
AcDbEntity
  8
STANDARD
  6
AUSGEZOGEN
 62
     7
370
    18
100
AcDbLine
 10
-5.108041013114104
 20
0.2870959974184
 30
0.0
 11
-5.0597074277243
 21
0.2870959974184
 31
0.0
  0
LINE
  5
9D
330
1F
100
AcDbEntity
  8
STANDARD
  6
AUSGEZOGEN
 62
     7
370
    18
100
AcDbLine
 10
-5.0597074277243
 20
0.2840959974184
 30
0.0
 11
-5.107041013114103
 21
0.2840959974184
 31
0.0
  0
LINE
  5
9E
330
1F
100
AcDbEntity
  8
STANDARD
  6
AUSGEZOGEN
 62
     7
370
    18
100
AcDbLine
 10
-5.0597074277243
 20
0.2840959974184
 30
0.0
 11
-5.0597074277243
 21
0.2870959974184
 31
0.0
  0
HATCH
  5
A0
102
{ACAD_REACTORS
330
9F
102
}
330
1F
100
AcDbEntity
  8
STANDARD
  6
AUSGEZOGEN
 62
     0
370
    18
100
AcDbHatch
 10
0.0
 20
0.0
 30
0.0
210
0.0
220
0.0
230
1.0
  2
SOLID
 70
     1
 71
     0
 91
        1
 92
        3
 72
     0
 73
     1
 93
      189
 10
-5.0597074277243
 20
0.2840959974184
 10
-5.0597074277243
 20
0.28709599739686
 10
-5.107041013114103
 20
0.28709599739686
 10
-5.108041011719805
 20
0.28709599724962
 10
-5.10814571160421
 20
0.28709416989945
 10
-5.108250282535335
 20
0.28708868956918
 10
-5.108354598503905
 20
0.2870795631045001
 10
-5.108458532416983
 20
0.2870668016246201
 10
-5.108561957647104
 20
0.28705042067743
 10
-5.108664748186555
 20
0.2870304402206
 10
-5.1087667788009
 20
0.28700688459722
 10
-5.108867925181554
 20
0.28697978250621
 10
-5.108968064097228
 20
0.28694916696728
 10
-5.109067073544079
 20
0.2869150752807501
 10
-5.109164832894351
 20
0.2868775489821
 10
-5.10926122304333
 20
0.28683663379132
 10
-5.109356126554471
 20
0.28679237955729
 10
-5.10944942780246
 20
0.28674484019697
 10
-5.109541013114104
 20
0.28669407362975
 10
-5.109630770906803
 20
0.28664014170687
 10
-5.109718591824515
 20
0.28658311013606
 10
-5.10980436887098
 20
0.28652304840152
 10
-5.109887997540079
 20
0.2864600296792201
 10
-5.109969375943162
 20
0.28639413074775
 10
-5.110048404933179
 20
0.2863254318948301
 10
-5.11012498822548
 20
0.28625401681941
 10
-5.110199032515118
 20
0.28617997252977
 10
-5.110270447590535
 20
0.28610338923747
 10
-5.110339146443459
 20
0.28602436024746
 10
-5.110405045374923
 20
0.28594298184437
 10
-5.110468064097227
 20
0.2858593531752701
 10
-5.110528125831767
 20
0.28577357612881
 10
-5.110585157402572
 20
0.2856857552111
 10
-5.110639089325455
 20
0.2855959974184
 10
-5.110689855892681
 20
0.28550441210675
 10
-5.110737395253
 20
0.28541111085876
 10
-5.11078164948703
 20
0.28531620734762
 10
-5.110822564677803
 20
0.28521981719864
 10
-5.11086009097646
 20
0.2851220578483701
 10
-5.110894182662988
 20
0.28502304840152
 10
-5.110924798201917
 20
0.28492290948585
 10
-5.11095190029293
 20
0.28482176310519
 10
-5.110975455916304
 20
0.28471973249085
 10
-5.110995436373139
 20
0.2846169419514
 10
-5.111011817320327
 20
0.2845135167212801
 10
-5.111024578800208
 20
0.2844095828082
 10
-5.111033705264882
 20
0.28430526683963
 10
-5.111039185595159
 20
0.2842006959085
 10
-5.111041013114104
 20
0.2840959974184
 10
-5.111041012917196
 20
0.26059599904508
 10
-5.111038881008669
 20
0.26047384917994
 10
-5.111032487290012
 20
0.26035184976029
 10
-5.111021839747891
 20
0.26023014779696
 10
-5.111006951354698
 20
0.26010889156504
 10
-5.110987840249646
 20
0.25998822879656
 10
-5.110964529716671
 20
0.2598683065005301
 10
-5.110937048156068
 20
0.2597492707838
 10
-5.110905429049886
 20
0.25963126667304
 10
-5.110869710921135
 20
0.25951443793808
 10
-5.110829937286853
 20
0.25939892691676
 10
-5.110786156605086
 20
0.25928487434144
 10
-5.110738422215852
 20
0.2591724191676301
 10
-5.110686792276149
 20
0.25906169840463
 10
-5.110631329689109
 20
0.25895284694864
 10
-5.110572102027348
 20
0.2588459974184
 10
-5.11050918145065
 20
0.25874127999358
 10
-5.110442644618045
 20
0.25863882225625
 10
-5.110372572594415
 20
0.25853874903537
 10
-5.110299050751726
 20
0.25844118225476
 10
-5.110222168665019
 20
0.25834624078449
 10
-5.110142020003273
 20
0.25825404029614
 10
-5.110058702415286
 20
0.25816469312179
 10
-5.109972317410707
 20
0.2580783081172101
 10
-5.109882970236359
 20
0.25799499052922
 10
-5.109790769748005
 20
0.25791484186748
 10
-5.109695828277742
 20
0.25783795978077
 10
-5.109598261497125
 20
0.25776443793808
 10
-5.10949818827625
 20
0.2576943659144501
 10
-5.109395730538919
 20
0.25762782908185
 10
-5.109291013114103
 20
0.25756490850515
 10
-5.109184163583853
 20
0.25750568084339
 10
-5.109075312127864
 20
0.25745021825635
 10
-5.108964591364868
 20
0.25739858831665
 10
-5.108852136191058
 20
0.25735085392741
 10
-5.108738083615743
 20
0.25730707324564
 10
-5.108622572594415
 20
0.25726729961136
 10
-5.108505743859461
 20
0.25723158148261
 10
-5.108387739748701
 20
0.25719996237643
 10
-5.108268704031963
 20
0.25717248081583
 10
-5.108148781735936
 20
0.2571491702828501
 10
-5.108028118967463
 20
0.2571300591778
 10
-5.107906862735539
 20
0.25711517078461
 10
-5.107785160772207
 20
0.25710452324249
 10
-5.10766316135256
 20
0.25709812952383
 10
-5.107541013114104
 20
0.2570959974184001
 10
-5.094171013114102
 20
0.2570959974184001
 10
-5.094171013114102
 20
0.2600959974184001
 10
-5.107041013114103
 20
0.2600959974184001
 10
-5.107075912610805
 20
0.26009660659138
 10
-5.107110769587845
 20
0.26009843336814
 10
-5.10714554157737
 20
0.26010147552303
 10
-5.107180186215063
 20
0.26010572934965
 10
-5.10721466129177
 20
0.26011118966538
 10
-5.107248924804921
 20
0.2601178498176601
 10
-5.107282935009702
 20
0.26012570169212
 10
-5.107316650469919
 20
0.26013473572246
 10
-5.107350030108478
 20
0.2601449409021
 10
-5.107383033257428
 20
0.26015630479761
 10
-5.107415619707518
 20
0.26016881356383
 10
-5.107447749757178
 20
0.26018245196075
 10
-5.107479384260892
 20
0.2601972033721001
 10
-5.107510484676888
 20
0.26021304982554
 10
-5.107541013114104
 20
0.2602299720146101
 10
-5.107570932378336
 20
0.26024794932224
 10
-5.107600206017572
 20
0.26026695984584
 10
-5.107628798366395
 20
0.26028698042402
 10
-5.107656674589428
 20
0.26030798666479
 10
-5.107683800723789
 20
0.2603299529752801
 10
-5.107710143720461
 20
0.2603528525929201
 10
-5.107735671484561
 20
0.26037665761806
 10
-5.107760352914441
 20
0.2604013390479401
 10
-5.10778415793958
 20
0.26042686681204
 10
-5.107807057557221
 20
0.26045320980871
 10
-5.107829023867709
 20
0.26048033594307
 10
-5.107850030108477
 20
0.2605082121661
 10
-5.107870050686658
 20
0.26053680451492
 10
-5.107889061210259
 20
0.2605660781541601
 10
-5.107907038517888
 20
0.2605959974184001
 10
-5.107923960706962
 20
0.26062652585561
 10
-5.107939807160402
 20
0.26065762627161
 10
-5.107954558571746
 20
0.26068926077532
 10
-5.107968196968669
 20
0.26072139082498
 10
-5.107980705734888
 20
0.26075397727507
 10
-5.107992069630398
 20
0.26078698042402
 10
-5.108002274810041
 20
0.26082036006258
 10
-5.108011308840378
 20
0.2608540755228
 10
-5.108019160714836
 20
0.26088808572758
 10
-5.108025820867115
 20
0.26092234924073
 10
-5.108031281182845
 20
0.26095682431744
 10
-5.108035535009471
 20
0.26099146895513
 10
-5.108038577164361
 20
0.26102624094465
 10
-5.10804040394112
 20
0.26106109792169
 10
-5.108041013114104
 20
0.2610959974184001
 10
-5.108041013114104
 20
0.2830959974184
 10
-5.10804040394112
 20
0.2831308969151
 10
-5.108038577164361
 20
0.28316575389214
 10
-5.108035535009471
 20
0.2832005258816601
 10
-5.108031281182845
 20
0.28323517051936
 10
-5.108025820867115
 20
0.28326964559606
 10
-5.108019160714836
 20
0.28330390910921
 10
-5.108011308840378
 20
0.283337919314
 10
-5.108002274810041
 20
0.28337163477421
 10
-5.107992069630398
 20
0.28340501441277
 10
-5.107980705734888
 20
0.28343801756172
 10
-5.107968196968669
 20
0.28347060401181
 10
-5.107954558571746
 20
0.28350273406147
 10
-5.107939807160402
 20
0.2835343685651801
 10
-5.107923960706962
 20
0.28356546898118
 10
-5.107907038517888
 20
0.2835959974184
 10
-5.107889061210259
 20
0.28362591668263
 10
-5.107870050686658
 20
0.28365519032187
 10
-5.107850030108477
 20
0.28368378267069
 10
-5.107829023867709
 20
0.28371165889372
 10
-5.107807057557221
 20
0.28373878502808
 10
-5.10778415793958
 20
0.28376512802475
 10
-5.107760352914441
 20
0.28379065578885
 10
-5.107735671484561
 20
0.28381533721873
 10
-5.107710143720461
 20
0.28383914224387
 10
-5.107683800723789
 20
0.28386204186151
 10
-5.107656674589428
 20
0.283884008172
 10
-5.107628798366395
 20
0.28390501441277
 10
-5.107600206017572
 20
0.28392503499095
 10
-5.107570932378336
 20
0.28394404551455
 10
-5.107541013114104
 20
0.28396202282218
 10
-5.107510484676888
 20
0.28397894501125
 10
-5.107479384260892
 20
0.28399479146469
 10
-5.107447749757178
 20
0.28400954287604
 10
-5.107415619707518
 20
0.28402318127296
 10
-5.107383033257428
 20
0.28403569003918
 10
-5.107350030108478
 20
0.28404705393469
 10
-5.107316650469919
 20
0.28405725911433
 10
-5.107282935009702
 20
0.28406629314467
 10
-5.107248924804921
 20
0.28407414501913
 10
-5.10721466129177
 20
0.28408080517141
 10
-5.107180186215063
 20
0.28408626548714
 10
-5.10714554157737
 20
0.28409051931376
 10
-5.107110769587845
 20
0.28409356146866
 10
-5.107075912610805
 20
0.28409538824541
 10
-5.107041013114103
 20
0.2840959974184
 97
        0
 75
     0
 76
     1
 98
        0
  0
HATCH
  5
A1
102
{ACAD_REACTORS
330
9F
102
}
330
1F
100
AcDbEntity
  8
STANDARD
  6
AUSGEZOGEN
 62
     0
370
    18
100
AcDbHatch
 10
0.0
 20
0.0
 30
0.0
210
0.0
220
0.0
230
1.0
  2
SOLID
 70
     1
 71
     0
 91
        1
 92
        3
 72
     0
 73
     1
 93
        4
 10
-4.854521013114103
 20
0.2570959974184001
 10
-4.854521013114103
 20
0.2600959974184001
 10
-5.034171013114102
 20
0.2600959974184001
 10
-5.034171013114102
 20
0.2570959974184001
 97
        0
 75
     0
 76
     1
 98
        0
  0
HATCH
  5
A2
330
1F
100
AcDbEntity
  8
STANDARD
  6
AUSGEZOGEN
 62
     0
370
    18
100
AcDbHatch
 10
0.0
 20
0.0
 30
0.0
210
0.0
220
0.0
230
1.0
  2
SOLID
 70
     1
 71
     0
 91
        1
 92
        3
 72
     0
 73
     1
 93
        4
 10
-5.069171013114102
 20
0.2600959974184001
 10
-5.069171013114102
 20
0.2570959974184001
 10
-5.064171013114102
 20
0.2570959974184001
 10
-5.064171013114102
 20
0.2600959974184001
 97
        0
 75
     0
 76
     1
 98
        0
  0
HATCH
  5
A3
330
1F
100
AcDbEntity
  8
STANDARD
  6
AUSGEZOGEN
 62
     0
370
    18
100
AcDbHatch
 10
0.0
 20
0.0
 30
0.0
210
0.0
220
0.0
230
1.0
  2
SOLID
 70
     1
 71
     0
 91
        1
 92
        3
 72
     0
 73
     1
 93
        4
 10
-5.079171013114101
 20
0.2600959974184001
 10
-5.079171013114101
 20
0.2570959974184001
 10
-5.074171013114102
 20
0.2570959974184001
 10
-5.074171013114102
 20
0.2600959974184001
 97
        0
 75
     0
 76
     1
 98
        0
  0
HATCH
  5
A4
330
1F
100
AcDbEntity
  8
STANDARD
  6
AUSGEZOGEN
 62
     0
370
    18
100
AcDbHatch
 10
0.0
 20
0.0
 30
0.0
210
0.0
220
0.0
230
1.0
  2
SOLID
 70
     1
 71
     0
 91
        1
 92
        3
 72
     0
 73
     1
 93
        4
 10
-5.089171013114102
 20
0.2600959974184001
 10
-5.089171013114102
 20
0.2570959974184001
 10
-5.084171013114102
 20
0.2570959974184001
 10
-5.084171013114102
 20
0.2600959974184001
 97
        0
 75
     0
 76
     1
 98
        0
  0
LINE
  5
A5
330
1F
100
AcDbEntity
  8
STANDARD
  6
VERDECKT
 62
     7
370
    18
100
AcDbLine
 10
-4.959521013114103
 20
0.48009599741839
 30
0.0
 11
-4.959521013114103
 21
0.4000959974184
 31
0.0
  0
CIRCLE
  5
A6
330
1F
100
AcDbEntity
  8
STANDARD
  6
AUSGEZOGEN
 62
    52
370
    18
100
AcDbCircle
 10
-5.023521013114103
 20
0.46009604319476
 30
0.0
 40
0.0015
  0
CIRCLE
  5
A7
330
1F
100
AcDbEntity
  8
STANDARD
  6
AUSGEZOGEN
 62
    52
370
    18
100
AcDbCircle
 10
-5.023521013114103
 20
0.46009604319476
 30
0.0
 40
0.005
  0
CIRCLE
  5
A8
330
1F
100
AcDbEntity
  8
STANDARD
  6
AUSGEZOGEN
 62
    52
370
    18
100
AcDbCircle
 10
-5.023521013114103
 20
0.42009604319476
 30
0.0
 40
0.0015
  0
CIRCLE
  5
A9
330
1F
100
AcDbEntity
  8
STANDARD
  6
AUSGEZOGEN
 62
    52
370
    18
100
AcDbCircle
 10
-5.023521013114103
 20
0.42009604319476
 30
0.0
 40
0.005
  0
LINE
  5
AA
330
1F
100
AcDbEntity
  8
STANDARD
  6
STRICHPUNKT
 62
   220
370
    35
100
AcDbLine
 10
-4.969521013114103
 20
0.44009599765459
 30
0.0
 11
-4.851521013114103
 21
0.44009599935521
 31
0.0
  0
LINE
  5
AB
330
1F
100
AcDbEntity
  8
STANDARD
  6
VERDECKT
 62
     7
370
    18
100
AcDbLine
 10
-5.05177649547512
 20
0.86511071014343
 30
0.0
 11
-5.051776495475119
 21
0.28884910462249
 31
0.0
  0
LINE
  5
AC
330
1F
100
AcDbEntity
  8
STANDARD
  6
AUSGEZOGEN
 62
     7
370
    18
100
AcDbLine
 10
-4.951521013114103
 20
0.48009599741839
 30
0.0
 11
-5.003776495475119
 21
0.48009599741839
 31
0.0
  0
LINE
  5
AD
330
1F
100
AcDbEntity
  8
STANDARD
  6
AUSGEZOGEN
 62
     7
370
    18
100
AcDbLine
 10
-5.003776495475119
 20
0.4000959974184
 30
0.0
 11
-4.951521013114103
 21
0.4000959974184
 31
0.0
  0
LINE
  5
AE
330
1F
100
AcDbEntity
  8
STANDARD
  6
VERDECKT
 62
     7
370
    18
100
AcDbLine
 10
-5.003776495475119
 20
0.4000959974184
 30
0.0
 11
-5.036521013114103
 21
0.4000959974184
 31
0.0
  0
LINE
  5
AF
330
1F
100
AcDbEntity
  8
STANDARD
  6
VERDECKT
 62
     7
370
    18
100
AcDbLine
 10
-5.036521013114103
 20
0.48009599741839
 30
0.0
 11
-5.003776495475119
 21
0.48009599741839
 31
0.0
  0
ARC
  5
B0
330
1F
100
AcDbEntity
  8
STANDARD
  6
VERDECKT
 62
    52
370
    18
100
AcDbCircle
 10
-5.023521013114103
 20
0.4675959974184
 30
0.0
 40
0.0025
100
AcDbArc
 50
0.0
 51
180.0
  0
LINE
  5
B1
330
1F
100
AcDbEntity
  8
STANDARD
  6
VERDECKT
 62
    52
370
    18
100
AcDbLine
 10
-5.026021013114103
 20
0.46442616709613
 30
0.0
 11
-5.026021013114103
 21
0.46759599741839
 31
0.0
  0
LINE
  5
B2
330
1F
100
AcDbEntity
  8
STANDARD
  6
VERDECKT
 62
    52
370
    18
100
AcDbLine
 10
-5.021021013114103
 20
0.46442616709613
 30
0.0
 11
-5.021021013114103
 21
0.46759599741839
 31
0.0
  0
ARC
  5
B3
330
1F
100
AcDbEntity
  8
STANDARD
  6
VERDECKT
 62
    52
370
    18
100
AcDbCircle
 10
-5.023521013114103
 20
0.4525959974184001
 30
0.0
 40
0.0025
100
AcDbArc
 50
180.0
 51
0.0
  0
LINE
  5
B4
330
1F
100
AcDbEntity
  8
STANDARD
  6
VERDECKT
 62
    52
370
    18
100
AcDbLine
 10
-5.021021013114103
 20
0.4525959974184001
 30
0.0
 11
-5.021021013114103
 21
0.4557659192933901
 31
0.0
  0
LINE
  5
B5
330
1F
100
AcDbEntity
  8
STANDARD
  6
VERDECKT
 62
    52
370
    18
100
AcDbLine
 10
-5.026021013114103
 20
0.4525959974184001
 30
0.0
 11
-5.026021013114103
 21
0.4557659192933901
 31
0.0
  0
LINE
  5
B6
330
1F
100
AcDbEntity
  8
STANDARD
  6
VERDECKT
 62
    52
370
    18
100
AcDbLine
 10
-5.026021013114103
 20
0.42442616709613
 30
0.0
 11
-5.026021013114103
 21
0.4275959974183901
 31
0.0
  0
LINE
  5
B7
330
1F
100
AcDbEntity
  8
STANDARD
  6
VERDECKT
 62
    52
370
    18
100
AcDbLine
 10
-5.021021013114103
 20
0.42442616709613
 30
0.0
 11
-5.021021013114103
 21
0.4275959974183901
 31
0.0
  0
ARC
  5
B8
330
1F
100
AcDbEntity
  8
STANDARD
  6
VERDECKT
 62
    52
370
    18
100
AcDbCircle
 10
-5.023521013114103
 20
0.4275959974184
 30
0.0
 40
0.0025
100
AcDbArc
 50
0.0
 51
180.0
  0
ARC
  5
B9
330
1F
100
AcDbEntity
  8
STANDARD
  6
VERDECKT
 62
    52
370
    18
100
AcDbCircle
 10
-5.023521013114103
 20
0.4125959974184
 30
0.0
 40
0.0025
100
AcDbArc
 50
180.0
 51
0.0
  0
LINE
  5
BA
330
1F
100
AcDbEntity
  8
STANDARD
  6
VERDECKT
 62
    52
370
    18
100
AcDbLine
 10
-5.021021013114103
 20
0.4125959974184
 30
0.0
 11
-5.021021013114103
 21
0.41576591929339
 31
0.0
  0
LINE
  5
BB
330
1F
100
AcDbEntity
  8
STANDARD
  6
VERDECKT
 62
    52
370
    18
100
AcDbLine
 10
-5.026021013114103
 20
0.4125959974184
 30
0.0
 11
-5.026021013114103
 21
0.41576591929339
 31
0.0
  0
LINE
  5
BC
330
1F
100
AcDbEntity
  8
STANDARD
  6
VERDECKT
 62
     7
370
    18
100
AcDbLine
 10
-4.956521013114103
 20
0.48009599741839
 30
0.0
 11
-4.956521013114103
 21
0.4000959974184
 31
0.0
  0
LINE
  5
BD
330
1F
100
AcDbEntity
  8
STANDARD
  6
AUSGEZOGEN
 62
    52
370
    13
100
AcDbLine
 10
-5.031521013114103
 20
0.48009599741839
 30
0.0
 11
-5.031521013114103
 21
0.86511071014343
 31
0.0
  0
LINE
  5
BE
330
1F
100
AcDbEntity
  8
STANDARD
  6
AUSGEZOGEN
 62
    52
370
    13
100
AcDbLine
 10
-4.964126532686411
 20
0.48009599741839
 30
0.0
 11
-5.031521013114103
 21
0.50115677255205
 31
0.0
  0
LINE
  5
BF
330
1F
100
AcDbEntity
  8
STANDARD
  6
AUSGEZOGEN
 62
    52
370
    13
100
AcDbLine
 10
-4.951521013114103
 20
0.37615677255205
 30
0.0
 11
-5.028126532686414
 21
0.4000959974184
 31
0.0
  0
LINE
  5
C0
330
1F
100
AcDbEntity
  8
STANDARD
  6
AUSGEZOGEN
 62
    52
370
    13
100
AcDbLine
 10
-5.031521013114103
 20
0.2600959974184001
 30
0.0
 11
-5.031521013114103
 21
0.4000959974184
 31
0.0
  0
LINE
  5
C1
330
1F
100
AcDbEntity
  8
STANDARD
  6
VERDECKT
 62
     7
370
    18
100
AcDbLine
 10
-5.036521013114103
 20
0.48009599741839
 30
0.0
 11
-5.036521013114103
 21
0.4000959974184
 31
0.0
  0
LINE
  5
C2
330
1F
100
AcDbEntity
  8
STANDARD
  6
VERDECKT
 62
     7
370
    18
100
AcDbLine
 10
-5.00377649547512
 20
0.86511071014343
 30
0.0
 11
-5.003776495475119
 21
0.48009599741839
 31
0.0
  0
LINE
  5
C3
330
1F
100
AcDbEntity
  8
STANDARD
  6
VERDECKT
 62
     7
370
    18
100
AcDbLine
 10
-5.003776495475119
 20
0.4000959974184
 30
0.0
 11
-5.003776495475119
 21
0.28884910462249
 31
0.0
  0
LINE
  5
C4
330
1F
100
AcDbEntity
  8
STANDARD
  6
AUSGEZOGEN
 62
     7
370
    18
100
AcDbLine
 10
-5.003776495475119
 20
0.48009599741839
 30
0.0
 11
-5.003776495475119
 21
0.4000959974184
 31
0.0
  0
LINE
  5
C5
330
1F
100
AcDbEntity
  8
STANDARD
  6
AUSGEZOGEN
 62
     7
370
    25
100
AcDbLine
 10
-5.095521013114086
 20
0.30134910462249
 30
0.0
 11
-5.075521013114158
 21
0.30134910462249
 31
0.0
  0
LINE
  5
C6
330
1F
100
AcDbEntity
  8
STANDARD
  6
VERDECKT
 62
     7
370
    13
100
AcDbLine
 10
-5.089521013114147
 20
0.30134910462249
 30
0.0
 11
-5.089521013114147
 21
0.86511071014343
 31
0.0
  0
LINE
  5
C7
330
1F
100
AcDbEntity
  8
STANDARD
  6
AUSGEZOGEN
 62
     7
370
    25
100
AcDbLine
 10
-5.095521013114086
 20
0.30134910462249
 30
0.0
 11
-5.095521013114086
 21
0.86511071014343
 31
0.0
  0
LINE
  5
C8
330
1F
100
AcDbEntity
  8
STANDARD
  6
AUSGEZOGEN
 62
     7
370
    25
100
AcDbLine
 10
-5.075521013114158
 20
0.30134910462249
 30
0.0
 11
-5.07552101311416
 21
0.86511071014343
 31
0.0
  0
LINE
  5
C9
330
1F
100
AcDbEntity
  8
STANDARD
  6
VERDECKT
 62
     7
370
    13
100
AcDbLine
 10
-5.081526494975127
 20
0.30134910462249
 30
0.0
 11
-5.08152649497513
 21
0.86511071014343
 31
0.0
  0
LINE
  5
CA
330
1F
100
AcDbEntity
  8
STANDARD
  6
AUSGEZOGEN
 62
     7
370
    18
100
AcDbLine
 10
-5.068776495475118
 20
0.29634910462249
 30
0.0
 11
-5.068776495475119
 21
0.29434910462249
 31
0.0
  0
LINE
  5
CB
330
1F
100
AcDbEntity
  8
STANDARD
  6
AUSGEZOGEN
 62
     7
370
    18
100
AcDbLine
 10
-5.071776495475119
 20
0.29434910462249
 30
0.0
 11
-5.071776495475119
 21
0.29634910462249
 31
0.0
  0
LINE
  5
CC
330
1F
100
AcDbEntity
  8
STANDARD
  6
AUSGEZOGEN
 62
     7
370
    18
100
AcDbLine
 10
-5.071776495475119
 20
0.29434910462249
 30
0.0
 11
-5.068776495475119
 21
0.29434910462249
 31
0.0
  0
LINE
  5
CD
330
1F
100
AcDbEntity
  8
STANDARD
  6
AUSGEZOGEN
 62
     7
370
    18
100
AcDbLine
 10
-5.068776495475104
 20
0.34784910462249
 30
0.0
 11
-5.068776495475104
 21
0.34584910462249
 31
0.0
  0
LINE
  5
CE
330
1F
100
AcDbEntity
  8
STANDARD
  6
AUSGEZOGEN
 62
     7
370
    18
100
AcDbLine
 10
-5.071776495475103
 20
0.34584910462249
 30
0.0
 11
-5.071776495475103
 21
0.34784910462249
 31
0.0
  0
LINE
  5
CF
330
1F
100
AcDbEntity
  8
STANDARD
  6
AUSGEZOGEN
 62
     7
370
    18
100
AcDbLine
 10
-5.068776495475104
 20
0.34784910462249
 30
0.0
 11
-5.071776495475103
 21
0.34784910462249
 31
0.0
  0
LINE
  5
D0
330
1F
100
AcDbEntity
  8
STANDARD
  6
AUSGEZOGEN
 62
     7
370
    18
100
AcDbLine
 10
-5.068776495475118
 20
0.29634910462249
 30
0.0
 11
-5.068776495475104
 21
0.34584910462249
 31
0.0
  0
LINE
  5
D1
330
1F
100
AcDbEntity
  8
STANDARD
  6
AUSGEZOGEN
 62
     7
370
    18
100
AcDbLine
 10
-5.071776495475103
 20
0.34584910462249
 30
0.0
 11
-5.071776495475119
 21
0.29634910462249
 31
0.0
  0
ARC
  5
D2
330
1F
100
AcDbEntity
  8
STANDARD
  6
AUSGEZOGEN
 62
     7
370
    18
100
AcDbCircle
 10
-5.071276495475122
 20
0.3044057289495201
 30
0.0
 40
0.0015
100
AcDbArc
 50
119.9999999999966
 51
180.0
  0
LINE
  5
D3
330
1F
100
AcDbEntity
  8
STANDARD
  6
AUSGEZOGEN
 62
     7
370
    18
100
AcDbLine
 10
-5.072776495475122
 20
0.29784910462249
 30
0.0
 11
-5.072776495475122
 21
0.3044057289495201
 31
0.0
  0
LINE
  5
D4
330
1F
100
AcDbEntity
  8
STANDARD
  6
AUSGEZOGEN
 62
     7
370
    18
100
AcDbLine
 10
-5.072776495475122
 20
0.29779248029546
 30
0.0
 11
-5.072776495475122
 21
0.29784910462249
 31
0.0
  0
ARC
  5
D5
330
1F
100
AcDbEntity
  8
STANDARD
  6
AUSGEZOGEN
 62
     7
370
    18
100
AcDbCircle
 10
-5.071276495475121
 20
0.29779248029546
 30
0.0
 40
0.0015
100
AcDbArc
 50
180.0
 51
239.999999999996
  0
LINE
  5
D6
330
1F
100
AcDbEntity
  8
STANDARD
  6
AUSGEZOGEN
 62
     7
370
    18
100
AcDbLine
 10
-5.071776495475122
 20
0.30584910462249
 30
0.0
 11
-5.072026495475122
 21
0.30570476705519
 31
0.0
  0
LINE
  5
D7
330
1F
100
AcDbEntity
  8
STANDARD
  6
AUSGEZOGEN
 62
     7
370
    18
100
AcDbLine
 10
-5.072026495475122
 20
0.29649344218979
 30
0.0
 11
-5.071776495475122
 21
0.29634910462249
 31
0.0
  0
LINE
  5
D8
330
1F
100
AcDbEntity
  8
STANDARD
  6
AUSGEZOGEN
 62
     7
370
    18
100
AcDbLine
 10
-5.074776495475135
 20
0.29434910462249
 30
0.0
 11
-5.071776495475133
 21
0.29434910462249
 31
0.0
  0
LINE
  5
D9
330
1F
100
AcDbEntity
  8
STANDARD
  6
AUSGEZOGEN
 62
     7
370
    18
100
AcDbLine
 10
-5.07265143690144
 20
0.31748286234726
 30
0.0
 11
-5.074559385469229
 21
0.3204346379622001
 31
0.0
  0
ARC
  5
DA
330
1F
100
AcDbEntity
  8
STANDARD
  6
AUSGEZOGEN
 62
     7
370
    18
100
AcDbCircle
 10
-5.069520389300429
 20
0.32369170990043
 30
0.0
 40
0.003
100
AcDbArc
 50
167.8775431789981
 51
183.8803862215093
  0
ARC
  5
DB
330
1F
100
AcDbEntity
  8
STANDARD
  6
AUSGEZOGEN
 62
     7
370
    18
100
AcDbCircle
 10
-5.069520389300429
 20
0.32369170990043
 30
0.0
 40
0.003
100
AcDbArc
 50
183.8803862215093
 51
212.8775431789945
  0
ARC
  5
DC
330
1F
100
AcDbEntity
  8
STANDARD
  6
AUSGEZOGEN
 62
     7
370
    18
100
AcDbCircle
 10
-5.069520389300429
 20
0.32369170990043
 30
0.0
 40
0.006
100
AcDbArc
 50
183.8803862215093
 51
212.8775431789986
  0
ARC
  5
DD
330
1F
100
AcDbEntity
  8
STANDARD
  6
AUSGEZOGEN
 62
     7
370
    18
100
AcDbCircle
 10
-5.069520389300429
 20
0.32369170990043
 30
0.0
 40
0.0059999999999999
100
AcDbArc
 50
167.8775431789971
 51
183.8803862215093
  0
LINE
  5
DE
330
1F
100
AcDbEntity
  8
STANDARD
  6
AUSGEZOGEN
 62
     7
370
    18
100
AcDbLine
 10
-5.075386595316097
 20
0.3249517206074301
 30
0.0
 11
-5.071845554559106
 21
0.3414376714608801
 31
0.0
  0
ARC
  5
DF
330
1F
100
AcDbEntity
  8
STANDARD
  6
AUSGEZOGEN
 62
     7
370
    18
100
AcDbCircle
 10
-5.074778657566939
 20
0.3420676768143801
 30
0.0
 40
0.0030000000000001
100
AcDbArc
 50
347.8775431789981
 51
3.88038622150931
  0
LINE
  5
E0
330
1F
100
AcDbEntity
  8
STANDARD
  6
AUSGEZOGEN
 62
     7
370
    18
100
AcDbLine
 10
-5.07177649547511
 20
0.32747359553016
 30
0.0
 11
-5.072453492308262
 21
0.32432171525393
 31
0.0
  0
LINE
  5
E1
330
1F
100
AcDbEntity
  8
STANDARD
  6
AUSGEZOGEN
 62
     7
370
    18
100
AcDbLine
 10
-5.072039887384828
 20
0.32206317393131
 30
0.0
 11
-5.071776495475111
 21
0.32165568191114
 31
0.0
  0
LINE
  5
E2
330
1F
100
AcDbEntity
  8
STANDARD
  6
AUSGEZOGEN
 62
     7
370
    18
100
AcDbLine
 10
-5.071776495475113
 20
0.31612924579264
 30
0.0
 11
-5.07265143690144
 21
0.31748286234726
 31
0.0
  0
ARC
  5
E3
330
1F
100
AcDbEntity
  8
STANDARD
  6
VERDECKT
 62
     7
370
    13
100
AcDbCircle
 10
-5.082026495475129
 20
0.30919365613786
 30
0.0
 40
0.0004999999999999
100
AcDbArc
 50
338.5832859669447
 51
0.0
  0
LINE
  5
E4
330
1F
100
AcDbEntity
  8
STANDARD
  6
VERDECKT
 62
     7
370
    13
100
AcDbLine
 10
-5.08152649547513
 20
0.30959910462249
 30
0.0
 11
-5.08152649547513
 21
0.30919365613786
 31
0.0
  0
ARC
  5
E5
330
1F
100
AcDbEntity
  8
STANDARD
  6
VERDECKT
 62
     7
370
    13
100
AcDbCircle
 10
-5.082026495475131
 20
0.30645504335033
 30
0.0
 40
0.0004999999999999
100
AcDbArc
 50
158.5832859669447
 51
180.0
  0
LINE
  5
E6
330
1F
100
AcDbEntity
  8
STANDARD
  6
AUSGEZOGEN
 62
     7
370
    18
100
AcDbLine
 10
-5.075521013114158
 20
0.30134910462249
 30
0.0
 11
-5.072776495475122
 21
0.30134910462249
 31
0.0
  0
LINE
  5
E7
330
1F
100
AcDbEntity
  8
STANDARD
  6
STRICHPUNKT
 62
     7
370
    18
100
AcDbLine
 10
-5.109295995508289
 20
0.86511071014343
 30
0.0
 11
-4.631521013114103
 21
0.86511071014343
 31
0.0
  0
HATCH
  5
E8
330
1F
100
AcDbEntity
  8
STANDARD
  6
AUSGEZOGEN
 62
     9
420
 13092807
370
    18
100
AcDbHatch
 10
0.0
 20
0.0
 30
0.0
210
0.0
220
0.0
230
1.0
  2
SOLID
 70
     1
 71
     0
 91
        1
 92
        3
 72
     0
 73
     1
 93
        4
 10
-5.095521013114086
 20
0.86511071014343
 10
-5.095521013114086
 20
0.30134910462249
 10
-5.075521013114158
 20
0.30134910462249
 10
-5.075521013114158
 20
0.86511071014343
 97
        0
 75
     0
 76
     1
 98
        0
  0
ARC
  5
E9
330
1F
100
AcDbEntity
  8
STANDARD
  6
AUSGEZOGEN
 62
     7
370
    18
100
AcDbCircle
 10
-5.079526495475134
 20
0.2978491046225
 30
0.0
 40
0.0015
100
AcDbArc
 50
270.0
 51
90.0
  0
LINE
  5
EA
330
1F
100
AcDbEntity
  8
STANDARD
  6
AUSGEZOGEN
 62
     7
370
    18
100
AcDbLine
 10
-5.089026495475133
 20
0.2963491046225
 30
0.0
 11
-5.089026495475133
 21
0.3013491046225
 31
0.0
  0
LINE
  5
EB
330
1F
100
AcDbEntity
  8
STANDARD
  6
AUSGEZOGEN
 62
     7
370
    18
100
AcDbLine
 10
-5.079526495475134
 20
0.2963491046225
 30
0.0
 11
-5.084526495475134
 21
0.2963491046225
 31
0.0
  0
LINE
  5
EC
330
1F
100
AcDbEntity
  8
STANDARD
  6
AUSGEZOGEN
 62
     7
370
    18
100
AcDbLine
 10
-5.084526495475132
 20
0.2993491046225
 30
0.0
 11
-5.079526495475132
 21
0.2993491046225
 31
0.0
  0
ARC
  5
ED
330
1F
100
AcDbEntity
  8
STANDARD
  6
AUSGEZOGEN
 62
     7
370
    18
100
AcDbCircle
 10
-5.084526495475134
 20
0.2978491046225
 30
0.0
 40
0.0015
100
AcDbArc
 50
90.0
 51
270.0
  0
ARC
  5
EE
330
1F
100
AcDbEntity
  8
STANDARD
  6
VERDECKT
 62
     7
370
    18
100
AcDbCircle
 10
-5.087026495475134
 20
0.2963491046225
 30
0.0
 40
0.002
100
AcDbArc
 50
180.0
 51
270.0
  0
LINE
  5
EF
330
1F
100
AcDbEntity
  8
STANDARD
  6
AUSGEZOGEN
 62
     7
370
    18
100
AcDbLine
 10
-5.087026495475134
 20
0.29434910462249
 30
0.0
 11
-5.074776495475135
 21
0.29434910462249
 31
0.0
  0
LINE
  5
F0
330
1F
100
AcDbEntity
  8
STANDARD
  6
VERDECKT
 62
     7
370
    13
100
AcDbLine
 10
-5.089026495475131
 20
0.30134910462249
 30
0.0
 11
-5.089026495475129
 21
0.3085991046225
 31
0.0
  0
ARC
  5
F1
330
1F
100
AcDbEntity
  8
STANDARD
  6
VERDECKT
 62
     7
370
    13
100
AcDbCircle
 10
-5.087026495475129
 20
0.30859910462249
 30
0.0
 40
0.002
100
AcDbArc
 50
90.0
 51
180.0
  0
LINE
  5
F2
330
1F
100
AcDbEntity
  8
STANDARD
  6
VERDECKT
 62
     7
370
    13
100
AcDbLine
 10
-5.087026495475129
 20
0.31059910462249
 30
0.0
 11
-5.082526495475129
 21
0.31059910462249
 31
0.0
  0
ARC
  5
F3
330
1F
100
AcDbEntity
  8
STANDARD
  6
VERDECKT
 62
     7
370
    13
100
AcDbCircle
 10
-5.082526495475129
 20
0.30959910462249
 30
0.0
 40
0.001
100
AcDbArc
 50
0.0
 51
90.0
  0
LINE
  5
F4
330
1F
100
AcDbEntity
  8
STANDARD
  6
VERDECKT
 62
     7
370
    13
100
AcDbLine
 10
-5.082491970143256
 20
0.30663761753617
 30
0.0
 11
-5.081561020807005
 21
0.30901108195202
 31
0.0
  0
LINE
  5
F5
330
1F
100
AcDbEntity
  8
STANDARD
  6
VERDECKT
 62
     7
370
    13
100
AcDbLine
 10
-5.082526495475133
 20
0.30134910462249
 30
0.0
 11
-5.082526495475131
 21
0.30645504335033
 31
0.0
  0
MTEXT
  5
F6
330
1F
100
AcDbEntity
  8
STANDARD
  6
AUSGEZOGEN
 62
     7
370
    18
100
AcDbMText
 10
-4.459073821706692
 20
-0.2072266673555899
 30
0.0
 40
0.009
 41
0.1138278700808888
 71
     7
 72
     5
  1
\W0.91;STAND:\~MÄRZ\~\~2013
  7
ARIAL
 73
     1
 44
1.0
  0
LINE
  5
F7
330
1F
100
AcDbEntity
  8
STANDARD
  6
AUSGEZOGEN
 62
     7
370
    18
100
AcDbLine
 10
-5.064026495475133
 20
0.2978491046225
 30
0.0
 11
-5.077526495475133
 21
0.2978491046225
 31
0.0
  0
LINE
  5
F8
330
1F
100
AcDbEntity
  8
STANDARD
  6
AUSGEZOGEN
 62
     7
370
    18
100
AcDbLine
 10
-5.068776495475118
 20
0.39284910462249
 30
0.0
 11
-5.068776495475119
 21
0.39484910462249
 31
0.0
  0
LINE
  5
F9
330
1F
100
AcDbEntity
  8
STANDARD
  6
AUSGEZOGEN
 62
     7
370
    18
100
AcDbLine
 10
-5.068776495475118
 20
0.30134910462249
 30
0.0
 11
-5.068776495475118
 21
0.2878491046224936
 31
0.0
  0
LINE
  5
FA
330
1F
100
AcDbEntity
  8
STANDARD
  6
AUSGEZOGEN
 62
     7
370
    18
100
AcDbLine
 10
-5.068776495475118
 20
0.3013491046224862
 30
0.0
 11
-5.068776495475119
 21
0.28784910462249
 31
0.0
  0
LINE
  5
FB
330
1F
100
AcDbEntity
  8
STANDARD
  6
AUSGEZOGEN
 62
     7
370
    18
100
AcDbLine
 10
-5.055776495475119
 20
0.37384910462249
 30
0.0
 11
-5.055776495475119
 21
0.31784910462249
 31
0.0
  0
LINE
  5
FC
330
1F
100
AcDbEntity
  8
STANDARD
  6
AUSGEZOGEN
 62
     7
370
    18
100
AcDbLine
 10
-5.05377649547512
 20
0.3158491046224901
 30
0.0
 11
-5.06677649547512
 21
0.3158491046224901
 31
0.0
  0
LINE
  5
FD
330
1F
100
AcDbEntity
  8
STANDARD
  6
AUSGEZOGEN
 62
     7
370
    18
100
AcDbLine
 10
-5.055776495475119
 20
0.31784910462249
 30
0.0
 11
-5.068776495475119
 21
0.31784910462249
 31
0.0
  0
LINE
  5
FE
330
1F
100
AcDbEntity
  8
STANDARD
  6
AUSGEZOGEN
 62
     7
370
    18
100
AcDbLine
 10
-5.05377649547512
 20
0.37584910462249
 30
0.0
 11
-5.06677649547512
 21
0.37584910462249
 31
0.0
  0
LINE
  5
FF
330
1F
100
AcDbEntity
  8
STANDARD
  6
AUSGEZOGEN
 62
     7
370
    18
100
AcDbLine
 10
-5.068776495475119
 20
0.37384910462249
 30
0.0
 11
-5.055776495475119
 21
0.37384910462249
 31
0.0
  0
LINE
  5
100
330
1F
100
AcDbEntity
  8
STANDARD
  6
AUSGEZOGEN
 62
     7
370
    18
100
AcDbLine
 10
-5.06677649547512
 20
0.28784910462249
 30
0.0
 11
-5.068776495475119
 21
0.28784910462249
 31
0.0
  0
LINE
  5
101
330
1F
100
AcDbEntity
  8
STANDARD
  6
AUSGEZOGEN
 62
     7
370
    18
100
AcDbLine
 10
-5.06677649547512
 20
0.37584910462249
 30
0.0
 11
-5.06677649547512
 21
0.40384910462249
 31
0.0
  0
LINE
  5
102
330
1F
100
AcDbEntity
  8
STANDARD
  6
AUSGEZOGEN
 62
     7
370
    18
100
AcDbLine
 10
-5.06677649547512
 20
0.40384910462249
 30
0.0
 11
-5.068776495475119
 21
0.40384910462249
 31
0.0
  0
LINE
  5
103
330
1F
100
AcDbEntity
  8
STANDARD
  6
AUSGEZOGEN
 62
     7
370
    18
100
AcDbLine
 10
-5.068776495475119
 20
0.40384910462249
 30
0.0
 11
-5.068776495475119
 21
0.37384910462249
 31
0.0
  0
LWPOLYLINE
  5
104
330
1F
100
AcDbEntity
  8
STANDARD
  6
AUSGEZOGEN
 62
     7
370
    18
100
AcDbPolyline
 90
        2
 70
     1
 43
0.0
 10
-5.068776495475119
 20
0.28784910462249
 10
-5.068776495475119
 20
0.28784910462249
  0
LINE
  5
105
330
1F
100
AcDbEntity
  8
STANDARD
  6
AUSGEZOGEN
 62
     7
370
    18
100
AcDbLine
 10
-5.048276495475119
 20
0.34584910462249
 30
0.0
 11
-5.06327649547512
 21
0.34584910462249
 31
0.0
  0
LWPOLYLINE
  5
106
330
1F
100
AcDbEntity
  8
STANDARD
  6
AUSGEZOGEN
 62
     7
370
    18
100
AcDbPolyline
 90
        2
 70
     1
 43
0.0
 10
-5.05377649547512
 20
0.3158491046224901
 10
-5.05377649547512
 20
0.3158491046224901
  0
HATCH
  5
107
330
1F
100
AcDbEntity
  8
STANDARD
  6
AUSGEZOGEN
 62
     0
370
    18
100
AcDbHatch
 10
0.0
 20
0.0
 30
0.0
210
0.0
220
0.0
230
1.0
  2
SOLID
 70
     1
 71
     0
 91
        1
 92
        3
 72
     0
 73
     1
 93
       12
 10
-5.06677649547512
 20
0.28784910462249
 10
-5.06677649547512
 20
0.3158491046224901
 10
-5.05377649547512
 20
0.3158491046224901
 10
-5.05377649547512
 20
0.37584910462249
 10
-5.06677649547512
 20
0.37584910462249
 10
-5.06677649547512
 20
0.40384910462249
 10
-5.068776495475119
 20
0.40384910462249
 10
-5.068776495475119
 20
0.37384910462249
 10
-5.055776495475119
 20
0.37384910462249
 10
-5.055776495475119
 20
0.31784910462249
 10
-5.068776495475119
 20
0.31784910462249
 10
-5.068776495475119
 20
0.28784910462249
 97
        0
 75
     0
 76
     1
 98
        0
  0
LINE
  5
108
330
1F
100
AcDbEntity
  8
STANDARD
  6
AUSGEZOGEN
 62
     7
370
    18
100
AcDbLine
 10
-5.06677649547512
 20
0.3158491046224901
 30
0.0
 11
-5.06677649547512
 21
0.28784910462249
 31
0.0
  0
ENDSEC
  0
SECTION
  2
OBJECTS
  0
DICTIONARY
  5
C
330
0
100
AcDbDictionary
281
     1
  3
ACAD_GROUP
350
D
  3
ACAD_LAYOUT
350
1A
  3
ACAD_MLINESTYLE
350
17
  3
ACAD_PLOTSETTINGS
350
19
  3
ACAD_PLOTSTYLENAME
350
E
  0
DICTIONARY
  5
109
330
1F
100
AcDbDictionary
280
     1
281
     1
  3
ACAD_SORTENTS
360
10A
  0
DICTIONARY
  5
D
102
{ACAD_REACTORS
330
C
102
}
330
C
100
AcDbDictionary
281
     1
  3
KONSTRUKTION_0
350
9F
  0
DICTIONARY
  5
1A
102
{ACAD_REACTORS
330
C
102
}
330
C
100
AcDbDictionary
281
     1
  3
Layout1
350
1E
  3
Layout2
350
26
  3
Model
350
22
  0
DICTIONARY
  5
17
102
{ACAD_REACTORS
330
C
102
}
330
C
100
AcDbDictionary
281
     1
  3
Standard
350
18
  0
DICTIONARY
  5
19
102
{ACAD_REACTORS
330
C
102
}
330
C
100
AcDbDictionary
281
     1
  0
ACDBDICTIONARYWDFLT
  5
E
102
{ACAD_REACTORS
330
C
102
}
330
C
100
AcDbDictionary
281
     1
  3
Normal
350
F
100
AcDbDictionaryWithDefault
340
F
  0
SORTENTSTABLE
  5
10A
102
{ACAD_REACTORS
330
109
102
}
330
109
100
AcDbSortentsTable
330
1F
331
30
  5
3D
331
31
  5
3E
331
32
  5
3F
331
33
  5
40
331
34
  5
41
331
35
  5
42
331
36
  5
43
331
37
  5
44
331
38
  5
45
331
39
  5
46
331
3A
  5
47
331
3B
  5
48
331
3C
  5
49
331
3D
  5
4A
331
3E
  5
4B
331
3F
  5
4C
331
40
  5
4D
331
41
  5
4E
331
42
  5
4F
331
43
  5
50
331
44
  5
51
331
45
  5
52
331
46
  5
53
331
47
  5
54
331
48
  5
55
331
49
  5
56
331
4A
  5
57
331
4B
  5
58
331
4C
  5
59
331
4D
  5
5A
331
4E
  5
5B
331
4F
  5
5D
331
50
  5
5E
331
51
  5
30
331
52
  5
5F
331
53
  5
60
331
54
  5
61
331
55
  5
31
331
56
  5
32
331
57
  5
33
331
58
  5
34
331
59
  5
62
331
5A
  5
63
331
5B
  5
64
331
5D
  5
65
331
5E
  5
66
331
5F
  5
67
331
60
  5
68
331
61
  5
69
331
62
  5
6A
331
63
  5
6B
331
64
  5
6C
331
65
  5
6D
331
66
  5
6E
331
67
  5
6F
331
68
  5
70
331
69
  5
71
331
6A
  5
72
331
6B
  5
73
331
6C
  5
74
331
6D
  5
75
331
6E
  5
76
331
6F
  5
77
331
70
  5
78
331
71
  5
79
331
72
  5
7A
331
73
  5
7B
331
74
  5
7C
331
75
  5
7D
331
76
  5
7E
331
77
  5
7F
331
78
  5
80
331
79
  5
81
331
7A
  5
82
331
7B
  5
83
331
7C
  5
84
331
7D
  5
85
331
7E
  5
86
331
7F
  5
87
331
80
  5
88
331
81
  5
89
331
82
  5
8A
331
83
  5
35
331
84
  5
8B
331
85
  5
8C
331
86
  5
8D
331
87
  5
8E
331
88
  5
8F
331
89
  5
90
331
8A
  5
91
331
8B
  5
92
331
8C
  5
93
331
8D
  5
94
331
8E
  5
95
331
8F
  5
96
331
90
  5
97
331
91
  5
98
331
92
  5
99
331
93
  5
9A
331
94
  5
9B
331
95
  5
9C
331
96
  5
9D
331
97
  5
9E
331
98
  5
A0
331
99
  5
A1
331
9A
  5
A2
331
9B
  5
A3
331
9C
  5
A4
331
9D
  5
A5
331
9E
  5
A6
331
A0
  5
36
331
A1
  5
37
331
A2
  5
38
331
A3
  5
39
331
A4
  5
3A
331
A5
  5
A7
331
A6
  5
A8
331
A7
  5
A9
331
A8
  5
AA
331
A9
  5
AB
331
AA
  5
AC
331
AB
  5
AD
331
AC
  5
AE
331
AD
  5
AF
331
AE
  5
B0
331
AF
  5
B1
331
B0
  5
B2
331
B1
  5
B3
331
B2
  5
B4
331
B3
  5
B5
331
B4
  5
B6
331
B5
  5
B7
331
B6
  5
B8
331
B7
  5
B9
331
B8
  5
BA
331
B9
  5
BB
331
BA
  5
BC
331
BB
  5
BD
331
BC
  5
BE
331
BD
  5
BF
331
BE
  5
C0
331
BF
  5
C1
331
C0
  5
C2
331
C1
  5
C3
331
C2
  5
C4
331
C3
  5
C5
331
C4
  5
C6
331
C5
  5
C7
331
C6
  5
C8
331
C7
  5
C9
331
C8
  5
CA
331
C9
  5
CB
331
CA
  5
CC
331
CB
  5
CD
331
CC
  5
CE
331
CD
  5
CF
331
CE
  5
D0
331
CF
  5
D1
331
D0
  5
D2
331
D1
  5
D3
331
D2
  5
D4
331
D3
  5
D5
331
D4
  5
D6
331
D5
  5
D7
331
D6
  5
D8
331
D7
  5
D9
331
D8
  5
DA
331
D9
  5
DB
331
DA
  5
DC
331
DB
  5
DD
331
DC
  5
DE
331
DD
  5
DF
331
DE
  5
E0
331
DF
  5
E1
331
E0
  5
E2
331
E1
  5
E3
331
E2
  5
E4
331
E3
  5
E5
331
E4
  5
E6
331
E5
  5
E7
331
E6
  5
E8
331
E7
  5
E9
331
E8
  5
3B
331
E9
  5
EA
331
EA
  5
EB
331
EB
  5
EC
331
EC
  5
ED
331
ED
  5
EE
331
EE
  5
EF
331
EF
  5
F0
331
F0
  5
F1
331
F1
  5
F2
331
F2
  5
F3
331
F3
  5
F4
331
F4
  5
F5
331
F5
  5
F6
331
F6
  5
F7
331
F7
  5
F8
331
F8
  5
F9
331
F9
  5
FA
331
FA
  5
FB
331
FB
  5
FC
331
FC
  5
FD
331
FD
  5
FE
331
FE
  5
FF
331
FF
  5
100
331
100
  5
101
331
101
  5
102
331
102
  5
103
331
103
  5
104
331
104
  5
105
331
105
  5
106
331
106
  5
107
331
107
  5
3C
  0
GROUP
  5
9F
102
{ACAD_REACTORS
330
D
102
}
330
D
100
AcDbGroup
300

 70
     0
 71
     1
340
A0
340
A1
  0
LAYOUT
  5
1E
102
{ACAD_REACTORS
330
1A
102
}
330
1A
100
AcDbPlotSettings
  1

  2
none_device
  4

  6

 40
7.5
 41
7.5
 42
7.5
 43
7.5
 44
1485.00015
 45
1050.015
 46
-5356.478492394366
 47
-312.58950103286
 48
0.0
 49
0.0
140
0.0
141
0.0
142
1.0
143
1.0
 70
   688
 72
     1
 73
     0
 74
     5
  7

 75
    16
 76
     0
 77
     2
 78
   300
147
1000.0
148
0.0
149
0.0
100
AcDbLayout
  1
Layout1
 70
     1
 71
     1
 10
0.0
 20
0.0
 11
12.0
 21
9.0
 12
0.0
 22
0.0
 32
0.0
 14
1.000000000000000E+20
 24
1.000000000000000E+20
 34
1.000000000000000E+20
 15
-1.000000000000000E+20
 25
-1.000000000000000E+20
 35
-1.000000000000000E+20
146
0.0
 13
0.0
 23
0.0
 33
0.0
 16
1.0
 26
0.0
 36
0.0
 17
0.0
 27
1.0
 37
0.0
 76
     0
330
1B
  0
LAYOUT
  5
26
102
{ACAD_REACTORS
330
1A
102
}
330
1A
100
AcDbPlotSettings
  1

  2

  4

  6

 40
0.0
 41
0.0
 42
0.0
 43
0.0
 44
0.0
 45
0.0
 46
0.0
 47
0.0
 48
0.0
 49
0.0
140
0.0
141
0.0
142
1.0
143
1.0
 70
   688
 72
     0
 73
     0
 74
     5
  7

 75
    16
 76
     0
 77
     2
 78
   300
147
1.0
148
0.0
149
0.0
100
AcDbLayout
  1
Layout2
 70
     1
 71
     2
 10
0.0
 20
0.0
 11
0.0
 21
0.0
 12
0.0
 22
0.0
 32
0.0
 14
0.0
 24
0.0
 34
0.0
 15
0.0
 25
0.0
 35
0.0
146
0.0
 13
0.0
 23
0.0
 33
0.0
 16
1.0
 26
0.0
 36
0.0
 17
0.0
 27
1.0
 37
0.0
 76
     0
330
23
  0
LAYOUT
  5
22
102
{ACAD_REACTORS
330
1A
102
}
330
1A
100
AcDbPlotSettings
  1

  2

  4

  6

 40
0.0
 41
0.0
 42
0.0
 43
0.0
 44
0.0
 45
0.0
 46
0.0
 47
0.0
 48
0.0
 49
0.0
140
0.0
141
0.0
142
1.0
143
1.0
 70
  1712
 72
     0
 73
     0
 74
     0
  7

 75
     0
 76
     0
 77
     2
 78
   300
147
1.0
148
0.0
149
0.0
100
AcDbLayout
  1
Model
 70
     1
 71
     0
 10
-5.356485992394366
 20
-0.31259700103286
 11
-4.306485992394366
 21
1.17238814896714
 12
0.0
 22
0.0
 32
0.0
 14
-5.356485992394366
 24
-0.31259700103286
 34
-5.356485992394366
 15
-4.306485992394366
 25
1.17238814896714
 35
-4.306485992394366
146
0.0
 13
0.0
 23
0.0
 33
0.0
 16
1.0
 26
0.0
 36
0.0
 17
0.0
 27
1.0
 37
0.0
 76
     0
330
1F
  0
MLINESTYLE
  5
18
102
{ACAD_REACTORS
330
17
102
}
330
17
100
AcDbMlineStyle
  2
Standard
 70
     0
  3

 62
   256
 51
90.0
 52
90.0
 71
     2
 49
0.5
 62
   256
  6
BYLAYER
 49
-0.5
 62
   256
  6
BYLAYER
  0
ACDBPLACEHOLDER
  5
F
102
{ACAD_REACTORS
330
E
102
}
330
E
  0
ENDSEC
  0
EOF
