  0
SECTION
  2
HEADER
  9
$ACADVER
  1
AC1018
  9
$ACADMAINTVER
 70
     0
  9
$DWGCODEPAGE
  3
ANSI_932
  9
$INSBASE
 10
0.0
 20
0.0
 30
0.0
  9
$EXTMIN
 10
1.000000000000000E+20
 20
1.000000000000000E+20
 30
1.000000000000000E+20
  9
$EXTMAX
 10
-1.000000000000000E+20
 20
-1.000000000000000E+20
 30
-1.000000000000000E+20
  9
$LIMMIN
 10
0.0
 20
0.0
  9
$LIMMAX
 10
12.0
 20
9.0
  9
$ORTHOMODE
 70
     0
  9
$REGENMODE
 70
     1
  9
$FILLMODE
 70
     1
  9
$QTEXTMODE
 70
     0
  9
$MIRRTEXT
 70
     1
  9
$LTSCALE
 40
1.0
  9
$ATTMODE
 70
     1
  9
$TEXTSIZE
 40
0.2
  9
$TRACEWID
 40
0.05
  9
$TEXTSTYLE
  7
Standard
  9
$CLAYER
  8
0
  9
$CELTYPE
  6
ByLayer
  9
$CECOLOR
 62
   256
  9
$CELTSCALE
 40
1.0
  9
$DISPSILH
 70
     0
  9
$DIMSCALE
 40
1.0
  9
$DIMASZ
 40
0.18
  9
$DIMEXO
 40
0.0625
  9
$DIMDLI
 40
0.38
  9
$DIMRND
 40
0.0
  9
$DIMDLE
 40
0.0
  9
$DIMEXE
 40
0.18
  9
$DIMTP
 40
0.0
  9
$DIMTM
 40
0.0
  9
$DIMTXT
 40
0.18
  9
$DIMCEN
 40
0.09
  9
$DIMTSZ
 40
0.0
  9
$DIMTOL
 70
     0
  9
$DIMLIM
 70
     0
  9
$DIMTIH
 70
     1
  9
$DIMTOH
 70
     1
  9
$DIMSE1
 70
     0
  9
$DIMSE2
 70
     0
  9
$DIMTAD
 70
     0
  9
$DIMZIN
 70
     0
  9
$DIMBLK
  1

  9
$DIMASO
 70
     1
  9
$DIMSHO
 70
     1
  9
$DIMPOST
  1

  9
$DIMAPOST
  1

  9
$DIMALT
 70
     0
  9
$DIMALTD
 70
     2
  9
$DIMALTF
 40
25.4
  9
$DIMLFAC
 40
1.0
  9
$DIMTOFL
 70
     0
  9
$DIMTVP
 40
0.0
  9
$DIMTIX
 70
     0
  9
$DIMSOXD
 70
     0
  9
$DIMSAH
 70
     0
  9
$DIMBLK1
  1

  9
$DIMBLK2
  1

  9
$DIMSTYLE
  2
Standard
  9
$DIMCLRD
 70
     0
  9
$DIMCLRE
 70
     0
  9
$DIMCLRT
 70
     0
  9
$DIMTFAC
 40
1.0
  9
$DIMGAP
 40
0.09
  9
$DIMJUST
 70
     0
  9
$DIMSD1
 70
     0
  9
$DIMSD2
 70
     0
  9
$DIMTOLJ
 70
     1
  9
$DIMTZIN
 70
     0
  9
$DIMALTZ
 70
     0
  9
$DIMALTTZ
 70
     0
  9
$DIMUPT
 70
     0
  9
$DIMDEC
 70
     4
  9
$DIMTDEC
 70
     4
  9
$DIMALTU
 70
     2
  9
$DIMALTTD
 70
     2
  9
$DIMTXSTY
  7
Standard
  9
$DIMAUNIT
 70
     0
  9
$DIMADEC
 70
     0
  9
$DIMALTRND
 40
0.0
  9
$DIMAZIN
 70
     0
  9
$DIMDSEP
 70
    46
  9
$DIMATFIT
 70
     3
  9
$DIMFRAC
 70
     0
  9
$DIMLDRBLK
  1

  9
$DIMLUNIT
 70
     2
  9
$DIMLWD
 70
    -2
  9
$DIMLWE
 70
    -2
  9
$DIMTMOVE
 70
     0
  9
$LUNITS
 70
     2
  9
$LUPREC
 70
     4
  9
$SKETCHINC
 40
0.1
  9
$FILLETRAD
 40
0.5
  9
$AUNITS
 70
     0
  9
$AUPREC
 70
     0
  9
$MENU
  1
.
  9
$ELEVATION
 40
0.0
  9
$PELEVATION
 40
0.0
  9
$THICKNESS
 40
0.0
  9
$LIMCHECK
 70
     0
  9
$CHAMFERA
 40
0.5
  9
$CHAMFERB
 40
0.5
  9
$CHAMFERC
 40
1.0
  9
$CHAMFERD
 40
0.0
  9
$SKPOLY
 70
     0
  9
$TDCREATE
 40
2456077.612152778
  9
$TDUCREATE
 40
2456077.570486111
  9
$TDUPDATE
 40
2456077.612152789
  9
$TDUUPDATE
 40
2456077.570486123
  9
$TDINDWG
 40
0.0000000116
  9
$TDUSRTIMER
 40
0.0000000116
  9
$USRTIMER
 70
     1
  9
$ANGBASE
 50
0.0
  9
$ANGDIR
 70
     0
  9
$PDMODE
 70
     0
  9
$PDSIZE
 40
0.0
  9
$PLINEWID
 40
0.0
  9
$SPLFRAME
 70
     0
  9
$SPLINETYPE
 70
     6
  9
$SPLINESEGS
 70
     8
  9
$HANDSEED
  5
5E5
  9
$SURFTAB1
 70
     6
  9
$SURFTAB2
 70
     6
  9
$SURFTYPE
 70
     6
  9
$SURFU
 70
     6
  9
$SURFV
 70
     6
  9
$UCSBASE
  2

  9
$UCSNAME
  2

  9
$UCSORG
 10
0.0
 20
0.0
 30
0.0
  9
$UCSXDIR
 10
1.0
 20
0.0
 30
0.0
  9
$UCSYDIR
 10
0.0
 20
1.0
 30
0.0
  9
$UCSORTHOREF
  2

  9
$UCSORTHOVIEW
 70
     0
  9
$UCSORGTOP
 10
0.0
 20
0.0
 30
0.0
  9
$UCSORGBOTTOM
 10
0.0
 20
0.0
 30
0.0
  9
$UCSORGLEFT
 10
0.0
 20
0.0
 30
0.0
  9
$UCSORGRIGHT
 10
0.0
 20
0.0
 30
0.0
  9
$UCSORGFRONT
 10
0.0
 20
0.0
 30
0.0
  9
$UCSORGBACK
 10
0.0
 20
0.0
 30
0.0
  9
$PUCSBASE
  2

  9
$PUCSNAME
  2

  9
$PUCSORG
 10
0.0
 20
0.0
 30
0.0
  9
$PUCSXDIR
 10
1.0
 20
0.0
 30
0.0
  9
$PUCSYDIR
 10
0.0
 20
1.0
 30
0.0
  9
$PUCSORTHOREF
  2

  9
$PUCSORTHOVIEW
 70
     0
  9
$PUCSORGTOP
 10
0.0
 20
0.0
 30
0.0
  9
$PUCSORGBOTTOM
 10
0.0
 20
0.0
 30
0.0
  9
$PUCSORGLEFT
 10
0.0
 20
0.0
 30
0.0
  9
$PUCSORGRIGHT
 10
0.0
 20
0.0
 30
0.0
  9
$PUCSORGFRONT
 10
0.0
 20
0.0
 30
0.0
  9
$PUCSORGBACK
 10
0.0
 20
0.0
 30
0.0
  9
$USERI1
 70
     0
  9
$USERI2
 70
     0
  9
$USERI3
 70
     0
  9
$USERI4
 70
     0
  9
$USERI5
 70
     0
  9
$USERR1
 40
0.0
  9
$USERR2
 40
0.0
  9
$USERR3
 40
0.0
  9
$USERR4
 40
0.0
  9
$USERR5
 40
0.0
  9
$WORLDVIEW
 70
     1
  9
$SHADEDGE
 70
     3
  9
$SHADEDIF
 70
    70
  9
$TILEMODE
 70
     1
  9
$MAXACTVP
 70
    64
  9
$PINSBASE
 10
0.0
 20
0.0
 30
0.0
  9
$PLIMCHECK
 70
     0
  9
$PEXTMIN
 10
1.000000000000000E+20
 20
1.000000000000000E+20
 30
1.000000000000000E+20
  9
$PEXTMAX
 10
-1.000000000000000E+20
 20
-1.000000000000000E+20
 30
-1.000000000000000E+20
  9
$PLIMMIN
 10
0.0
 20
0.0
  9
$PLIMMAX
 10
12.0
 20
9.0
  9
$UNITMODE
 70
     0
  9
$VISRETAIN
 70
     1
  9
$PLINEGEN
 70
     0
  9
$PSLTSCALE
 70
     1
  9
$TREEDEPTH
 70
  3020
  9
$CMLSTYLE
  2
Standard
  9
$CMLJUST
 70
     0
  9
$CMLSCALE
 40
1.0
  9
$PROXYGRAPHICS
 70
     1
  9
$MEASUREMENT
 70
     0
  9
$CELWEIGHT
370
    -1
  9
$ENDCAPS
280
     0
  9
$JOINSTYLE
280
     0
  9
$LWDISPLAY
290
     1
  9
$INSUNITS
 70
     1
  9
$HYPERLINKBASE
  1

  9
$STYLESHEET
  1

  9
$XEDIT
290
     1
  9
$CEPSNTYPE
380
     0
  9
$PSTYLEMODE
290
     1
  9
$FINGERPRINTGUID
  2
{A961E0A4-52CB-6D88-04F4-D4EF3CD17923}
  9
$VERSIONGUID
  2
{FAEB1C32-E019-11D5-929B-00C0DF256EC4}
  9
$EXTNAMES
290
     1
  9
$PSVPSCALE
 40
0.0
  9
$OLESTARTUP
290
     0
  9
$SORTENTS
280
   127
  9
$INDEXCTL
280
     0
  9
$HIDETEXT
280
     1
  9
$XCLIPFRAME
290
     0
  9
$HALOGAP
280
     0
  9
$OBSCOLOR
 70
   257
  9
$OBSLTYPE
280
     0
  9
$INTERSECTIONDISPLAY
280
     0
  9
$INTERSECTIONCOLOR
 70
   257
  9
$DIMASSOC
280
     2
  9
$PROJECTNAME
  1

  0
ENDSEC
  0
SECTION
  2
CLASSES
  0
CLASS
  1
ACDBDICTIONARYWDFLT
  2
AcDbDictionaryWithDefault
  3
ObjectDBX Classes
 90
        0
 91
        3
280
     0
281
     0
  0
CLASS
  1
VISUALSTYLE
  2
AcDbVisualStyle
  3
ObjectDBX Classes
 90
     4095
 91
        3
280
     0
281
     0
  0
ENDSEC
  0
SECTION
  2
TABLES
  0
TABLE
  2
VPORT
  5
8
330
0
100
AcDbSymbolTable
 70
     1
  0
VPORT
  5
29
330
8
100
AcDbSymbolTableRecord
100
AcDbViewportTableRecord
  2
*Active
 70
     0
 10
0.0
 20
0.0
 11
1.0
 21
1.0
 12
0.0
 22
0.0
 13
0.0
 23
0.0
 14
0.5
 24
0.5
 15
0.5
 25
0.5
 16
0.0
 26
0.0
 36
1.0
 17
105.0008259828644
 27
-148.4999796178229
 37
0.0
 40
296.9999592356459
 41
0.7070763662937379
 42
50.0
 43
0.0
 44
0.0
 50
0.0
 51
0.0
 71
     0
 72
   100
 73
     1
 74
     3
 75
     0
 76
     0
 77
     0
 78
     0
281
     0
 65
     1
110
0.0
120
0.0
130
0.0
111
1.0
121
0.0
131
0.0
112
0.0
122
1.0
132
0.0
 79
     0
146
0.0
  0
ENDTAB
  0
TABLE
  2
LTYPE
  5
5
330
0
100
AcDbSymbolTable
 70
     1
  0
LTYPE
  5
14
330
5
100
AcDbSymbolTableRecord
100
AcDbLinetypeTableRecord
  2
ByBlock
 70
     0
  3

 72
    65
 73
     0
 40
0.0
  0
LTYPE
  5
15
330
5
100
AcDbSymbolTableRecord
100
AcDbLinetypeTableRecord
  2
ByLayer
 70
     0
  3

 72
    65
 73
     0
 40
0.0
  0
LTYPE
  5
16
330
5
100
AcDbSymbolTableRecord
100
AcDbLinetypeTableRecord
  2
Continuous
 70
     0
  3
Solid line
 72
    65
 73
     0
 40
0.0
  0
ENDTAB
  0
TABLE
  2
LAYER
  5
2
330
0
100
AcDbSymbolTable
 70
     2
  0
LAYER
  5
10
330
2
100
AcDbSymbolTableRecord
100
AcDbLayerTableRecord
  2
0
 70
     0
 62
     7
  6
Continuous
370
    -3
390
F
  0
LAYER
  5
3B
330
2
100
AcDbSymbolTableRecord
100
AcDbLayerTableRecord
  2
Ebene 1
 70
     0
 62
     7
  6
Continuous
370
    -3
390
F
  0
ENDTAB
  0
TABLE
  2
STYLE
  5
3
330
0
100
AcDbSymbolTable
 70
     1
  0
STYLE
  5
11
330
3
100
AcDbSymbolTableRecord
100
AcDbTextStyleTableRecord
  2
Standard
 70
     0
 40
0.0
 41
1.0
 50
0.0
 71
     0
 42
0.2
  3
txt
  4

  0
ENDTAB
  0
TABLE
  2
VIEW
  5
6
330
0
100
AcDbSymbolTable
 70
     0
  0
ENDTAB
  0
TABLE
  2
UCS
  5
7
330
0
100
AcDbSymbolTable
 70
     0
  0
ENDTAB
  0
TABLE
  2
APPID
  5
9
330
0
100
AcDbSymbolTable
 70
     1
  0
APPID
  5
12
330
9
100
AcDbSymbolTableRecord
100
AcDbRegAppTableRecord
  2
ACAD
 70
     0
  0
ENDTAB
  0
TABLE
  2
DIMSTYLE
  5
A
330
0
100
AcDbSymbolTable
 70
     1
100
AcDbDimStyleTable
  0
DIMSTYLE
105
27
330
A
100
AcDbSymbolTableRecord
100
AcDbDimStyleTableRecord
  2
Standard
 70
     0
340
11
  0
ENDTAB
  0
TABLE
  2
BLOCK_RECORD
  5
1
330
0
100
AcDbSymbolTable
 70
     5
  0
BLOCK_RECORD
  5
1F
330
1
100
AcDbSymbolTableRecord
100
AcDbBlockTableRecord
  2
*Model_Space
340
22
  0
BLOCK_RECORD
  5
1B
330
1
100
AcDbSymbolTableRecord
100
AcDbBlockTableRecord
  2
*Paper_Space
340
1E
  0
BLOCK_RECORD
  5
23
330
1
100
AcDbSymbolTableRecord
100
AcDbBlockTableRecord
  2
*Paper_Space0
340
26
  0
BLOCK_RECORD
  5
3C
330
1
100
AcDbSymbolTableRecord
100
AcDbBlockTableRecord
  2
block 2
340
0
102
{BLKREFS
331
3D
102
}
  0
BLOCK_RECORD
  5
145
330
1
100
AcDbSymbolTableRecord
100
AcDbBlockTableRecord
  2
block 3
340
0
102
{BLKREFS
331
146
102
}
  0
BLOCK_RECORD
  5
298
330
1
100
AcDbSymbolTableRecord
100
AcDbBlockTableRecord
  2
block 4
340
0
102
{BLKREFS
331
299
102
}
  0
BLOCK_RECORD
  5
30F
330
1
100
AcDbSymbolTableRecord
100
AcDbBlockTableRecord
  2
block 5
340
0
102
{BLKREFS
331
310
102
}
  0
ENDTAB
  0
ENDSEC
  0
SECTION
  2
BLOCKS
  0
BLOCK
  5
20
330
1F
100
AcDbEntity
  8
0
100
AcDbBlockBegin
  2
*Model_Space
 70
     0
 71
     0
 10
0.0
 20
0.0
 30
0.0
  3
*Model_Space
  1

  0
ENDBLK
  5
21
330
1F
100
AcDbEntity
  8
0
100
AcDbBlockEnd
  0
BLOCK
  5
1C
330
1B
100
AcDbEntity
 67
     1
  8
0
100
AcDbBlockBegin
  2
*Paper_Space
 70
     0
 71
     0
 10
0.0
 20
0.0
 30
0.0
  3
*Paper_Space
  1

  0
ENDBLK
  5
1D
330
1B
100
AcDbEntity
 67
     1
  8
0
100
AcDbBlockEnd
  0
BLOCK
  5
24
330
23
100
AcDbEntity
  8
0
100
AcDbBlockBegin
  2
*Paper_Space0
 70
     0
 71
     0
 10
0.0
 20
0.0
 30
0.0
  3
*Paper_Space0
  1

  0
ENDBLK
  5
25
330
23
100
AcDbEntity
  8
0
100
AcDbBlockEnd
  0
BLOCK
  5
3E
330
3C
100
AcDbEntity
  8
0
100
AcDbBlockBegin
  2
block 2
 70
     0
 71
     0
 10
0.0
 20
0.0
 30
0.0
  3
block 2
  1

  0
POLYLINE
  5
40
330
3C
100
AcDbEntity
  8
Ebene 1
 62
   179
420
  1709851
370
    18
100
AcDb2dPolyline
 66
     1
 10
0.0
 20
0.0
 30
0.0
  0
VERTEX
  5
41
330
40
100
AcDbEntity
  8
Ebene 1
 62
   179
420
  1709851
370
    18
100
AcDbVertex
100
AcDb2dVertex
 10
20.35172932433915
 20
-93.20068492678664
 30
0.0
  0
VERTEX
  5
42
330
40
100
AcDbEntity
  8
Ebene 1
 62
   179
420
  1709851
370
    18
100
AcDbVertex
100
AcDb2dVertex
 10
26.63816731104879
 20
-86.93508976776276
 30
0.0
  0
SEQEND
  5
43
330
40
100
AcDbEntity
  8
Ebene 1
370
    18
  0
POLYLINE
  5
44
330
3C
100
AcDbEntity
  8
Ebene 1
 62
   179
420
  1709851
370
    18
100
AcDb2dPolyline
 66
     1
 10
0.0
 20
0.0
 30
0.0
  0
VERTEX
  5
45
330
44
100
AcDbEntity
  8
Ebene 1
 62
   179
420
  1709851
370
    18
100
AcDbVertex
100
AcDb2dVertex
 10
20.35172932433915
 20
-107.3397013078005
 30
0.0
  0
VERTEX
  5
46
330
44
100
AcDbEntity
  8
Ebene 1
 62
   179
420
  1709851
370
    18
100
AcDbVertex
100
AcDb2dVertex
 10
40.77752820161118
 20
-86.93508976776276
 30
0.0
  0
SEQEND
  5
47
330
44
100
AcDbEntity
  8
Ebene 1
370
    18
  0
POLYLINE
  5
48
330
3C
100
AcDbEntity
  8
Ebene 1
 62
   179
420
  1709851
370
    18
100
AcDb2dPolyline
 66
     1
 10
0.0
 20
0.0
 30
0.0
  0
VERTEX
  5
49
330
48
100
AcDbEntity
  8
Ebene 1
 62
   179
420
  1709851
370
    18
100
AcDbVertex
100
AcDb2dVertex
 10
20.35172932433915
 20
-121.4790621983629
 30
0.0
  0
VERTEX
  5
4A
330
48
100
AcDbEntity
  8
Ebene 1
 62
   179
420
  1709851
370
    18
100
AcDbVertex
100
AcDb2dVertex
 10
54.91688909217356
 20
-86.93508976776276
 30
0.0
  0
SEQEND
  5
4B
330
48
100
AcDbEntity
  8
Ebene 1
370
    18
  0
POLYLINE
  5
4C
330
3C
100
AcDbEntity
  8
Ebene 1
 62
   179
420
  1709851
370
    18
100
AcDb2dPolyline
 66
     1
 10
0.0
 20
0.0
 30
0.0
  0
VERTEX
  5
4D
330
4C
100
AcDbEntity
  8
Ebene 1
 62
   179
420
  1709851
370
    18
100
AcDbVertex
100
AcDb2dVertex
 10
20.35172932433915
 20
-135.6184230889253
 30
0.0
  0
VERTEX
  5
4E
330
4C
100
AcDbEntity
  8
Ebene 1
 62
   179
420
  1709851
370
    18
100
AcDbVertex
100
AcDb2dVertex
 10
69.05624998273593
 20
-86.93508976776276
 30
0.0
  0
SEQEND
  5
4F
330
4C
100
AcDbEntity
  8
Ebene 1
370
    18
  0
POLYLINE
  5
50
330
3C
100
AcDbEntity
  8
Ebene 1
 62
   179
420
  1709851
370
    18
100
AcDb2dPolyline
 66
     1
 10
0.0
 20
0.0
 30
0.0
  0
VERTEX
  5
51
330
50
100
AcDbEntity
  8
Ebene 1
 62
   179
420
  1709851
370
    18
100
AcDbVertex
100
AcDb2dVertex
 10
23.18807643734534
 20
-146.9214368664815
 30
0.0
  0
VERTEX
  5
52
330
50
100
AcDbEntity
  8
Ebene 1
 62
   179
420
  1709851
370
    18
100
AcDbVertex
100
AcDb2dVertex
 10
83.19561087329832
 20
-86.93508976776276
 30
0.0
  0
SEQEND
  5
53
330
50
100
AcDbEntity
  8
Ebene 1
370
    18
  0
POLYLINE
  5
54
330
3C
100
AcDbEntity
  8
Ebene 1
 62
   179
420
  1709851
370
    18
100
AcDb2dPolyline
 66
     1
 10
0.0
 20
0.0
 30
0.0
  0
VERTEX
  5
55
330
54
100
AcDbEntity
  8
Ebene 1
 62
   179
420
  1709851
370
    18
100
AcDbVertex
100
AcDb2dVertex
 10
37.34862466514201
 20
-146.9214368664815
 30
0.0
  0
VERTEX
  5
56
330
54
100
AcDbEntity
  8
Ebene 1
 62
   179
420
  1709851
370
    18
100
AcDbVertex
100
AcDb2dVertex
 10
97.33497176386071
 20
-86.93508976776276
 30
0.0
  0
SEQEND
  5
57
330
54
100
AcDbEntity
  8
Ebene 1
370
    18
  0
POLYLINE
  5
58
330
3C
100
AcDbEntity
  8
Ebene 1
 62
   179
420
  1709851
370
    18
100
AcDb2dPolyline
 66
     1
 10
0.0
 20
0.0
 30
0.0
  0
VERTEX
  5
59
330
58
100
AcDbEntity
  8
Ebene 1
 62
   179
420
  1709851
370
    18
100
AcDbVertex
100
AcDb2dVertex
 10
51.4879855557044
 20
-146.9214368664815
 30
0.0
  0
VERTEX
  5
5A
330
58
100
AcDbEntity
  8
Ebene 1
 62
   179
420
  1709851
370
    18
100
AcDbVertex
100
AcDb2dVertex
 10
111.4743326544231
 20
-86.93508976776276
 30
0.0
  0
SEQEND
  5
5B
330
58
100
AcDbEntity
  8
Ebene 1
370
    18
  0
POLYLINE
  5
5C
330
3C
100
AcDbEntity
  8
Ebene 1
 62
   179
420
  1709851
370
    18
100
AcDb2dPolyline
 66
     1
 10
0.0
 20
0.0
 30
0.0
  0
VERTEX
  5
5D
330
5C
100
AcDbEntity
  8
Ebene 1
 62
   179
420
  1709851
370
    18
100
AcDbVertex
100
AcDb2dVertex
 10
65.62717419149251
 20
-146.9214368664815
 30
0.0
  0
VERTEX
  5
5E
330
5C
100
AcDbEntity
  8
Ebene 1
 62
   179
420
  1709851
370
    18
100
AcDbVertex
100
AcDb2dVertex
 10
125.6136935449855
 20
-86.93508976776276
 30
0.0
  0
SEQEND
  5
5F
330
5C
100
AcDbEntity
  8
Ebene 1
370
    18
  0
POLYLINE
  5
60
330
3C
100
AcDbEntity
  8
Ebene 1
 62
   179
420
  1709851
370
    18
100
AcDb2dPolyline
 66
     1
 10
0.0
 20
0.0
 30
0.0
  0
VERTEX
  5
61
330
60
100
AcDbEntity
  8
Ebene 1
 62
   179
420
  1709851
370
    18
100
AcDbVertex
100
AcDb2dVertex
 10
79.7665350820549
 20
-146.9214368664815
 30
0.0
  0
VERTEX
  5
62
330
60
100
AcDbEntity
  8
Ebene 1
 62
   179
420
  1709851
370
    18
100
AcDbVertex
100
AcDb2dVertex
 10
139.7530544355479
 20
-86.93508976776276
 30
0.0
  0
SEQEND
  5
63
330
60
100
AcDbEntity
  8
Ebene 1
370
    18
  0
POLYLINE
  5
64
330
3C
100
AcDbEntity
  8
Ebene 1
 62
   179
420
  1709851
370
    18
100
AcDb2dPolyline
 66
     1
 10
0.0
 20
0.0
 30
0.0
  0
VERTEX
  5
65
330
64
100
AcDbEntity
  8
Ebene 1
 62
   179
420
  1709851
370
    18
100
AcDbVertex
100
AcDb2dVertex
 10
93.90589597261729
 20
-146.9214368664815
 30
0.0
  0
VERTEX
  5
66
330
64
100
AcDbEntity
  8
Ebene 1
 62
   179
420
  1709851
370
    18
100
AcDbVertex
100
AcDb2dVertex
 10
153.8917263070132
 20
-86.93508976776276
 30
0.0
  0
SEQEND
  5
67
330
64
100
AcDbEntity
  8
Ebene 1
370
    18
  0
POLYLINE
  5
68
330
3C
100
AcDbEntity
  8
Ebene 1
 62
   179
420
  1709851
370
    18
100
AcDb2dPolyline
 66
     1
 10
0.0
 20
0.0
 30
0.0
  0
VERTEX
  5
69
330
68
100
AcDbEntity
  8
Ebene 1
 62
   179
420
  1709851
370
    18
100
AcDbVertex
100
AcDb2dVertex
 10
108.0450846084054
 20
-146.9214368664815
 30
0.0
  0
VERTEX
  5
6A
330
68
100
AcDbEntity
  8
Ebene 1
 62
   179
420
  1709851
370
    18
100
AcDbVertex
100
AcDb2dVertex
 10
168.0314317071241
 20
-86.93508976776276
 30
0.0
  0
SEQEND
  5
6B
330
68
100
AcDbEntity
  8
Ebene 1
370
    18
  0
POLYLINE
  5
6C
330
3C
100
AcDbEntity
  8
Ebene 1
 62
   179
420
  1709851
370
    18
100
AcDb2dPolyline
 66
     1
 10
0.0
 20
0.0
 30
0.0
  0
VERTEX
  5
6D
330
6C
100
AcDbEntity
  8
Ebene 1
 62
   179
420
  1709851
370
    18
100
AcDbVertex
100
AcDb2dVertex
 10
122.1844454989678
 20
-146.9214368664815
 30
0.0
  0
VERTEX
  5
6E
330
6C
100
AcDbEntity
  8
Ebene 1
 62
   179
420
  1709851
370
    18
100
AcDbVertex
100
AcDb2dVertex
 10
182.1707925976865
 20
-86.93508976776276
 30
0.0
  0
SEQEND
  5
6F
330
6C
100
AcDbEntity
  8
Ebene 1
370
    18
  0
POLYLINE
  5
70
330
3C
100
AcDbEntity
  8
Ebene 1
 62
   179
420
  1709851
370
    18
100
AcDb2dPolyline
 66
     1
 10
0.0
 20
0.0
 30
0.0
  0
VERTEX
  5
71
330
70
100
AcDbEntity
  8
Ebene 1
 62
   179
420
  1709851
370
    18
100
AcDbVertex
100
AcDb2dVertex
 10
136.3238063895302
 20
-146.9214368664815
 30
0.0
  0
VERTEX
  5
72
330
70
100
AcDbEntity
  8
Ebene 1
 62
   179
420
  1709851
370
    18
100
AcDbVertex
100
AcDb2dVertex
 10
188.3516384077732
 20
-94.91496444024696
 30
0.0
  0
SEQEND
  5
73
330
70
100
AcDbEntity
  8
Ebene 1
370
    18
  0
POLYLINE
  5
74
330
3C
100
AcDbEntity
  8
Ebene 1
 62
   179
420
  1709851
370
    18
100
AcDb2dPolyline
 66
     1
 10
0.0
 20
0.0
 30
0.0
  0
VERTEX
  5
75
330
74
100
AcDbEntity
  8
Ebene 1
 62
   179
420
  1709851
370
    18
100
AcDbVertex
100
AcDb2dVertex
 10
150.4631672800925
 20
-146.9214368664815
 30
0.0
  0
VERTEX
  5
76
330
74
100
AcDbEntity
  8
Ebene 1
 62
   179
420
  1709851
370
    18
100
AcDbVertex
100
AcDb2dVertex
 10
188.3516384077732
 20
-109.0543253308093
 30
0.0
  0
SEQEND
  5
77
330
74
100
AcDbEntity
  8
Ebene 1
370
    18
  0
POLYLINE
  5
78
330
3C
100
AcDbEntity
  8
Ebene 1
 62
   179
420
  1709851
370
    18
100
AcDb2dPolyline
 66
     1
 10
0.0
 20
0.0
 30
0.0
  0
VERTEX
  5
79
330
78
100
AcDbEntity
  8
Ebene 1
 62
   179
420
  1709851
370
    18
100
AcDbVertex
100
AcDb2dVertex
 10
164.6025281706549
 20
-146.9214368664815
 30
0.0
  0
VERTEX
  5
7A
330
78
100
AcDbEntity
  8
Ebene 1
 62
   179
420
  1709851
370
    18
100
AcDbVertex
100
AcDb2dVertex
 10
188.3516384077732
 20
-123.1936862213717
 30
0.0
  0
SEQEND
  5
7B
330
78
100
AcDbEntity
  8
Ebene 1
370
    18
  0
POLYLINE
  5
7C
330
3C
100
AcDbEntity
  8
Ebene 1
 62
   179
420
  1709851
370
    18
100
AcDb2dPolyline
 66
     1
 10
0.0
 20
0.0
 30
0.0
  0
VERTEX
  5
7D
330
7C
100
AcDbEntity
  8
Ebene 1
 62
   179
420
  1709851
370
    18
100
AcDbVertex
100
AcDb2dVertex
 10
178.7418890612173
 20
-146.9214368664815
 30
0.0
  0
VERTEX
  5
7E
330
7C
100
AcDbEntity
  8
Ebene 1
 62
   179
420
  1709851
370
    18
100
AcDbVertex
100
AcDb2dVertex
 10
188.3516384077732
 20
-137.3330471119341
 30
0.0
  0
SEQEND
  5
7F
330
7C
100
AcDbEntity
  8
Ebene 1
370
    18
  0
POLYLINE
  5
80
330
3C
100
AcDbEntity
  8
Ebene 1
 62
   179
420
  1709851
370
    18
100
AcDb2dPolyline
 66
     1
 10
0.0
 20
0.0
 30
0.0
  0
VERTEX
  5
81
330
80
100
AcDbEntity
  8
Ebene 1
 62
   179
420
  1709851
370
    18
100
AcDbVertex
100
AcDb2dVertex
 10
20.35172932433915
 20
-100.2700208625193
 30
0.0
  0
VERTEX
  5
82
330
80
100
AcDbEntity
  8
Ebene 1
 62
   179
420
  1709851
370
    18
100
AcDbVertex
100
AcDb2dVertex
 10
33.70784775632998
 20
-86.93508976776276
 30
0.0
  0
SEQEND
  5
83
330
80
100
AcDbEntity
  8
Ebene 1
370
    18
  0
POLYLINE
  5
84
330
3C
100
AcDbEntity
  8
Ebene 1
 62
   179
420
  1709851
370
    18
100
AcDb2dPolyline
 66
     1
 10
0.0
 20
0.0
 30
0.0
  0
VERTEX
  5
85
330
84
100
AcDbEntity
  8
Ebene 1
 62
   179
420
  1709851
370
    18
100
AcDbVertex
100
AcDb2dVertex
 10
20.35172932433915
 20
-114.4093817530817
 30
0.0
  0
VERTEX
  5
86
330
84
100
AcDbEntity
  8
Ebene 1
 62
   179
420
  1709851
370
    18
100
AcDbVertex
100
AcDb2dVertex
 10
47.84720864689237
 20
-86.93508976776276
 30
0.0
  0
SEQEND
  5
87
330
84
100
AcDbEntity
  8
Ebene 1
370
    18
  0
POLYLINE
  5
88
330
3C
100
AcDbEntity
  8
Ebene 1
 62
   179
420
  1709851
370
    18
100
AcDb2dPolyline
 66
     1
 10
0.0
 20
0.0
 30
0.0
  0
VERTEX
  5
89
330
88
100
AcDbEntity
  8
Ebene 1
 62
   179
420
  1709851
370
    18
100
AcDbVertex
100
AcDb2dVertex
 10
20.35172932433915
 20
-128.5487426436441
 30
0.0
  0
VERTEX
  5
8A
330
88
100
AcDbEntity
  8
Ebene 1
 62
   179
420
  1709851
370
    18
100
AcDbVertex
100
AcDb2dVertex
 10
61.98656953745475
 20
-86.93508976776276
 30
0.0
  0
SEQEND
  5
8B
330
88
100
AcDbEntity
  8
Ebene 1
370
    18
  0
POLYLINE
  5
8C
330
3C
100
AcDbEntity
  8
Ebene 1
 62
   179
420
  1709851
370
    18
100
AcDb2dPolyline
 66
     1
 10
0.0
 20
0.0
 30
0.0
  0
VERTEX
  5
8D
330
8C
100
AcDbEntity
  8
Ebene 1
 62
   179
420
  1709851
370
    18
100
AcDbVertex
100
AcDb2dVertex
 10
20.35172932433915
 20
-142.6881035342064
 30
0.0
  0
VERTEX
  5
8E
330
8C
100
AcDbEntity
  8
Ebene 1
 62
   179
420
  1709851
370
    18
100
AcDbVertex
100
AcDb2dVertex
 10
76.12593042801713
 20
-86.93508976776276
 30
0.0
  0
SEQEND
  5
8F
330
8C
100
AcDbEntity
  8
Ebene 1
370
    18
  0
POLYLINE
  5
90
330
3C
100
AcDbEntity
  8
Ebene 1
 62
   179
420
  1709851
370
    18
100
AcDb2dPolyline
 66
     1
 10
0.0
 20
0.0
 30
0.0
  0
VERTEX
  5
91
330
90
100
AcDbEntity
  8
Ebene 1
 62
   179
420
  1709851
370
    18
100
AcDbVertex
100
AcDb2dVertex
 10
30.25775688262653
 20
-146.9214368664815
 30
0.0
  0
VERTEX
  5
92
330
90
100
AcDbEntity
  8
Ebene 1
 62
   179
420
  1709851
370
    18
100
AcDbVertex
100
AcDb2dVertex
 10
90.26529131857951
 20
-86.93508976776276
 30
0.0
  0
SEQEND
  5
93
330
90
100
AcDbEntity
  8
Ebene 1
370
    18
  0
POLYLINE
  5
94
330
3C
100
AcDbEntity
  8
Ebene 1
 62
   179
420
  1709851
370
    18
100
AcDb2dPolyline
 66
     1
 10
0.0
 20
0.0
 30
0.0
  0
VERTEX
  5
95
330
94
100
AcDbEntity
  8
Ebene 1
 62
   179
420
  1709851
370
    18
100
AcDbVertex
100
AcDb2dVertex
 10
44.4183051104232
 20
-146.9214368664815
 30
0.0
  0
VERTEX
  5
96
330
94
100
AcDbEntity
  8
Ebene 1
 62
   179
420
  1709851
370
    18
100
AcDbVertex
100
AcDb2dVertex
 10
104.4046522091419
 20
-86.93508976776276
 30
0.0
  0
SEQEND
  5
97
330
94
100
AcDbEntity
  8
Ebene 1
370
    18
  0
POLYLINE
  5
98
330
3C
100
AcDbEntity
  8
Ebene 1
 62
   179
420
  1709851
370
    18
100
AcDb2dPolyline
 66
     1
 10
0.0
 20
0.0
 30
0.0
  0
VERTEX
  5
99
330
98
100
AcDbEntity
  8
Ebene 1
 62
   179
420
  1709851
370
    18
100
AcDbVertex
100
AcDb2dVertex
 10
58.55766600098558
 20
-146.9214368664815
 30
0.0
  0
VERTEX
  5
9A
330
98
100
AcDbEntity
  8
Ebene 1
 62
   179
420
  1709851
370
    18
100
AcDbVertex
100
AcDb2dVertex
 10
118.5436685901558
 20
-86.93508976776276
 30
0.0
  0
SEQEND
  5
9B
330
98
100
AcDbEntity
  8
Ebene 1
370
    18
  0
POLYLINE
  5
9C
330
3C
100
AcDbEntity
  8
Ebene 1
 62
   179
420
  1709851
370
    18
100
AcDb2dPolyline
 66
     1
 10
0.0
 20
0.0
 30
0.0
  0
VERTEX
  5
9D
330
9C
100
AcDbEntity
  8
Ebene 1
 62
   179
420
  1709851
370
    18
100
AcDbVertex
100
AcDb2dVertex
 10
72.69685463677371
 20
-146.9214368664815
 30
0.0
  0
VERTEX
  5
9E
330
9C
100
AcDbEntity
  8
Ebene 1
 62
   179
420
  1709851
370
    18
100
AcDbVertex
100
AcDb2dVertex
 10
132.6833739902667
 20
-86.93508976776276
 30
0.0
  0
SEQEND
  5
9F
330
9C
100
AcDbEntity
  8
Ebene 1
370
    18
  0
POLYLINE
  5
A0
330
3C
100
AcDbEntity
  8
Ebene 1
 62
   179
420
  1709851
370
    18
100
AcDb2dPolyline
 66
     1
 10
0.0
 20
0.0
 30
0.0
  0
VERTEX
  5
A1
330
A0
100
AcDbEntity
  8
Ebene 1
 62
   179
420
  1709851
370
    18
100
AcDbVertex
100
AcDb2dVertex
 10
86.8362155273361
 20
-146.9214368664815
 30
0.0
  0
VERTEX
  5
A2
330
A0
100
AcDbEntity
  8
Ebene 1
 62
   179
420
  1709851
370
    18
100
AcDbVertex
100
AcDb2dVertex
 10
146.822734880829
 20
-86.93508976776276
 30
0.0
  0
SEQEND
  5
A3
330
A0
100
AcDbEntity
  8
Ebene 1
370
    18
  0
POLYLINE
  5
A4
330
3C
100
AcDbEntity
  8
Ebene 1
 62
   179
420
  1709851
370
    18
100
AcDb2dPolyline
 66
     1
 10
0.0
 20
0.0
 30
0.0
  0
VERTEX
  5
A5
330
A4
100
AcDbEntity
  8
Ebene 1
 62
   179
420
  1709851
370
    18
100
AcDbVertex
100
AcDb2dVertex
 10
100.9755764178985
 20
-146.9214368664815
 30
0.0
  0
VERTEX
  5
A6
330
A4
100
AcDbEntity
  8
Ebene 1
 62
   179
420
  1709851
370
    18
100
AcDbVertex
100
AcDb2dVertex
 10
160.9617512618429
 20
-86.93508976776276
 30
0.0
  0
SEQEND
  5
A7
330
A4
100
AcDbEntity
  8
Ebene 1
370
    18
  0
POLYLINE
  5
A8
330
3C
100
AcDbEntity
  8
Ebene 1
 62
   179
420
  1709851
370
    18
100
AcDb2dPolyline
 66
     1
 10
0.0
 20
0.0
 30
0.0
  0
VERTEX
  5
A9
330
A8
100
AcDbEntity
  8
Ebene 1
 62
   179
420
  1709851
370
    18
100
AcDbVertex
100
AcDb2dVertex
 10
115.1151095632351
 20
-146.9214368664815
 30
0.0
  0
VERTEX
  5
AA
330
A8
100
AcDbEntity
  8
Ebene 1
 62
   179
420
  1709851
370
    18
100
AcDbVertex
100
AcDb2dVertex
 10
175.1011121524053
 20
-86.93508976776276
 30
0.0
  0
SEQEND
  5
AB
330
A8
100
AcDbEntity
  8
Ebene 1
370
    18
  0
POLYLINE
  5
AC
330
3C
100
AcDbEntity
  8
Ebene 1
 62
   179
420
  1709851
370
    18
100
AcDb2dPolyline
 66
     1
 10
0.0
 20
0.0
 30
0.0
  0
VERTEX
  5
AD
330
AC
100
AcDbEntity
  8
Ebene 1
 62
   179
420
  1709851
370
    18
100
AcDbVertex
100
AcDb2dVertex
 10
129.254125944249
 20
-146.9214368664815
 30
0.0
  0
VERTEX
  5
AE
330
AC
100
AcDbEntity
  8
Ebene 1
 62
   179
420
  1709851
370
    18
100
AcDbVertex
100
AcDb2dVertex
 10
188.3516384077732
 20
-87.84528399496577
 30
0.0
  0
SEQEND
  5
AF
330
AC
100
AcDbEntity
  8
Ebene 1
370
    18
  0
POLYLINE
  5
B0
330
3C
100
AcDbEntity
  8
Ebene 1
 62
   179
420
  1709851
370
    18
100
AcDb2dPolyline
 66
     1
 10
0.0
 20
0.0
 30
0.0
  0
VERTEX
  5
B1
330
B0
100
AcDbEntity
  8
Ebene 1
 62
   179
420
  1709851
370
    18
100
AcDbVertex
100
AcDb2dVertex
 10
143.3934868348114
 20
-146.9214368664815
 30
0.0
  0
VERTEX
  5
B2
330
B0
100
AcDbEntity
  8
Ebene 1
 62
   179
420
  1709851
370
    18
100
AcDbVertex
100
AcDb2dVertex
 10
188.3516384077732
 20
-101.9846448855282
 30
0.0
  0
SEQEND
  5
B3
330
B0
100
AcDbEntity
  8
Ebene 1
370
    18
  0
POLYLINE
  5
B4
330
3C
100
AcDbEntity
  8
Ebene 1
 62
   179
420
  1709851
370
    18
100
AcDb2dPolyline
 66
     1
 10
0.0
 20
0.0
 30
0.0
  0
VERTEX
  5
B5
330
B4
100
AcDbEntity
  8
Ebene 1
 62
   179
420
  1709851
370
    18
100
AcDbVertex
100
AcDb2dVertex
 10
157.5328477253737
 20
-146.9214368664815
 30
0.0
  0
VERTEX
  5
B6
330
B4
100
AcDbEntity
  8
Ebene 1
 62
   179
420
  1709851
370
    18
100
AcDbVertex
100
AcDb2dVertex
 10
188.3516384077732
 20
-116.1240057760905
 30
0.0
  0
SEQEND
  5
B7
330
B4
100
AcDbEntity
  8
Ebene 1
370
    18
  0
POLYLINE
  5
B8
330
3C
100
AcDbEntity
  8
Ebene 1
 62
   179
420
  1709851
370
    18
100
AcDb2dPolyline
 66
     1
 10
0.0
 20
0.0
 30
0.0
  0
VERTEX
  5
B9
330
B8
100
AcDbEntity
  8
Ebene 1
 62
   179
420
  1709851
370
    18
100
AcDbVertex
100
AcDb2dVertex
 10
171.6722086159361
 20
-146.9214368664815
 30
0.0
  0
VERTEX
  5
BA
330
B8
100
AcDbEntity
  8
Ebene 1
 62
   179
420
  1709851
370
    18
100
AcDbVertex
100
AcDb2dVertex
 10
188.3516384077732
 20
-130.2633666666529
 30
0.0
  0
SEQEND
  5
BB
330
B8
100
AcDbEntity
  8
Ebene 1
370
    18
  0
POLYLINE
  5
BC
330
3C
100
AcDbEntity
  8
Ebene 1
 62
   179
420
  1709851
370
    18
100
AcDb2dPolyline
 66
     1
 10
0.0
 20
0.0
 30
0.0
  0
VERTEX
  5
BD
330
BC
100
AcDbEntity
  8
Ebene 1
 62
   179
420
  1709851
370
    18
100
AcDbVertex
100
AcDb2dVertex
 10
185.8115695064985
 20
-146.9214368664815
 30
0.0
  0
VERTEX
  5
BE
330
BC
100
AcDbEntity
  8
Ebene 1
 62
   179
420
  1709851
370
    18
100
AcDbVertex
100
AcDb2dVertex
 10
188.3516384077732
 20
-144.4027275572153
 30
0.0
  0
SEQEND
  5
BF
330
BC
100
AcDbEntity
  8
Ebene 1
370
    18
  0
POLYLINE
  5
C0
330
3C
100
AcDbEntity
  8
Ebene 1
370
     0
100
AcDb2dPolyline
 66
     1
 10
0.0
 20
0.0
 30
0.0
  0
VERTEX
  5
C1
330
C0
100
AcDbEntity
  8
Ebene 1
370
     0
100
AcDbVertex
100
AcDb2dVertex
 10
20.10833332830625
 20
-209.5114148781777
 30
0.0
  0
VERTEX
  5
C2
330
C0
100
AcDbEntity
  8
Ebene 1
370
     0
100
AcDbVertex
100
AcDb2dVertex
 10
188.5948621490319
 20
-209.5114148781777
 30
0.0
  0
VERTEX
  5
C3
330
C0
100
AcDbEntity
  8
Ebene 1
370
     0
100
AcDbVertex
100
AcDb2dVertex
 10
188.5948621490319
 20
-82.8498955413535
 30
0.0
  0
VERTEX
  5
C4
330
C0
100
AcDbEntity
  8
Ebene 1
370
     0
100
AcDbVertex
100
AcDb2dVertex
 10
20.10833332830625
 20
-82.8498955413535
 30
0.0
  0
VERTEX
  5
C5
330
C0
100
AcDbEntity
  8
Ebene 1
370
     0
100
AcDbVertex
100
AcDb2dVertex
 10
20.10833332830625
 20
-209.5114148781777
 30
0.0
  0
SEQEND
  5
C6
330
C0
100
AcDbEntity
  8
Ebene 1
370
     0
  0
ENDBLK
  5
3F
330
3C
100
AcDbEntity
  8
0
100
AcDbBlockEnd
  0
BLOCK
  5
147
330
145
100
AcDbEntity
  8
0
100
AcDbBlockBegin
  2
block 3
 70
     0
 71
     0
 10
0.0
 20
0.0
 30
0.0
  3
block 3
  1

  0
POLYLINE
  5
149
330
145
100
AcDbEntity
  8
Ebene 1
 62
   179
420
  1709851
370
    50
100
AcDb2dPolyline
 66
     1
 10
0.0
 20
0.0
 30
0.0
  0
VERTEX
  5
14A
330
149
100
AcDbEntity
  8
Ebene 1
 62
   179
420
  1709851
370
    50
100
AcDbVertex
100
AcDb2dVertex
 10
20.35172932433915
 20
-86.93508976776276
 30
0.0
  0
VERTEX
  5
14B
330
149
100
AcDbEntity
  8
Ebene 1
 62
   179
420
  1709851
370
    50
100
AcDbVertex
100
AcDb2dVertex
 10
188.3516384077732
 20
-86.93508976776276
 30
0.0
  0
SEQEND
  5
14C
330
149
100
AcDbEntity
  8
Ebene 1
370
    50
  0
POLYLINE
  5
14D
330
145
100
AcDbEntity
  8
Ebene 1
 62
   179
420
  1709851
370
    50
100
AcDb2dPolyline
 66
     1
 10
0.0
 20
0.0
 30
0.0
  0
VERTEX
  5
14E
330
14D
100
AcDbEntity
  8
Ebene 1
 62
   179
420
  1709851
370
    50
100
AcDbVertex
100
AcDb2dVertex
 10
20.35172932433915
 20
-146.9214368664815
 30
0.0
  0
VERTEX
  5
14F
330
14D
100
AcDbEntity
  8
Ebene 1
 62
   179
420
  1709851
370
    50
100
AcDbVertex
100
AcDb2dVertex
 10
188.3516384077732
 20
-146.9214368664815
 30
0.0
  0
SEQEND
  5
150
330
14D
100
AcDbEntity
  8
Ebene 1
370
    50
  0
POLYLINE
  5
151
330
145
100
AcDbEntity
  8
Ebene 1
 62
   179
420
  1709851
370
    25
100
AcDb2dPolyline
 66
     1
 10
0.0
 20
0.0
 30
0.0
  0
VERTEX
  5
152
330
151
100
AcDbEntity
  8
Ebene 1
 62
   179
420
  1709851
370
    25
100
AcDbVertex
100
AcDb2dVertex
 10
165.237803778135
 20
-171.3266655387656
 30
0.0
  0
VERTEX
  5
153
330
151
100
AcDbEntity
  8
Ebene 1
 62
   179
420
  1709851
370
    25
100
AcDbVertex
100
AcDb2dVertex
 10
188.3519829173217
 20
-171.3266655387656
 30
0.0
  0
SEQEND
  5
154
330
151
100
AcDbEntity
  8
Ebene 1
370
    25
  0
POLYLINE
  5
155
330
145
100
AcDbEntity
  8
Ebene 1
 62
   179
420
  1709851
370
    25
100
AcDb2dPolyline
 66
     1
 10
0.0
 20
0.0
 30
0.0
  0
VERTEX
  5
156
330
155
100
AcDbEntity
  8
Ebene 1
 62
   179
420
  1709851
370
    25
100
AcDbVertex
100
AcDb2dVertex
 10
165.237803778135
 20
-172.9141655383687
 30
0.0
  0
VERTEX
  5
157
330
155
100
AcDbEntity
  8
Ebene 1
 62
   179
420
  1709851
370
    25
100
AcDbVertex
100
AcDb2dVertex
 10
188.3519829173217
 20
-172.9141655383687
 30
0.0
  0
SEQEND
  5
158
330
155
100
AcDbEntity
  8
Ebene 1
370
    25
  0
POLYLINE
  5
159
330
145
100
AcDbEntity
  8
Ebene 1
 62
   179
420
  1709851
370
    25
100
AcDb2dPolyline
 66
     1
 10
0.0
 20
0.0
 30
0.0
  0
VERTEX
  5
15A
330
159
100
AcDbEntity
  8
Ebene 1
 62
   179
420
  1709851
370
    25
100
AcDbVertex
100
AcDb2dVertex
 10
20.35190157911341
 20
-172.9141655383687
 30
0.0
  0
VERTEX
  5
15B
330
159
100
AcDbEntity
  8
Ebene 1
 62
   179
420
  1709851
370
    25
100
AcDbVertex
100
AcDb2dVertex
 10
43.65607773431168
 20
-172.9141655383687
 30
0.0
  0
SEQEND
  5
15C
330
159
100
AcDbEntity
  8
Ebene 1
370
    25
  0
POLYLINE
  5
15D
330
145
100
AcDbEntity
  8
Ebene 1
 62
   179
420
  1709851
370
    25
100
AcDb2dPolyline
 66
     1
 10
0.0
 20
0.0
 30
0.0
  0
VERTEX
  5
15E
330
15D
100
AcDbEntity
  8
Ebene 1
 62
   179
420
  1709851
370
    25
100
AcDbVertex
100
AcDb2dVertex
 10
43.65607773431168
 20
-172.9141655383687
 30
0.0
  0
VERTEX
  5
15F
330
15D
100
AcDbEntity
  8
Ebene 1
 62
   179
420
  1709851
370
    25
100
AcDbVertex
100
AcDb2dVertex
 10
43.65607773431168
 20
-171.3266655387656
 30
0.0
  0
VERTEX
  5
160
330
15D
100
AcDbEntity
  8
Ebene 1
 62
   179
420
  1709851
370
    25
100
AcDbVertex
100
AcDb2dVertex
 10
20.35190157911341
 20
-171.3266655387656
 30
0.0
  0
SEQEND
  5
161
330
15D
100
AcDbEntity
  8
Ebene 1
370
    25
  0
POLYLINE
  5
162
330
145
100
AcDbEntity
  8
Ebene 1
 62
   179
420
  1709851
370
    25
100
AcDb2dPolyline
 66
     1
 10
0.0
 20
0.0
 30
0.0
  0
VERTEX
  5
163
330
162
100
AcDbEntity
  8
Ebene 1
 62
   179
420
  1709851
370
    25
100
AcDbVertex
100
AcDb2dVertex
 10
45.2435777339148
 20
-172.9141655383687
 30
0.0
  0
VERTEX
  5
164
330
162
100
AcDbEntity
  8
Ebene 1
 62
   179
420
  1709851
370
    25
100
AcDbVertex
100
AcDb2dVertex
 10
45.2435777339148
 20
-171.3266655387656
 30
0.0
  0
SEQEND
  5
165
330
162
100
AcDbEntity
  8
Ebene 1
370
    25
  0
POLYLINE
  5
166
330
145
100
AcDbEntity
  8
Ebene 1
 62
   179
420
  1709851
370
    25
100
AcDb2dPolyline
 66
     1
 10
0.0
 20
0.0
 30
0.0
  0
VERTEX
  5
167
330
166
100
AcDbEntity
  8
Ebene 1
 62
   179
420
  1709851
370
    25
100
AcDbVertex
100
AcDb2dVertex
 10
45.2435777339148
 20
-172.9141655383687
 30
0.0
  0
VERTEX
  5
168
330
166
100
AcDbEntity
  8
Ebene 1
 62
   179
420
  1709851
370
    25
100
AcDbVertex
100
AcDb2dVertex
 10
163.6289441865233
 20
-172.9141655383687
 30
0.0
  0
SEQEND
  5
169
330
166
100
AcDbEntity
  8
Ebene 1
370
    25
  0
POLYLINE
  5
16A
330
145
100
AcDbEntity
  8
Ebene 1
 62
   179
420
  1709851
370
    25
100
AcDb2dPolyline
 66
     1
 10
0.0
 20
0.0
 30
0.0
  0
VERTEX
  5
16B
330
16A
100
AcDbEntity
  8
Ebene 1
 62
   179
420
  1709851
370
    25
100
AcDbVertex
100
AcDb2dVertex
 10
163.6289441865233
 20
-172.9141655383687
 30
0.0
  0
VERTEX
  5
16C
330
16A
100
AcDbEntity
  8
Ebene 1
 62
   179
420
  1709851
370
    25
100
AcDbVertex
100
AcDb2dVertex
 10
163.6289441865233
 20
-171.3266655387656
 30
0.0
  0
VERTEX
  5
16D
330
16A
100
AcDbEntity
  8
Ebene 1
 62
   179
420
  1709851
370
    25
100
AcDbVertex
100
AcDb2dVertex
 10
45.2435777339148
 20
-171.3266655387656
 30
0.0
  0
SEQEND
  5
16E
330
16A
100
AcDbEntity
  8
Ebene 1
370
    25
  0
POLYLINE
  5
16F
330
145
100
AcDbEntity
  8
Ebene 1
 62
   179
420
  1709851
370
    25
100
AcDb2dPolyline
 66
     1
 10
0.0
 20
0.0
 30
0.0
  0
VERTEX
  5
170
330
16F
100
AcDbEntity
  8
Ebene 1
 62
   179
420
  1709851
370
    25
100
AcDbVertex
100
AcDb2dVertex
 10
165.237803778135
 20
-172.9141655383687
 30
0.0
  0
VERTEX
  5
171
330
16F
100
AcDbEntity
  8
Ebene 1
 62
   179
420
  1709851
370
    25
100
AcDbVertex
100
AcDb2dVertex
 10
165.237803778135
 20
-171.3266655387656
 30
0.0
  0
SEQEND
  5
172
330
16F
100
AcDbEntity
  8
Ebene 1
370
    25
  0
POLYLINE
  5
173
330
145
100
AcDbEntity
  8
Ebene 1
 62
   179
420
  1709851
370
    18
100
AcDb2dPolyline
 66
     1
 10
0.0
 20
0.0
 30
0.0
  0
VERTEX
  5
174
330
173
100
AcDbEntity
  8
Ebene 1
 62
   179
420
  1709851
370
    18
100
AcDbVertex
100
AcDb2dVertex
 10
20.35172932433915
 20
-195.9225802461582
 30
0.0
  0
VERTEX
  5
175
330
173
100
AcDbEntity
  8
Ebene 1
 62
   179
420
  1709851
370
    18
100
AcDbVertex
100
AcDb2dVertex
 10
43.65624998908594
 20
-195.9225802461582
 30
0.0
  0
SEQEND
  5
176
330
173
100
AcDbEntity
  8
Ebene 1
370
    18
  0
POLYLINE
  5
177
330
145
100
AcDbEntity
  8
Ebene 1
 62
   179
420
  1709851
370
    18
100
AcDb2dPolyline
 66
     1
 10
0.0
 20
0.0
 30
0.0
  0
VERTEX
  5
178
330
177
100
AcDbEntity
  8
Ebene 1
 62
   179
420
  1709851
370
    18
100
AcDbVertex
100
AcDb2dVertex
 10
188.3516384077732
 20
-195.9225802461582
 30
0.0
  0
VERTEX
  5
179
330
177
100
AcDbEntity
  8
Ebene 1
 62
   179
420
  1709851
370
    18
100
AcDbVertex
100
AcDb2dVertex
 10
165.237803778135
 20
-195.9225802461582
 30
0.0
  0
SEQEND
  5
17A
330
177
100
AcDbEntity
  8
Ebene 1
370
    18
  0
POLYLINE
  5
17B
330
145
100
AcDbEntity
  8
Ebene 1
 62
   179
420
  1709851
370
    18
100
AcDb2dPolyline
 66
     1
 10
0.0
 20
0.0
 30
0.0
  0
VERTEX
  5
17C
330
17B
100
AcDbEntity
  8
Ebene 1
 62
   179
420
  1709851
370
    18
100
AcDbVertex
100
AcDb2dVertex
 10
188.3516384077732
 20
-207.9239148785746
 30
0.0
  0
VERTEX
  5
17D
330
17B
100
AcDbEntity
  8
Ebene 1
 62
   179
420
  1709851
370
    18
100
AcDbVertex
100
AcDb2dVertex
 10
164.4333739823292
 20
-207.9239148785746
 30
0.0
  0
SEQEND
  5
17E
330
17B
100
AcDbEntity
  8
Ebene 1
370
    18
  0
POLYLINE
  5
17F
330
145
100
AcDbEntity
  8
Ebene 1
 62
   179
420
  1709851
370
    18
100
AcDb2dPolyline
 66
     1
 10
0.0
 20
0.0
 30
0.0
  0
VERTEX
  5
180
330
17F
100
AcDbEntity
  8
Ebene 1
 62
   179
420
  1709851
370
    18
100
AcDbVertex
100
AcDb2dVertex
 10
20.35172932433915
 20
-207.9239148785746
 30
0.0
  0
VERTEX
  5
181
330
17F
100
AcDbEntity
  8
Ebene 1
 62
   179
420
  1709851
370
    18
100
AcDbVertex
100
AcDb2dVertex
 10
44.43949244765749
 20
-207.9239148785746
 30
0.0
  0
SEQEND
  5
182
330
17F
100
AcDbEntity
  8
Ebene 1
370
    18
  0
POLYLINE
  5
183
330
145
100
AcDbEntity
  8
Ebene 1
 62
   179
420
  1709851
370
    18
100
AcDb2dPolyline
 66
     1
 10
0.0
 20
0.0
 30
0.0
  0
VERTEX
  5
184
330
183
100
AcDbEntity
  8
Ebene 1
 62
   179
420
  1709851
370
    18
100
AcDbVertex
100
AcDb2dVertex
 10
44.43949244765749
 20
-207.9239148785746
 30
0.0
  0
VERTEX
  5
185
330
183
100
AcDbEntity
  8
Ebene 1
 62
   179
420
  1709851
370
    18
100
AcDbVertex
100
AcDb2dVertex
 10
164.4333739823292
 20
-207.9239148785746
 30
0.0
  0
SEQEND
  5
186
330
183
100
AcDbEntity
  8
Ebene 1
370
    18
  0
POLYLINE
  5
187
330
145
100
AcDbEntity
  8
Ebene 1
 62
   179
420
  1709851
370
    18
100
AcDb2dPolyline
 66
     1
 10
0.0
 20
0.0
 30
0.0
  0
VERTEX
  5
188
330
187
100
AcDbEntity
  8
Ebene 1
 62
   179
420
  1709851
370
    18
100
AcDbVertex
100
AcDb2dVertex
 10
164.4333739823292
 20
-207.9239148785746
 30
0.0
  0
VERTEX
  5
189
330
187
100
AcDbEntity
  8
Ebene 1
 62
   179
420
  1709851
370
    18
100
AcDbVertex
100
AcDb2dVertex
 10
164.4333739823292
 20
-209.4266655292406
 30
0.0
  0
SEQEND
  5
18A
330
187
100
AcDbEntity
  8
Ebene 1
370
    18
  0
POLYLINE
  5
18B
330
145
100
AcDbEntity
  8
Ebene 1
 62
   179
420
  1709851
370
    18
100
AcDb2dPolyline
 66
     1
 10
0.0
 20
0.0
 30
0.0
  0
VERTEX
  5
18C
330
18B
100
AcDbEntity
  8
Ebene 1
 62
   179
420
  1709851
370
    18
100
AcDbVertex
100
AcDb2dVertex
 10
164.4333739823292
 20
-207.9239148785746
 30
0.0
  0
VERTEX
  5
18D
330
18B
100
AcDbEntity
  8
Ebene 1
 62
   179
420
  1709851
370
    18
100
AcDbVertex
100
AcDb2dVertex
 10
164.4333739823292
 20
-206.4211642279086
 30
0.0
  0
SEQEND
  5
18E
330
18B
100
AcDbEntity
  8
Ebene 1
370
    18
  0
POLYLINE
  5
18F
330
145
100
AcDbEntity
  8
Ebene 1
 62
   179
420
  1709851
370
    18
100
AcDb2dPolyline
 66
     1
 10
0.0
 20
0.0
 30
0.0
  0
VERTEX
  5
190
330
18F
100
AcDbEntity
  8
Ebene 1
 62
   179
420
  1709851
370
    18
100
AcDbVertex
100
AcDb2dVertex
 10
44.43949244765749
 20
-207.9239148785746
 30
0.0
  0
VERTEX
  5
191
330
18F
100
AcDbEntity
  8
Ebene 1
 62
   179
420
  1709851
370
    18
100
AcDbVertex
100
AcDb2dVertex
 10
44.43949244765749
 20
-209.4266655292406
 30
0.0
  0
SEQEND
  5
192
330
18F
100
AcDbEntity
  8
Ebene 1
370
    18
  0
POLYLINE
  5
193
330
145
100
AcDbEntity
  8
Ebene 1
 62
   179
420
  1709851
370
    18
100
AcDb2dPolyline
 66
     1
 10
0.0
 20
0.0
 30
0.0
  0
VERTEX
  5
194
330
193
100
AcDbEntity
  8
Ebene 1
 62
   179
420
  1709851
370
    18
100
AcDbVertex
100
AcDb2dVertex
 10
44.43949244765749
 20
-207.9239148785746
 30
0.0
  0
VERTEX
  5
195
330
193
100
AcDbEntity
  8
Ebene 1
 62
   179
420
  1709851
370
    18
100
AcDbVertex
100
AcDb2dVertex
 10
44.43949244765749
 20
-206.4211642279086
 30
0.0
  0
SEQEND
  5
196
330
193
100
AcDbEntity
  8
Ebene 1
370
    18
  0
POLYLINE
  5
197
330
145
100
AcDbEntity
  8
Ebene 1
 62
   179
420
  1709851
370
    18
100
AcDb2dPolyline
 66
     1
 10
0.0
 20
0.0
 30
0.0
  0
VERTEX
  5
198
330
197
100
AcDbEntity
  8
Ebene 1
 62
   179
420
  1709851
370
    18
100
AcDbVertex
100
AcDb2dVertex
 10
164.4333739823292
 20
-207.9239148785746
 30
0.0
  0
VERTEX
  5
199
330
197
100
AcDbEntity
  8
Ebene 1
 62
   179
420
  1709851
370
    18
100
AcDbVertex
100
AcDb2dVertex
 10
165.9361246329951
 20
-207.9239148785746
 30
0.0
  0
SEQEND
  5
19A
330
197
100
AcDbEntity
  8
Ebene 1
370
    18
  0
POLYLINE
  5
19B
330
145
100
AcDbEntity
  8
Ebene 1
 62
   179
420
  1709851
370
    18
100
AcDb2dPolyline
 66
     1
 10
0.0
 20
0.0
 30
0.0
  0
VERTEX
  5
19C
330
19B
100
AcDbEntity
  8
Ebene 1
 62
   179
420
  1709851
370
    18
100
AcDbVertex
100
AcDb2dVertex
 10
44.43949244765749
 20
-207.9239148785746
 30
0.0
  0
VERTEX
  5
19D
330
19B
100
AcDbEntity
  8
Ebene 1
 62
   179
420
  1709851
370
    18
100
AcDbVertex
100
AcDb2dVertex
 10
42.95775687945154
 20
-207.9239148785746
 30
0.0
  0
SEQEND
  5
19E
330
19B
100
AcDbEntity
  8
Ebene 1
370
    18
  0
POLYLINE
  5
19F
330
145
100
AcDbEntity
  8
Ebene 1
 62
   179
420
  1709851
370
    18
100
AcDb2dPolyline
 66
     1
 10
0.0
 20
0.0
 30
0.0
  0
VERTEX
  5
1A0
330
19F
100
AcDbEntity
  8
Ebene 1
 62
   179
420
  1709851
370
    18
100
AcDbVertex
100
AcDb2dVertex
 10
163.5441948375862
 20
-208.8134385328661
 30
0.0
  0
VERTEX
  5
1A1
330
19F
100
AcDbEntity
  8
Ebene 1
 62
   179
420
  1709851
370
    18
100
AcDbVertex
100
AcDb2dVertex
 10
165.3439127190807
 20
-207.0137206513716
 30
0.0
  0
SEQEND
  5
1A2
330
19F
100
AcDbEntity
  8
Ebene 1
370
    18
  0
POLYLINE
  5
1A3
330
145
100
AcDbEntity
  8
Ebene 1
 62
   179
420
  1709851
370
    18
100
AcDb2dPolyline
 66
     1
 10
0.0
 20
0.0
 30
0.0
  0
VERTEX
  5
1A4
330
1A3
100
AcDbEntity
  8
Ebene 1
 62
   179
420
  1709851
370
    18
100
AcDbVertex
100
AcDb2dVertex
 10
43.55048555768877
 20
-208.8134385328661
 30
0.0
  0
VERTEX
  5
1A5
330
1A3
100
AcDbEntity
  8
Ebene 1
 62
   179
420
  1709851
370
    18
100
AcDbVertex
100
AcDb2dVertex
 10
45.34951442008624
 20
-207.0137206513716
 30
0.0
  0
SEQEND
  5
1A6
330
1A3
100
AcDbEntity
  8
Ebene 1
370
    18
  0
POLYLINE
  5
1A7
330
145
100
AcDbEntity
  8
Ebene 1
 62
   179
420
  1709851
370
    18
100
AcDb2dPolyline
 66
     1
 10
0.0
 20
0.0
 30
0.0
  0
VERTEX
  5
1A8
330
1A7
100
AcDbEntity
  8
Ebene 1
 62
   179
420
  1709851
370
    18
100
AcDbVertex
100
AcDb2dVertex
 10
163.6289441865233
 20
-195.9225802461582
 30
0.0
  0
VERTEX
  5
1A9
330
1A7
100
AcDbEntity
  8
Ebene 1
 62
   179
420
  1709851
370
    18
100
AcDbVertex
100
AcDb2dVertex
 10
165.237803778135
 20
-195.9225802461582
 30
0.0
  0
SEQEND
  5
1AA
330
1A7
100
AcDbEntity
  8
Ebene 1
370
    18
  0
POLYLINE
  5
1AB
330
145
100
AcDbEntity
  8
Ebene 1
 62
   179
420
  1709851
370
    18
100
AcDb2dPolyline
 66
     1
 10
0.0
 20
0.0
 30
0.0
  0
VERTEX
  5
1AC
330
1AB
100
AcDbEntity
  8
Ebene 1
 62
   179
420
  1709851
370
    18
100
AcDbVertex
100
AcDb2dVertex
 10
165.237803778135
 20
-195.9225802461582
 30
0.0
  0
VERTEX
  5
1AD
330
1AB
100
AcDbEntity
  8
Ebene 1
 62
   179
420
  1709851
370
    18
100
AcDbVertex
100
AcDb2dVertex
 10
165.237803778135
 20
-197.4253308968242
 30
0.0
  0
SEQEND
  5
1AE
330
1AB
100
AcDbEntity
  8
Ebene 1
370
    18
  0
POLYLINE
  5
1AF
330
145
100
AcDbEntity
  8
Ebene 1
 62
   179
420
  1709851
370
    18
100
AcDb2dPolyline
 66
     1
 10
0.0
 20
0.0
 30
0.0
  0
VERTEX
  5
1B0
330
1AF
100
AcDbEntity
  8
Ebene 1
 62
   179
420
  1709851
370
    18
100
AcDbVertex
100
AcDb2dVertex
 10
165.237803778135
 20
-195.9225802461582
 30
0.0
  0
VERTEX
  5
1B1
330
1AF
100
AcDbEntity
  8
Ebene 1
 62
   179
420
  1709851
370
    18
100
AcDbVertex
100
AcDb2dVertex
 10
165.237803778135
 20
-194.4191405763952
 30
0.0
  0
SEQEND
  5
1B2
330
1AF
100
AcDbEntity
  8
Ebene 1
370
    18
  0
POLYLINE
  5
1B3
330
145
100
AcDbEntity
  8
Ebene 1
 62
   179
420
  1709851
370
    18
100
AcDb2dPolyline
 66
     1
 10
0.0
 20
0.0
 30
0.0
  0
VERTEX
  5
1B4
330
1B3
100
AcDbEntity
  8
Ebene 1
 62
   179
420
  1709851
370
    18
100
AcDbVertex
100
AcDb2dVertex
 10
165.237803778135
 20
-195.9225802461582
 30
0.0
  0
VERTEX
  5
1B5
330
1B3
100
AcDbEntity
  8
Ebene 1
 62
   179
420
  1709851
370
    18
100
AcDbVertex
100
AcDb2dVertex
 10
166.740554428801
 20
-195.9225802461582
 30
0.0
  0
SEQEND
  5
1B6
330
1B3
100
AcDbEntity
  8
Ebene 1
370
    18
  0
POLYLINE
  5
1B7
330
145
100
AcDbEntity
  8
Ebene 1
 62
   179
420
  1709851
370
    18
100
AcDb2dPolyline
 66
     1
 10
0.0
 20
0.0
 30
0.0
  0
VERTEX
  5
1B8
330
1B7
100
AcDbEntity
  8
Ebene 1
 62
   179
420
  1709851
370
    18
100
AcDbVertex
100
AcDb2dVertex
 10
164.348624633392
 20
-196.8114148813527
 30
0.0
  0
VERTEX
  5
1B9
330
1B7
100
AcDbEntity
  8
Ebene 1
 62
   179
420
  1709851
370
    18
100
AcDbVertex
100
AcDb2dVertex
 10
166.1476534957895
 20
-195.0123860189553
 30
0.0
  0
SEQEND
  5
1BA
330
1B7
100
AcDbEntity
  8
Ebene 1
370
    18
  0
POLYLINE
  5
1BB
330
145
100
AcDbEntity
  8
Ebene 1
 62
   179
420
  1709851
370
    18
100
AcDb2dPolyline
 66
     1
 10
0.0
 20
0.0
 30
0.0
  0
VERTEX
  5
1BC
330
1BB
100
AcDbEntity
  8
Ebene 1
 62
   179
420
  1709851
370
    18
100
AcDbVertex
100
AcDb2dVertex
 10
45.24374998868907
 20
-195.9225802461582
 30
0.0
  0
VERTEX
  5
1BD
330
1BB
100
AcDbEntity
  8
Ebene 1
 62
   179
420
  1709851
370
    18
100
AcDbVertex
100
AcDb2dVertex
 10
163.6289441865233
 20
-195.9225802461582
 30
0.0
  0
SEQEND
  5
1BE
330
1BB
100
AcDbEntity
  8
Ebene 1
370
    18
  0
POLYLINE
  5
1BF
330
145
100
AcDbEntity
  8
Ebene 1
 62
   179
420
  1709851
370
    18
100
AcDb2dPolyline
 66
     1
 10
0.0
 20
0.0
 30
0.0
  0
VERTEX
  5
1C0
330
1BF
100
AcDbEntity
  8
Ebene 1
 62
   179
420
  1709851
370
    18
100
AcDbVertex
100
AcDb2dVertex
 10
163.6289441865233
 20
-195.9225802461582
 30
0.0
  0
VERTEX
  5
1C1
330
1BF
100
AcDbEntity
  8
Ebene 1
 62
   179
420
  1709851
370
    18
100
AcDbVertex
100
AcDb2dVertex
 10
163.6289441865233
 20
-197.4253308968242
 30
0.0
  0
SEQEND
  5
1C2
330
1BF
100
AcDbEntity
  8
Ebene 1
370
    18
  0
POLYLINE
  5
1C3
330
145
100
AcDbEntity
  8
Ebene 1
 62
   179
420
  1709851
370
    18
100
AcDb2dPolyline
 66
     1
 10
0.0
 20
0.0
 30
0.0
  0
VERTEX
  5
1C4
330
1C3
100
AcDbEntity
  8
Ebene 1
 62
   179
420
  1709851
370
    18
100
AcDbVertex
100
AcDb2dVertex
 10
163.6289441865233
 20
-195.9225802461582
 30
0.0
  0
VERTEX
  5
1C5
330
1C3
100
AcDbEntity
  8
Ebene 1
 62
   179
420
  1709851
370
    18
100
AcDbVertex
100
AcDb2dVertex
 10
163.6289441865233
 20
-194.4191405763952
 30
0.0
  0
SEQEND
  5
1C6
330
1C3
100
AcDbEntity
  8
Ebene 1
370
    18
  0
POLYLINE
  5
1C7
330
145
100
AcDbEntity
  8
Ebene 1
 62
   179
420
  1709851
370
    18
100
AcDb2dPolyline
 66
     1
 10
0.0
 20
0.0
 30
0.0
  0
VERTEX
  5
1C8
330
1C7
100
AcDbEntity
  8
Ebene 1
 62
   179
420
  1709851
370
    18
100
AcDbVertex
100
AcDb2dVertex
 10
162.7401095513289
 20
-196.8114148813527
 30
0.0
  0
VERTEX
  5
1C9
330
1C7
100
AcDbEntity
  8
Ebene 1
 62
   179
420
  1709851
370
    18
100
AcDbVertex
100
AcDb2dVertex
 10
164.5391384137263
 20
-195.0123860189553
 30
0.0
  0
SEQEND
  5
1CA
330
1C7
100
AcDbEntity
  8
Ebene 1
370
    18
  0
POLYLINE
  5
1CB
330
145
100
AcDbEntity
  8
Ebene 1
 62
   179
420
  1709851
370
    18
100
AcDb2dPolyline
 66
     1
 10
0.0
 20
0.0
 30
0.0
  0
VERTEX
  5
1CC
330
1CB
100
AcDbEntity
  8
Ebene 1
 62
   179
420
  1709851
370
    18
100
AcDbVertex
100
AcDb2dVertex
 10
43.65624998908594
 20
-195.9225802461582
 30
0.0
  0
VERTEX
  5
1CD
330
1CB
100
AcDbEntity
  8
Ebene 1
 62
   179
420
  1709851
370
    18
100
AcDbVertex
100
AcDb2dVertex
 10
45.24374998868907
 20
-195.9225802461582
 30
0.0
  0
SEQEND
  5
1CE
330
1CB
100
AcDbEntity
  8
Ebene 1
370
    18
  0
POLYLINE
  5
1CF
330
145
100
AcDbEntity
  8
Ebene 1
 62
   179
420
  1709851
370
    18
100
AcDb2dPolyline
 66
     1
 10
0.0
 20
0.0
 30
0.0
  0
VERTEX
  5
1D0
330
1CF
100
AcDbEntity
  8
Ebene 1
 62
   179
420
  1709851
370
    18
100
AcDbVertex
100
AcDb2dVertex
 10
45.24374998868907
 20
-195.9225802461582
 30
0.0
  0
VERTEX
  5
1D1
330
1CF
100
AcDbEntity
  8
Ebene 1
 62
   179
420
  1709851
370
    18
100
AcDbVertex
100
AcDb2dVertex
 10
45.24374998868907
 20
-197.4253308968242
 30
0.0
  0
SEQEND
  5
1D2
330
1CF
100
AcDbEntity
  8
Ebene 1
370
    18
  0
POLYLINE
  5
1D3
330
145
100
AcDbEntity
  8
Ebene 1
 62
   179
420
  1709851
370
    18
100
AcDb2dPolyline
 66
     1
 10
0.0
 20
0.0
 30
0.0
  0
VERTEX
  5
1D4
330
1D3
100
AcDbEntity
  8
Ebene 1
 62
   179
420
  1709851
370
    18
100
AcDbVertex
100
AcDb2dVertex
 10
45.24374998868907
 20
-195.9225802461582
 30
0.0
  0
VERTEX
  5
1D5
330
1D3
100
AcDbEntity
  8
Ebene 1
 62
   179
420
  1709851
370
    18
100
AcDbVertex
100
AcDb2dVertex
 10
45.24374998868907
 20
-194.4191405763952
 30
0.0
  0
SEQEND
  5
1D6
330
1D3
100
AcDbEntity
  8
Ebene 1
370
    18
  0
POLYLINE
  5
1D7
330
145
100
AcDbEntity
  8
Ebene 1
 62
   179
420
  1709851
370
    18
100
AcDb2dPolyline
 66
     1
 10
0.0
 20
0.0
 30
0.0
  0
VERTEX
  5
1D8
330
1D7
100
AcDbEntity
  8
Ebene 1
 62
   179
420
  1709851
370
    18
100
AcDbVertex
100
AcDb2dVertex
 10
43.65624998908594
 20
-195.9225802461582
 30
0.0
  0
VERTEX
  5
1D9
330
1D7
100
AcDbEntity
  8
Ebene 1
 62
   179
420
  1709851
370
    18
100
AcDbVertex
100
AcDb2dVertex
 10
43.65624998908594
 20
-197.4253308968242
 30
0.0
  0
SEQEND
  5
1DA
330
1D7
100
AcDbEntity
  8
Ebene 1
370
    18
  0
POLYLINE
  5
1DB
330
145
100
AcDbEntity
  8
Ebene 1
 62
   179
420
  1709851
370
    18
100
AcDb2dPolyline
 66
     1
 10
0.0
 20
0.0
 30
0.0
  0
VERTEX
  5
1DC
330
1DB
100
AcDbEntity
  8
Ebene 1
 62
   179
420
  1709851
370
    18
100
AcDbVertex
100
AcDb2dVertex
 10
43.65624998908594
 20
-195.9225802461582
 30
0.0
  0
VERTEX
  5
1DD
330
1DB
100
AcDbEntity
  8
Ebene 1
 62
   179
420
  1709851
370
    18
100
AcDbVertex
100
AcDb2dVertex
 10
43.65624998908594
 20
-194.4191405763952
 30
0.0
  0
SEQEND
  5
1DE
330
1DB
100
AcDbEntity
  8
Ebene 1
370
    18
  0
POLYLINE
  5
1DF
330
145
100
AcDbEntity
  8
Ebene 1
 62
   179
420
  1709851
370
    18
100
AcDb2dPolyline
 66
     1
 10
0.0
 20
0.0
 30
0.0
  0
VERTEX
  5
1E0
330
1DF
100
AcDbEntity
  8
Ebene 1
 62
   179
420
  1709851
370
    18
100
AcDbVertex
100
AcDb2dVertex
 10
43.65624998908594
 20
-195.9225802461582
 30
0.0
  0
VERTEX
  5
1E1
330
1DF
100
AcDbEntity
  8
Ebene 1
 62
   179
420
  1709851
370
    18
100
AcDbVertex
100
AcDb2dVertex
 10
42.15349933841996
 20
-195.9225802461582
 30
0.0
  0
SEQEND
  5
1E2
330
1DF
100
AcDbEntity
  8
Ebene 1
370
    18
  0
POLYLINE
  5
1E3
330
145
100
AcDbEntity
  8
Ebene 1
 62
   179
420
  1709851
370
    18
100
AcDb2dPolyline
 66
     1
 10
0.0
 20
0.0
 30
0.0
  0
VERTEX
  5
1E4
330
1E3
100
AcDbEntity
  8
Ebene 1
 62
   179
420
  1709851
370
    18
100
AcDbVertex
100
AcDb2dVertex
 10
44.35474309872034
 20
-196.8114148813527
 30
0.0
  0
VERTEX
  5
1E5
330
1E3
100
AcDbEntity
  8
Ebene 1
 62
   179
420
  1709851
370
    18
100
AcDbVertex
100
AcDb2dVertex
 10
46.15394421589207
 20
-195.0123860189553
 30
0.0
  0
SEQEND
  5
1E6
330
1E3
100
AcDbEntity
  8
Ebene 1
370
    18
  0
POLYLINE
  5
1E7
330
145
100
AcDbEntity
  8
Ebene 1
 62
   179
420
  1709851
370
    18
100
AcDb2dPolyline
 66
     1
 10
0.0
 20
0.0
 30
0.0
  0
VERTEX
  5
1E8
330
1E7
100
AcDbEntity
  8
Ebene 1
 62
   179
420
  1709851
370
    18
100
AcDbVertex
100
AcDb2dVertex
 10
42.74605576188294
 20
-196.8114148813527
 30
0.0
  0
VERTEX
  5
1E9
330
1E7
100
AcDbEntity
  8
Ebene 1
 62
   179
420
  1709851
370
    18
100
AcDbVertex
100
AcDb2dVertex
 10
44.54525687905466
 20
-195.0123860189553
 30
0.0
  0
SEQEND
  5
1EA
330
1E7
100
AcDbEntity
  8
Ebene 1
370
    18
  0
MTEXT
  5
1EB
330
145
100
AcDbEntity
  8
Ebene 1
 62
   179
420
  1709851
100
AcDbMText
 10
43.80438909495168
 20
-199.7741969986676
 30
0.0
 40
1.8938508253643
 41
0.0
 71
     7
 72
     1
  1
\fArial|b0|i0|c0|p34;\W0.895322;8
 73
     1
 44
1.0
  0
MTEXT
  5
1EC
330
145
100
AcDbEntity
  8
Ebene 1
 62
   179
420
  1709851
100
AcDbMText
 10
163.7560682099291
 20
-199.8582573285077
 30
0.0
 40
1.8938508253643
 41
0.0
 71
     7
 72
     1
  1
\fArial|b0|i0|c0|p34;\W0.895322;8
 73
     1
 44
1.0
  0
POLYLINE
  5
1ED
330
145
100
AcDbEntity
  8
Ebene 1
 62
   179
420
  1709851
370
    18
100
AcDb2dPolyline
 66
     1
 10
0.0
 20
0.0
 30
0.0
  0
VERTEX
  5
1EE
330
1ED
100
AcDbEntity
  8
Ebene 1
 62
   179
420
  1709851
370
    18
100
AcDbVertex
100
AcDb2dVertex
 10
188.3516384077732
 20
-84.62790932129094
 30
0.0
  0
VERTEX
  5
1EF
330
1ED
100
AcDbEntity
  8
Ebene 1
 62
   179
420
  1709851
370
    18
100
AcDbVertex
100
AcDb2dVertex
 10
188.3516384077732
 20
-82.93498939983917
 30
0.0
  0
SEQEND
  5
1F0
330
1ED
100
AcDbEntity
  8
Ebene 1
370
    18
  0
POLYLINE
  5
1F1
330
145
100
AcDbEntity
  8
Ebene 1
 62
   179
420
  1709851
370
    18
100
AcDb2dPolyline
 66
     1
 10
0.0
 20
0.0
 30
0.0
  0
VERTEX
  5
1F2
330
1F1
100
AcDbEntity
  8
Ebene 1
 62
   179
420
  1709851
370
    18
100
AcDbVertex
100
AcDb2dVertex
 10
188.3516384077732
 20
-86.61745196402272
 30
0.0
  0
VERTEX
  5
1F3
330
1F1
100
AcDbEntity
  8
Ebene 1
 62
   179
420
  1709851
370
    18
100
AcDbVertex
100
AcDb2dVertex
 10
188.3516384077732
 20
-85.6228528974311
 30
0.0
  0
SEQEND
  5
1F4
330
1F1
100
AcDbEntity
  8
Ebene 1
370
    18
  0
POLYLINE
  5
1F5
330
145
100
AcDbEntity
  8
Ebene 1
 62
   179
420
  1709851
370
    18
100
AcDb2dPolyline
 66
     1
 10
0.0
 20
0.0
 30
0.0
  0
VERTEX
  5
1F6
330
1F5
100
AcDbEntity
  8
Ebene 1
 62
   179
420
  1709851
370
    18
100
AcDbVertex
100
AcDb2dVertex
 10
188.3516384077732
 20
-94.61868622851547
 30
0.0
  0
VERTEX
  5
1F7
330
1F5
100
AcDbEntity
  8
Ebene 1
 62
   179
420
  1709851
370
    18
100
AcDbVertex
100
AcDb2dVertex
 10
188.3516384077732
 20
-87.61239554016288
 30
0.0
  0
SEQEND
  5
1F8
330
1F5
100
AcDbEntity
  8
Ebene 1
370
    18
  0
POLYLINE
  5
1F9
330
145
100
AcDbEntity
  8
Ebene 1
 62
   179
420
  1709851
370
    18
100
AcDb2dPolyline
 66
     1
 10
0.0
 20
0.0
 30
0.0
  0
VERTEX
  5
1FA
330
1F9
100
AcDbEntity
  8
Ebene 1
 62
   179
420
  1709851
370
    18
100
AcDbVertex
100
AcDb2dVertex
 10
188.3516384077732
 20
-96.60822887124725
 30
0.0
  0
VERTEX
  5
1FB
330
1F9
100
AcDbEntity
  8
Ebene 1
 62
   179
420
  1709851
370
    18
100
AcDbVertex
100
AcDb2dVertex
 10
188.3516384077732
 20
-95.6132852951071
 30
0.0
  0
SEQEND
  5
1FC
330
1F9
100
AcDbEntity
  8
Ebene 1
370
    18
  0
POLYLINE
  5
1FD
330
145
100
AcDbEntity
  8
Ebene 1
 62
   179
420
  1709851
370
    18
100
AcDb2dPolyline
 66
     1
 10
0.0
 20
0.0
 30
0.0
  0
VERTEX
  5
1FE
330
1FD
100
AcDbEntity
  8
Ebene 1
 62
   179
420
  1709851
370
    18
100
AcDbVertex
100
AcDb2dVertex
 10
188.3516384077732
 20
-104.6091186261915
 30
0.0
  0
VERTEX
  5
1FF
330
1FD
100
AcDbEntity
  8
Ebene 1
 62
   179
420
  1709851
370
    18
100
AcDbVertex
100
AcDb2dVertex
 10
188.3516384077732
 20
-97.62418752984743
 30
0.0
  0
SEQEND
  5
200
330
1FD
100
AcDbEntity
  8
Ebene 1
370
    18
  0
POLYLINE
  5
201
330
145
100
AcDbEntity
  8
Ebene 1
 62
   179
420
  1709851
370
    18
100
AcDb2dPolyline
 66
     1
 10
0.0
 20
0.0
 30
0.0
  0
VERTEX
  5
202
330
201
100
AcDbEntity
  8
Ebene 1
 62
   179
420
  1709851
370
    18
100
AcDbVertex
100
AcDb2dVertex
 10
188.3516384077732
 20
-106.6200208609318
 30
0.0
  0
VERTEX
  5
203
330
201
100
AcDbEntity
  8
Ebene 1
 62
   179
420
  1709851
370
    18
100
AcDbVertex
100
AcDb2dVertex
 10
188.3516384077732
 20
-105.6250772847917
 30
0.0
  0
SEQEND
  5
204
330
201
100
AcDbEntity
  8
Ebene 1
370
    18
  0
POLYLINE
  5
205
330
145
100
AcDbEntity
  8
Ebene 1
 62
   179
420
  1709851
370
    18
100
AcDb2dPolyline
 66
     1
 10
0.0
 20
0.0
 30
0.0
  0
VERTEX
  5
206
330
205
100
AcDbEntity
  8
Ebene 1
 62
   179
420
  1709851
370
    18
100
AcDbVertex
100
AcDb2dVertex
 10
188.3516384077732
 20
-114.620910615876
 30
0.0
  0
VERTEX
  5
207
330
205
100
AcDbEntity
  8
Ebene 1
 62
   179
420
  1709851
370
    18
100
AcDbVertex
100
AcDb2dVertex
 10
188.3516384077732
 20
-107.6153089466205
 30
0.0
  0
SEQEND
  5
208
330
205
100
AcDbEntity
  8
Ebene 1
370
    18
  0
POLYLINE
  5
209
330
145
100
AcDbEntity
  8
Ebene 1
 62
   179
420
  1709851
370
    18
100
AcDb2dPolyline
 66
     1
 10
0.0
 20
0.0
 30
0.0
  0
VERTEX
  5
20A
330
209
100
AcDbEntity
  8
Ebene 1
 62
   179
420
  1709851
370
    18
100
AcDbVertex
100
AcDb2dVertex
 10
188.3516384077732
 20
-116.6111422777049
 30
0.0
  0
VERTEX
  5
20B
330
209
100
AcDbEntity
  8
Ebene 1
 62
   179
420
  1709851
370
    18
100
AcDbVertex
100
AcDb2dVertex
 10
188.3516384077732
 20
-115.6161987015647
 30
0.0
  0
SEQEND
  5
20C
330
209
100
AcDbEntity
  8
Ebene 1
370
    18
  0
POLYLINE
  5
20D
330
145
100
AcDbEntity
  8
Ebene 1
 62
   179
420
  1709851
370
    18
100
AcDb2dPolyline
 66
     1
 10
0.0
 20
0.0
 30
0.0
  0
VERTEX
  5
20E
330
20D
100
AcDbEntity
  8
Ebene 1
 62
   179
420
  1709851
370
    18
100
AcDbVertex
100
AcDb2dVertex
 10
188.3516384077732
 20
-124.6116875231006
 30
0.0
  0
VERTEX
  5
20F
330
20D
100
AcDbEntity
  8
Ebene 1
 62
   179
420
  1709851
370
    18
100
AcDbVertex
100
AcDb2dVertex
 10
188.3516384077732
 20
-117.6267564267565
 30
0.0
  0
SEQEND
  5
210
330
20D
100
AcDbEntity
  8
Ebene 1
370
    18
  0
POLYLINE
  5
211
330
145
100
AcDbEntity
  8
Ebene 1
 62
   179
420
  1709851
370
    18
100
AcDb2dPolyline
 66
     1
 10
0.0
 20
0.0
 30
0.0
  0
VERTEX
  5
212
330
211
100
AcDbEntity
  8
Ebene 1
 62
   179
420
  1709851
370
    18
100
AcDbVertex
100
AcDb2dVertex
 10
188.3516384077732
 20
-126.6225897578409
 30
0.0
  0
VERTEX
  5
213
330
211
100
AcDbEntity
  8
Ebene 1
 62
   179
420
  1709851
370
    18
100
AcDbVertex
100
AcDb2dVertex
 10
188.3516384077732
 20
-125.6069756087892
 30
0.0
  0
SEQEND
  5
214
330
211
100
AcDbEntity
  8
Ebene 1
370
    18
  0
POLYLINE
  5
215
330
145
100
AcDbEntity
  8
Ebene 1
 62
   179
420
  1709851
370
    18
100
AcDb2dPolyline
 66
     1
 10
0.0
 20
0.0
 30
0.0
  0
VERTEX
  5
216
330
215
100
AcDbEntity
  8
Ebene 1
 62
   179
420
  1709851
370
    18
100
AcDbVertex
100
AcDb2dVertex
 10
188.3516384077732
 20
-134.6238240223336
 30
0.0
  0
VERTEX
  5
217
330
215
100
AcDbEntity
  8
Ebene 1
 62
   179
420
  1709851
370
    18
100
AcDbVertex
100
AcDb2dVertex
 10
188.3516384077732
 20
-127.617533333981
 30
0.0
  0
SEQEND
  5
218
330
215
100
AcDbEntity
  8
Ebene 1
370
    18
  0
POLYLINE
  5
219
330
145
100
AcDbEntity
  8
Ebene 1
 62
   179
420
  1709851
370
    18
100
AcDb2dPolyline
 66
     1
 10
0.0
 20
0.0
 30
0.0
  0
VERTEX
  5
21A
330
219
100
AcDbEntity
  8
Ebene 1
 62
   179
420
  1709851
370
    18
100
AcDbVertex
100
AcDb2dVertex
 10
188.3516384077732
 20
-136.6133666650654
 30
0.0
  0
VERTEX
  5
21B
330
219
100
AcDbEntity
  8
Ebene 1
 62
   179
420
  1709851
370
    18
100
AcDbVertex
100
AcDb2dVertex
 10
188.3516384077732
 20
-135.6184230889253
 30
0.0
  0
SEQEND
  5
21C
330
219
100
AcDbEntity
  8
Ebene 1
370
    18
  0
POLYLINE
  5
21D
330
145
100
AcDbEntity
  8
Ebene 1
 62
   179
420
  1709851
370
    18
100
AcDb2dPolyline
 66
     1
 10
0.0
 20
0.0
 30
0.0
  0
VERTEX
  5
21E
330
21D
100
AcDbEntity
  8
Ebene 1
 62
   179
420
  1709851
370
    18
100
AcDbVertex
100
AcDb2dVertex
 10
188.3516384077732
 20
-144.6142564200096
 30
0.0
  0
VERTEX
  5
21F
330
21D
100
AcDbEntity
  8
Ebene 1
 62
   179
420
  1709851
370
    18
100
AcDbVertex
100
AcDb2dVertex
 10
188.3516384077732
 20
-137.6083102412056
 30
0.0
  0
SEQEND
  5
220
330
21D
100
AcDbEntity
  8
Ebene 1
370
    18
  0
POLYLINE
  5
221
330
145
100
AcDbEntity
  8
Ebene 1
 62
   179
420
  1709851
370
    18
100
AcDb2dPolyline
 66
     1
 10
0.0
 20
0.0
 30
0.0
  0
VERTEX
  5
222
330
221
100
AcDbEntity
  8
Ebene 1
 62
   179
420
  1709851
370
    18
100
AcDbVertex
100
AcDb2dVertex
 10
188.3516384077732
 20
-146.60414357229
 30
0.0
  0
VERTEX
  5
223
330
221
100
AcDbEntity
  8
Ebene 1
 62
   179
420
  1709851
370
    18
100
AcDbVertex
100
AcDb2dVertex
 10
188.3516384077732
 20
-145.6091999961498
 30
0.0
  0
SEQEND
  5
224
330
221
100
AcDbEntity
  8
Ebene 1
370
    18
  0
POLYLINE
  5
225
330
145
100
AcDbEntity
  8
Ebene 1
 62
   179
420
  1709851
370
    18
100
AcDb2dPolyline
 66
     1
 10
0.0
 20
0.0
 30
0.0
  0
VERTEX
  5
226
330
225
100
AcDbEntity
  8
Ebene 1
 62
   179
420
  1709851
370
    18
100
AcDbVertex
100
AcDb2dVertex
 10
188.3516384077732
 20
-154.6048610724599
 30
0.0
  0
VERTEX
  5
227
330
225
100
AcDbEntity
  8
Ebene 1
 62
   179
420
  1709851
370
    18
100
AcDbVertex
100
AcDb2dVertex
 10
188.3516384077732
 20
-147.6201022308901
 30
0.0
  0
SEQEND
  5
228
330
225
100
AcDbEntity
  8
Ebene 1
370
    18
  0
POLYLINE
  5
229
330
145
100
AcDbEntity
  8
Ebene 1
 62
   179
420
  1709851
370
    18
100
AcDb2dPolyline
 66
     1
 10
0.0
 20
0.0
 30
0.0
  0
VERTEX
  5
22A
330
229
100
AcDbEntity
  8
Ebene 1
 62
   179
420
  1709851
370
    18
100
AcDbVertex
100
AcDb2dVertex
 10
188.3516384077732
 20
-156.6161078167488
 30
0.0
  0
VERTEX
  5
22B
330
229
100
AcDbEntity
  8
Ebene 1
 62
   179
420
  1709851
370
    18
100
AcDbVertex
100
AcDb2dVertex
 10
188.3516384077732
 20
-155.6211642406086
 30
0.0
  0
SEQEND
  5
22C
330
229
100
AcDbEntity
  8
Ebene 1
370
    18
  0
POLYLINE
  5
22D
330
145
100
AcDbEntity
  8
Ebene 1
 62
   179
420
  1709851
370
    18
100
AcDb2dPolyline
 66
     1
 10
0.0
 20
0.0
 30
0.0
  0
VERTEX
  5
22E
330
22D
100
AcDbEntity
  8
Ebene 1
 62
   179
420
  1709851
370
    18
100
AcDbVertex
100
AcDb2dVertex
 10
188.3516384077732
 20
-164.616997571693
 30
0.0
  0
VERTEX
  5
22F
330
22D
100
AcDbEntity
  8
Ebene 1
 62
   179
420
  1709851
370
    18
100
AcDbVertex
100
AcDb2dVertex
 10
188.3516384077732
 20
-157.6103623737919
 30
0.0
  0
SEQEND
  5
230
330
22D
100
AcDbEntity
  8
Ebene 1
370
    18
  0
POLYLINE
  5
231
330
145
100
AcDbEntity
  8
Ebene 1
 62
   179
420
  1709851
370
    18
100
AcDb2dPolyline
 66
     1
 10
0.0
 20
0.0
 30
0.0
  0
VERTEX
  5
232
330
231
100
AcDbEntity
  8
Ebene 1
 62
   179
420
  1709851
370
    18
100
AcDbVertex
100
AcDb2dVertex
 10
188.3516384077732
 20
-166.6061957048762
 30
0.0
  0
VERTEX
  5
233
330
231
100
AcDbEntity
  8
Ebene 1
 62
   179
420
  1709851
370
    18
100
AcDbVertex
100
AcDb2dVertex
 10
188.3516384077732
 20
-165.6119411478331
 30
0.0
  0
SEQEND
  5
234
330
231
100
AcDbEntity
  8
Ebene 1
370
    18
  0
POLYLINE
  5
235
330
145
100
AcDbEntity
  8
Ebene 1
 62
   179
420
  1709851
370
    18
100
AcDb2dPolyline
 66
     1
 10
0.0
 20
0.0
 30
0.0
  0
VERTEX
  5
236
330
235
100
AcDbEntity
  8
Ebene 1
 62
   179
420
  1709851
370
    18
100
AcDbVertex
100
AcDb2dVertex
 10
188.3516384077732
 20
-174.6077744789175
 30
0.0
  0
VERTEX
  5
237
330
235
100
AcDbEntity
  8
Ebene 1
 62
   179
420
  1709851
370
    18
100
AcDbVertex
100
AcDb2dVertex
 10
188.3516384077732
 20
-167.6224988730249
 30
0.0
  0
SEQEND
  5
238
330
235
100
AcDbEntity
  8
Ebene 1
370
    18
  0
POLYLINE
  5
239
330
145
100
AcDbEntity
  8
Ebene 1
 62
   179
420
  1709851
370
    18
100
AcDb2dPolyline
 66
     1
 10
0.0
 20
0.0
 30
0.0
  0
VERTEX
  5
23A
330
239
100
AcDbEntity
  8
Ebene 1
 62
   179
420
  1709851
370
    18
100
AcDbVertex
100
AcDb2dVertex
 10
188.3516384077732
 20
-176.6183322041093
 30
0.0
  0
VERTEX
  5
23B
330
239
100
AcDbEntity
  8
Ebene 1
 62
   179
420
  1709851
370
    18
100
AcDbVertex
100
AcDb2dVertex
 10
188.3516384077732
 20
-175.6020290359606
 30
0.0
  0
SEQEND
  5
23C
330
239
100
AcDbEntity
  8
Ebene 1
370
    18
  0
POLYLINE
  5
23D
330
145
100
AcDbEntity
  8
Ebene 1
 62
   179
420
  1709851
370
    18
100
AcDb2dPolyline
 66
     1
 10
0.0
 20
0.0
 30
0.0
  0
VERTEX
  5
23E
330
23D
100
AcDbEntity
  8
Ebene 1
 62
   179
420
  1709851
370
    18
100
AcDbVertex
100
AcDb2dVertex
 10
20.35172932433915
 20
-84.62790932129094
 30
0.0
  0
VERTEX
  5
23F
330
23D
100
AcDbEntity
  8
Ebene 1
 62
   179
420
  1709851
370
    18
100
AcDbVertex
100
AcDb2dVertex
 10
20.35172932433915
 20
-82.93498939983917
 30
0.0
  0
SEQEND
  5
240
330
23D
100
AcDbEntity
  8
Ebene 1
370
    18
  0
POLYLINE
  5
241
330
145
100
AcDbEntity
  8
Ebene 1
 62
   179
420
  1709851
370
    18
100
AcDb2dPolyline
 66
     1
 10
0.0
 20
0.0
 30
0.0
  0
VERTEX
  5
242
330
241
100
AcDbEntity
  8
Ebene 1
 62
   179
420
  1709851
370
    18
100
AcDbVertex
100
AcDb2dVertex
 10
20.35172932433915
 20
-86.61745196402272
 30
0.0
  0
VERTEX
  5
243
330
241
100
AcDbEntity
  8
Ebene 1
 62
   179
420
  1709851
370
    18
100
AcDbVertex
100
AcDb2dVertex
 10
20.35172932433915
 20
-85.6228528974311
 30
0.0
  0
SEQEND
  5
244
330
241
100
AcDbEntity
  8
Ebene 1
370
    18
  0
POLYLINE
  5
245
330
145
100
AcDbEntity
  8
Ebene 1
 62
   179
420
  1709851
370
    18
100
AcDb2dPolyline
 66
     1
 10
0.0
 20
0.0
 30
0.0
  0
VERTEX
  5
246
330
245
100
AcDbEntity
  8
Ebene 1
 62
   179
420
  1709851
370
    18
100
AcDbVertex
100
AcDb2dVertex
 10
20.35172932433915
 20
-94.61868622851547
 30
0.0
  0
VERTEX
  5
247
330
245
100
AcDbEntity
  8
Ebene 1
 62
   179
420
  1709851
370
    18
100
AcDbVertex
100
AcDb2dVertex
 10
20.35172932433915
 20
-87.61239554016288
 30
0.0
  0
SEQEND
  5
248
330
245
100
AcDbEntity
  8
Ebene 1
370
    18
  0
POLYLINE
  5
249
330
145
100
AcDbEntity
  8
Ebene 1
 62
   179
420
  1709851
370
    18
100
AcDb2dPolyline
 66
     1
 10
0.0
 20
0.0
 30
0.0
  0
VERTEX
  5
24A
330
249
100
AcDbEntity
  8
Ebene 1
 62
   179
420
  1709851
370
    18
100
AcDbVertex
100
AcDb2dVertex
 10
20.35172932433915
 20
-96.60822887124725
 30
0.0
  0
VERTEX
  5
24B
330
249
100
AcDbEntity
  8
Ebene 1
 62
   179
420
  1709851
370
    18
100
AcDbVertex
100
AcDb2dVertex
 10
20.35172932433915
 20
-95.6132852951071
 30
0.0
  0
SEQEND
  5
24C
330
249
100
AcDbEntity
  8
Ebene 1
370
    18
  0
POLYLINE
  5
24D
330
145
100
AcDbEntity
  8
Ebene 1
 62
   179
420
  1709851
370
    18
100
AcDb2dPolyline
 66
     1
 10
0.0
 20
0.0
 30
0.0
  0
VERTEX
  5
24E
330
24D
100
AcDbEntity
  8
Ebene 1
 62
   179
420
  1709851
370
    18
100
AcDbVertex
100
AcDb2dVertex
 10
20.35172932433915
 20
-104.6091186261915
 30
0.0
  0
VERTEX
  5
24F
330
24D
100
AcDbEntity
  8
Ebene 1
 62
   179
420
  1709851
370
    18
100
AcDbVertex
100
AcDb2dVertex
 10
20.35172932433915
 20
-97.62453203939596
 30
0.0
  0
SEQEND
  5
250
330
24D
100
AcDbEntity
  8
Ebene 1
370
    18
  0
POLYLINE
  5
251
330
145
100
AcDbEntity
  8
Ebene 1
 62
   179
420
  1709851
370
    18
100
AcDb2dPolyline
 66
     1
 10
0.0
 20
0.0
 30
0.0
  0
VERTEX
  5
252
330
251
100
AcDbEntity
  8
Ebene 1
 62
   179
420
  1709851
370
    18
100
AcDbVertex
100
AcDb2dVertex
 10
20.35172932433915
 20
-106.6203653704803
 30
0.0
  0
VERTEX
  5
253
330
251
100
AcDbEntity
  8
Ebene 1
 62
   179
420
  1709851
370
    18
100
AcDbVertex
100
AcDb2dVertex
 10
20.35172932433915
 20
-105.6250772847917
 30
0.0
  0
SEQEND
  5
254
330
251
100
AcDbEntity
  8
Ebene 1
370
    18
  0
POLYLINE
  5
255
330
145
100
AcDbEntity
  8
Ebene 1
 62
   179
420
  1709851
370
    18
100
AcDb2dPolyline
 66
     1
 10
0.0
 20
0.0
 30
0.0
  0
VERTEX
  5
256
330
255
100
AcDbEntity
  8
Ebene 1
 62
   179
420
  1709851
370
    18
100
AcDbVertex
100
AcDb2dVertex
 10
20.35172932433915
 20
-114.620910615876
 30
0.0
  0
VERTEX
  5
257
330
255
100
AcDbEntity
  8
Ebene 1
 62
   179
420
  1709851
370
    18
100
AcDbVertex
100
AcDb2dVertex
 10
20.35172932433915
 20
-107.6153089466205
 30
0.0
  0
SEQEND
  5
258
330
255
100
AcDbEntity
  8
Ebene 1
370
    18
  0
POLYLINE
  5
259
330
145
100
AcDbEntity
  8
Ebene 1
 62
   179
420
  1709851
370
    18
100
AcDb2dPolyline
 66
     1
 10
0.0
 20
0.0
 30
0.0
  0
VERTEX
  5
25A
330
259
100
AcDbEntity
  8
Ebene 1
 62
   179
420
  1709851
370
    18
100
AcDbVertex
100
AcDb2dVertex
 10
20.35172932433915
 20
-116.6111422777049
 30
0.0
  0
VERTEX
  5
25B
330
259
100
AcDbEntity
  8
Ebene 1
 62
   179
420
  1709851
370
    18
100
AcDbVertex
100
AcDb2dVertex
 10
20.35172932433915
 20
-115.6161987015647
 30
0.0
  0
SEQEND
  5
25C
330
259
100
AcDbEntity
  8
Ebene 1
370
    18
  0
POLYLINE
  5
25D
330
145
100
AcDbEntity
  8
Ebene 1
 62
   179
420
  1709851
370
    18
100
AcDb2dPolyline
 66
     1
 10
0.0
 20
0.0
 30
0.0
  0
VERTEX
  5
25E
330
25D
100
AcDbEntity
  8
Ebene 1
 62
   179
420
  1709851
370
    18
100
AcDbVertex
100
AcDb2dVertex
 10
20.35172932433915
 20
-124.6120320326491
 30
0.0
  0
VERTEX
  5
25F
330
25D
100
AcDbEntity
  8
Ebene 1
 62
   179
420
  1709851
370
    18
100
AcDbVertex
100
AcDb2dVertex
 10
20.35172932433915
 20
-117.6267564267565
 30
0.0
  0
SEQEND
  5
260
330
25D
100
AcDbEntity
  8
Ebene 1
370
    18
  0
POLYLINE
  5
261
330
145
100
AcDbEntity
  8
Ebene 1
 62
   179
420
  1709851
370
    18
100
AcDb2dPolyline
 66
     1
 10
0.0
 20
0.0
 30
0.0
  0
VERTEX
  5
262
330
261
100
AcDbEntity
  8
Ebene 1
 62
   179
420
  1709851
370
    18
100
AcDbVertex
100
AcDb2dVertex
 10
20.35172932433915
 20
-126.6225897578409
 30
0.0
  0
VERTEX
  5
263
330
261
100
AcDbEntity
  8
Ebene 1
 62
   179
420
  1709851
370
    18
100
AcDbVertex
100
AcDb2dVertex
 10
20.35172932433915
 20
-125.6069756087892
 30
0.0
  0
SEQEND
  5
264
330
261
100
AcDbEntity
  8
Ebene 1
370
    18
  0
POLYLINE
  5
265
330
145
100
AcDbEntity
  8
Ebene 1
 62
   179
420
  1709851
370
    18
100
AcDb2dPolyline
 66
     1
 10
0.0
 20
0.0
 30
0.0
  0
VERTEX
  5
266
330
265
100
AcDbEntity
  8
Ebene 1
 62
   179
420
  1709851
370
    18
100
AcDbVertex
100
AcDb2dVertex
 10
20.35172932433915
 20
-134.6238240223336
 30
0.0
  0
VERTEX
  5
267
330
265
100
AcDbEntity
  8
Ebene 1
 62
   179
420
  1709851
370
    18
100
AcDbVertex
100
AcDb2dVertex
 10
20.35172932433915
 20
-127.617533333981
 30
0.0
  0
SEQEND
  5
268
330
265
100
AcDbEntity
  8
Ebene 1
370
    18
  0
POLYLINE
  5
269
330
145
100
AcDbEntity
  8
Ebene 1
 62
   179
420
  1709851
370
    18
100
AcDb2dPolyline
 66
     1
 10
0.0
 20
0.0
 30
0.0
  0
VERTEX
  5
26A
330
269
100
AcDbEntity
  8
Ebene 1
 62
   179
420
  1709851
370
    18
100
AcDbVertex
100
AcDb2dVertex
 10
20.35172932433915
 20
-136.6133666650654
 30
0.0
  0
VERTEX
  5
26B
330
269
100
AcDbEntity
  8
Ebene 1
 62
   179
420
  1709851
370
    18
100
AcDbVertex
100
AcDb2dVertex
 10
20.35172932433915
 20
-135.6184230889253
 30
0.0
  0
SEQEND
  5
26C
330
269
100
AcDbEntity
  8
Ebene 1
370
    18
  0
POLYLINE
  5
26D
330
145
100
AcDbEntity
  8
Ebene 1
 62
   179
420
  1709851
370
    18
100
AcDb2dPolyline
 66
     1
 10
0.0
 20
0.0
 30
0.0
  0
VERTEX
  5
26E
330
26D
100
AcDbEntity
  8
Ebene 1
 62
   179
420
  1709851
370
    18
100
AcDbVertex
100
AcDb2dVertex
 10
20.35172932433915
 20
-144.6142564200096
 30
0.0
  0
VERTEX
  5
26F
330
26D
100
AcDbEntity
  8
Ebene 1
 62
   179
420
  1709851
370
    18
100
AcDbVertex
100
AcDb2dVertex
 10
20.35172932433915
 20
-137.6083102412056
 30
0.0
  0
SEQEND
  5
270
330
26D
100
AcDbEntity
  8
Ebene 1
370
    18
  0
POLYLINE
  5
271
330
145
100
AcDbEntity
  8
Ebene 1
 62
   179
420
  1709851
370
    18
100
AcDb2dPolyline
 66
     1
 10
0.0
 20
0.0
 30
0.0
  0
VERTEX
  5
272
330
271
100
AcDbEntity
  8
Ebene 1
 62
   179
420
  1709851
370
    18
100
AcDbVertex
100
AcDb2dVertex
 10
20.35172932433915
 20
-146.60414357229
 30
0.0
  0
VERTEX
  5
273
330
271
100
AcDbEntity
  8
Ebene 1
 62
   179
420
  1709851
370
    18
100
AcDbVertex
100
AcDb2dVertex
 10
20.35172932433915
 20
-145.6091999961498
 30
0.0
  0
SEQEND
  5
274
330
271
100
AcDbEntity
  8
Ebene 1
370
    18
  0
POLYLINE
  5
275
330
145
100
AcDbEntity
  8
Ebene 1
 62
   179
420
  1709851
370
    18
100
AcDb2dPolyline
 66
     1
 10
0.0
 20
0.0
 30
0.0
  0
VERTEX
  5
276
330
275
100
AcDbEntity
  8
Ebene 1
 62
   179
420
  1709851
370
    18
100
AcDbVertex
100
AcDb2dVertex
 10
20.35172932433915
 20
-154.6048610724599
 30
0.0
  0
VERTEX
  5
277
330
275
100
AcDbEntity
  8
Ebene 1
 62
   179
420
  1709851
370
    18
100
AcDbVertex
100
AcDb2dVertex
 10
20.35172932433915
 20
-147.6201022308901
 30
0.0
  0
SEQEND
  5
278
330
275
100
AcDbEntity
  8
Ebene 1
370
    18
  0
POLYLINE
  5
279
330
145
100
AcDbEntity
  8
Ebene 1
 62
   179
420
  1709851
370
    18
100
AcDb2dPolyline
 66
     1
 10
0.0
 20
0.0
 30
0.0
  0
VERTEX
  5
27A
330
279
100
AcDbEntity
  8
Ebene 1
 62
   179
420
  1709851
370
    18
100
AcDbVertex
100
AcDb2dVertex
 10
20.35172932433915
 20
-156.6161078167488
 30
0.0
  0
VERTEX
  5
27B
330
279
100
AcDbEntity
  8
Ebene 1
 62
   179
420
  1709851
370
    18
100
AcDbVertex
100
AcDb2dVertex
 10
20.35172932433915
 20
-155.6211642406086
 30
0.0
  0
SEQEND
  5
27C
330
279
100
AcDbEntity
  8
Ebene 1
370
    18
  0
POLYLINE
  5
27D
330
145
100
AcDbEntity
  8
Ebene 1
 62
   179
420
  1709851
370
    18
100
AcDb2dPolyline
 66
     1
 10
0.0
 20
0.0
 30
0.0
  0
VERTEX
  5
27E
330
27D
100
AcDbEntity
  8
Ebene 1
 62
   179
420
  1709851
370
    18
100
AcDbVertex
100
AcDb2dVertex
 10
20.35172932433915
 20
-164.616997571693
 30
0.0
  0
VERTEX
  5
27F
330
27D
100
AcDbEntity
  8
Ebene 1
 62
   179
420
  1709851
370
    18
100
AcDbVertex
100
AcDb2dVertex
 10
20.35172932433915
 20
-157.6103623737919
 30
0.0
  0
SEQEND
  5
280
330
27D
100
AcDbEntity
  8
Ebene 1
370
    18
  0
POLYLINE
  5
281
330
145
100
AcDbEntity
  8
Ebene 1
 62
   179
420
  1709851
370
    18
100
AcDb2dPolyline
 66
     1
 10
0.0
 20
0.0
 30
0.0
  0
VERTEX
  5
282
330
281
100
AcDbEntity
  8
Ebene 1
 62
   179
420
  1709851
370
    18
100
AcDbVertex
100
AcDb2dVertex
 10
20.35172932433915
 20
-166.6061957048762
 30
0.0
  0
VERTEX
  5
283
330
281
100
AcDbEntity
  8
Ebene 1
 62
   179
420
  1709851
370
    18
100
AcDbVertex
100
AcDb2dVertex
 10
20.35172932433915
 20
-165.6119411478331
 30
0.0
  0
SEQEND
  5
284
330
281
100
AcDbEntity
  8
Ebene 1
370
    18
  0
POLYLINE
  5
285
330
145
100
AcDbEntity
  8
Ebene 1
 62
   179
420
  1709851
370
    18
100
AcDb2dPolyline
 66
     1
 10
0.0
 20
0.0
 30
0.0
  0
VERTEX
  5
286
330
285
100
AcDbEntity
  8
Ebene 1
 62
   179
420
  1709851
370
    18
100
AcDbVertex
100
AcDb2dVertex
 10
20.35172932433915
 20
-174.6077744789175
 30
0.0
  0
VERTEX
  5
287
330
285
100
AcDbEntity
  8
Ebene 1
 62
   179
420
  1709851
370
    18
100
AcDbVertex
100
AcDb2dVertex
 10
20.35172932433915
 20
-167.6224988730249
 30
0.0
  0
SEQEND
  5
288
330
285
100
AcDbEntity
  8
Ebene 1
370
    18
  0
POLYLINE
  5
289
330
145
100
AcDbEntity
  8
Ebene 1
 62
   179
420
  1709851
370
    18
100
AcDb2dPolyline
 66
     1
 10
0.0
 20
0.0
 30
0.0
  0
VERTEX
  5
28A
330
289
100
AcDbEntity
  8
Ebene 1
 62
   179
420
  1709851
370
    18
100
AcDbVertex
100
AcDb2dVertex
 10
20.35172932433915
 20
-176.6183322041093
 30
0.0
  0
VERTEX
  5
28B
330
289
100
AcDbEntity
  8
Ebene 1
 62
   179
420
  1709851
370
    18
100
AcDbVertex
100
AcDb2dVertex
 10
20.35172932433915
 20
-175.6020290359606
 30
0.0
  0
SEQEND
  5
28C
330
289
100
AcDbEntity
  8
Ebene 1
370
    18
  0
POLYLINE
  5
28D
330
145
100
AcDbEntity
  8
Ebene 1
370
     0
100
AcDb2dPolyline
 66
     1
 10
0.0
 20
0.0
 30
0.0
  0
VERTEX
  5
28E
330
28D
100
AcDbEntity
  8
Ebene 1
370
     0
100
AcDbVertex
100
AcDb2dVertex
 10
20.10833332830625
 20
-209.5114148781777
 30
0.0
  0
VERTEX
  5
28F
330
28D
100
AcDbEntity
  8
Ebene 1
370
     0
100
AcDbVertex
100
AcDb2dVertex
 10
188.5948621490319
 20
-209.5114148781777
 30
0.0
  0
VERTEX
  5
290
330
28D
100
AcDbEntity
  8
Ebene 1
370
     0
100
AcDbVertex
100
AcDb2dVertex
 10
188.5948621490319
 20
-82.8498955413535
 30
0.0
  0
VERTEX
  5
291
330
28D
100
AcDbEntity
  8
Ebene 1
370
     0
100
AcDbVertex
100
AcDb2dVertex
 10
20.10833332830625
 20
-82.8498955413535
 30
0.0
  0
VERTEX
  5
292
330
28D
100
AcDbEntity
  8
Ebene 1
370
     0
100
AcDbVertex
100
AcDb2dVertex
 10
20.10833332830625
 20
-209.5114148781777
 30
0.0
  0
SEQEND
  5
293
330
28D
100
AcDbEntity
  8
Ebene 1
370
     0
  0
ENDBLK
  5
148
330
145
100
AcDbEntity
  8
0
100
AcDbBlockEnd
  0
BLOCK
  5
29A
330
298
100
AcDbEntity
  8
0
100
AcDbBlockBegin
  2
block 4
 70
     0
 71
     0
 10
0.0
 20
0.0
 30
0.0
  3
block 4
  1

  0
MTEXT
  5
29C
330
298
100
AcDbEntity
  8
Ebene 1
 62
   179
420
  1709851
100
AcDbMText
 10
68.31555445340723
 20
-194.9696668349382
 30
0.0
 40
2.370558020330733
 41
0.0
 71
     7
 72
     1
  1
\fArial|b0|i0|c0|p34;\W0.797792;PLATTENMASS - WORK SIZE 
 73
     1
 44
1.0
  0
MTEXT
  5
29D
330
298
100
AcDbEntity
  8
Ebene 1
 62
   179
420
  1709851
100
AcDbMText
 10
107.750184434868
 20
-194.9696668349382
 30
0.0
 40
2.370558020330733
 41
0.0
 71
     7
 72
     1
  1
\fArial|b0|i0|c0|p34;\W0.797792;- COTE DE FABRICATIO
 73
     1
 44
1.0
  0
MTEXT
  5
29E
330
298
100
AcDbEntity
  8
Ebene 1
 62
   179
420
  1709851
100
AcDbMText
 10
139.3889078427569
 20
-194.9696668349382
 30
0.0
 40
2.370558020330733
 41
0.0
 71
     7
 72
     1
  1
\fArial|b0|i0|c0|p34;\W0.797792;N
 73
     1
 44
1.0
  0
MTEXT
  5
29F
330
298
100
AcDbEntity
  8
Ebene 1
 62
   179
420
  1709851
100
AcDbMText
 10
71.17463919661607
 20
-206.7601616236572
 30
0.0
 40
2.370558020330733
 41
0.0
 71
     7
 72
     1
  1
\fArial|b0|i0|c0|p34;\W0.797792;RASTERMASS - GRID SIZE - FORMAT DE TRAME
 73
     1
 44
1.0
  0
POLYLINE
  5
2A0
330
298
100
AcDbEntity
  8
Ebene 1
370
     0
100
AcDb2dPolyline
 66
     1
 10
0.0
 20
0.0
 30
0.0
  0
VERTEX
  5
2A1
330
2A0
100
AcDbEntity
  8
Ebene 1
370
     0
100
AcDbVertex
100
AcDb2dVertex
 10
20.10833332830625
 20
-209.5114148781777
 30
0.0
  0
VERTEX
  5
2A2
330
2A0
100
AcDbEntity
  8
Ebene 1
370
     0
100
AcDbVertex
100
AcDb2dVertex
 10
188.5948621490319
 20
-209.5114148781777
 30
0.0
  0
VERTEX
  5
2A3
330
2A0
100
AcDbEntity
  8
Ebene 1
370
     0
100
AcDbVertex
100
AcDb2dVertex
 10
188.5948621490319
 20
-82.8498955413535
 30
0.0
  0
VERTEX
  5
2A4
330
2A0
100
AcDbEntity
  8
Ebene 1
370
     0
100
AcDbVertex
100
AcDb2dVertex
 10
20.10833332830625
 20
-82.8498955413535
 30
0.0
  0
VERTEX
  5
2A5
330
2A0
100
AcDbEntity
  8
Ebene 1
370
     0
100
AcDbVertex
100
AcDb2dVertex
 10
20.10833332830625
 20
-209.5114148781777
 30
0.0
  0
SEQEND
  5
2A6
330
2A0
100
AcDbEntity
  8
Ebene 1
370
     0
  0
ENDBLK
  5
29B
330
298
100
AcDbEntity
  8
0
100
AcDbBlockEnd
  0
BLOCK
  5
311
330
30F
100
AcDbEntity
  8
0
100
AcDbBlockBegin
  2
block 5
 70
     0
 71
     0
 10
0.0
 20
0.0
 30
0.0
  3
block 5
  1

  0
POLYLINE
  5
313
330
30F
100
AcDbEntity
  8
Ebene 1
 62
   179
420
  1709851
370
    18
100
AcDb2dPolyline
 66
     1
 10
0.0
 20
0.0
 30
0.0
  0
VERTEX
  5
314
330
313
100
AcDbEntity
  8
Ebene 1
 62
   179
420
  1709851
370
    18
100
AcDbVertex
100
AcDb2dVertex
 10
155.3527913023077
 20
-162.9233886311441
 30
0.0
  0
VERTEX
  5
315
330
313
100
AcDbEntity
  8
Ebene 1
 62
   179
420
  1709851
370
    18
100
AcDbVertex
100
AcDb2dVertex
 10
159.8400281718455
 20
-148.5302964580931
 30
0.0
  0
SEQEND
  5
316
330
313
100
AcDbEntity
  8
Ebene 1
370
    18
  0
POLYLINE
  5
317
330
30F
100
AcDbEntity
  8
Ebene 1
 62
   179
420
  1709851
370
    18
100
AcDb2dPolyline
 66
     1
 10
0.0
 20
0.0
 30
0.0
  0
VERTEX
  5
318
330
317
100
AcDbEntity
  8
Ebene 1
 62
   179
420
  1709851
370
    18
100
AcDbVertex
100
AcDb2dVertex
 10
160.8349717479857
 20
-148.5302964580931
 30
0.0
  0
VERTEX
  5
319
330
317
100
AcDbEntity
  8
Ebene 1
 62
   179
420
  1709851
370
    18
100
AcDbVertex
100
AcDb2dVertex
 10
164.5601534961864
 20
-160.4470539963466
 30
0.0
  0
SEQEND
  5
31A
330
317
100
AcDbEntity
  8
Ebene 1
370
    18
  0
POLYLINE
  5
31B
330
30F
100
AcDbEntity
  8
Ebene 1
 62
   179
420
  1709851
370
    18
100
AcDb2dPolyline
 66
     1
 10
0.0
 20
0.0
 30
0.0
  0
VERTEX
  5
31C
330
31B
100
AcDbEntity
  8
Ebene 1
 62
   179
420
  1709851
370
    18
100
AcDbVertex
100
AcDb2dVertex
 10
165.1316948371893
 20
-162.2674424507526
 30
0.0
  0
VERTEX
  5
31D
330
31B
100
AcDbEntity
  8
Ebene 1
 62
   179
420
  1709851
370
    18
100
AcDbVertex
100
AcDb2dVertex
 10
165.3439127190807
 20
-162.9233886311441
 30
0.0
  0
SEQEND
  5
31E
330
31B
100
AcDbEntity
  8
Ebene 1
370
    18
  0
POLYLINE
  5
31F
330
30F
100
AcDbEntity
  8
Ebene 1
 62
   179
420
  1709851
370
    18
100
AcDb2dPolyline
 66
     1
 10
0.0
 20
0.0
 30
0.0
  0
VERTEX
  5
320
330
31F
100
AcDbEntity
  8
Ebene 1
 62
   179
420
  1709851
370
    18
100
AcDbVertex
100
AcDb2dVertex
 10
45.15900063975192
 20
-162.9233886311441
 30
0.0
  0
VERTEX
  5
321
330
31F
100
AcDbEntity
  8
Ebene 1
 62
   179
420
  1709851
370
    18
100
AcDbVertex
100
AcDb2dVertex
 10
164.2428602019949
 20
-162.9233886311441
 30
0.0
  0
SEQEND
  5
322
330
31F
100
AcDbEntity
  8
Ebene 1
370
    18
  0
POLYLINE
  5
323
330
30F
100
AcDbEntity
  8
Ebene 1
 62
   179
420
  1709851
370
    18
100
AcDb2dPolyline
 66
     1
 10
0.0
 20
0.0
 30
0.0
  0
VERTEX
  5
324
330
323
100
AcDbEntity
  8
Ebene 1
 62
   179
420
  1709851
370
    18
100
AcDbVertex
100
AcDb2dVertex
 10
165.1316948371893
 20
-162.9233886311441
 30
0.0
  0
VERTEX
  5
325
330
323
100
AcDbEntity
  8
Ebene 1
 62
   179
420
  1709851
370
    18
100
AcDbVertex
100
AcDb2dVertex
 10
188.3516384077732
 20
-162.9233886311441
 30
0.0
  0
SEQEND
  5
326
330
323
100
AcDbEntity
  8
Ebene 1
370
    18
  0
POLYLINE
  5
327
330
30F
100
AcDbEntity
  8
Ebene 1
 62
   179
420
  1709851
370
    18
100
AcDb2dPolyline
 66
     1
 10
0.0
 20
0.0
 30
0.0
  0
VERTEX
  5
328
330
327
100
AcDbEntity
  8
Ebene 1
 62
   179
420
  1709851
370
    18
100
AcDbVertex
100
AcDb2dVertex
 10
165.3439127190807
 20
-162.9233886311441
 30
0.0
  0
VERTEX
  5
329
330
327
100
AcDbEntity
  8
Ebene 1
 62
   179
420
  1709851
370
    18
100
AcDbVertex
100
AcDb2dVertex
 10
170.3389566631444
 20
-146.9214368664815
 30
0.0
  0
VERTEX
  5
32A
330
327
100
AcDbEntity
  8
Ebene 1
 62
   179
420
  1709851
370
    18
100
AcDbVertex
100
AcDb2dVertex
 10
175.3340006072082
 20
-162.9233886311441
 30
0.0
  0
SEQEND
  5
32B
330
327
100
AcDbEntity
  8
Ebene 1
370
    18
  0
POLYLINE
  5
32C
330
30F
100
AcDbEntity
  8
Ebene 1
 62
   179
420
  1709851
370
    18
100
AcDb2dPolyline
 66
     1
 10
0.0
 20
0.0
 30
0.0
  0
VERTEX
  5
32D
330
32C
100
AcDbEntity
  8
Ebene 1
 62
   179
420
  1709851
370
    18
100
AcDbVertex
100
AcDb2dVertex
 10
169.5345268673386
 20
-172.0253309031742
 30
0.0
  0
VERTEX
  5
32E
330
32C
100
AcDbEntity
  8
Ebene 1
 62
   179
420
  1709851
370
    18
100
AcDbVertex
100
AcDb2dVertex
 10
169.5345268673386
 20
-171.3266655387656
 30
0.0
  0
SEQEND
  5
32F
330
32C
100
AcDbEntity
  8
Ebene 1
370
    18
  0
POLYLINE
  5
330
330
30F
100
AcDbEntity
  8
Ebene 1
 62
   179
420
  1709851
370
    18
100
AcDb2dPolyline
 66
     1
 10
0.0
 20
0.0
 30
0.0
  0
VERTEX
  5
331
330
330
100
AcDbEntity
  8
Ebene 1
 62
   179
420
  1709851
370
    18
100
AcDbVertex
100
AcDb2dVertex
 10
167.333110852264
 20
-172.0253309031742
 30
0.0
  0
VERTEX
  5
332
330
330
100
AcDbEntity
  8
Ebene 1
 62
   179
420
  1709851
370
    18
100
AcDbVertex
100
AcDb2dVertex
 10
167.333110852264
 20
-171.3266655387656
 30
0.0
  0
SEQEND
  5
333
330
330
100
AcDbEntity
  8
Ebene 1
370
    18
  0
POLYLINE
  5
334
330
30F
100
AcDbEntity
  8
Ebene 1
 62
   179
420
  1709851
370
    18
100
AcDb2dPolyline
 66
     1
 10
0.0
 20
0.0
 30
0.0
  0
VERTEX
  5
335
330
334
100
AcDbEntity
  8
Ebene 1
 62
   179
420
  1709851
370
    18
100
AcDbVertex
100
AcDb2dVertex
 10
161.5336371123944
 20
-172.0253309031742
 30
0.0
  0
VERTEX
  5
336
330
334
100
AcDbEntity
  8
Ebene 1
 62
   179
420
  1709851
370
    18
100
AcDbVertex
100
AcDb2dVertex
 10
161.5336371123944
 20
-171.3266655387656
 30
0.0
  0
SEQEND
  5
337
330
334
100
AcDbEntity
  8
Ebene 1
370
    18
  0
POLYLINE
  5
338
330
30F
100
AcDbEntity
  8
Ebene 1
 62
   179
420
  1709851
370
    18
100
AcDb2dPolyline
 66
     1
 10
0.0
 20
0.0
 30
0.0
  0
VERTEX
  5
339
330
338
100
AcDbEntity
  8
Ebene 1
 62
   179
420
  1709851
370
    18
100
AcDbVertex
100
AcDb2dVertex
 10
159.3322210973197
 20
-172.0253309031742
 30
0.0
  0
VERTEX
  5
33A
330
338
100
AcDbEntity
  8
Ebene 1
 62
   179
420
  1709851
370
    18
100
AcDbVertex
100
AcDb2dVertex
 10
159.3322210973197
 20
-172.0253309031742
 30
0.0
  0
VERTEX
  5
33B
330
338
100
AcDbEntity
  8
Ebene 1
 62
   179
420
  1709851
370
    18
100
AcDbVertex
100
AcDb2dVertex
 10
159.3322210973197
 20
-171.3266655387656
 30
0.0
  0
SEQEND
  5
33C
330
338
100
AcDbEntity
  8
Ebene 1
370
    18
  0
POLYLINE
  5
33D
330
30F
100
AcDbEntity
  8
Ebene 1
 62
   179
420
  1709851
370
    18
100
AcDb2dPolyline
 66
     1
 10
0.0
 20
0.0
 30
0.0
  0
VERTEX
  5
33E
330
33D
100
AcDbEntity
  8
Ebene 1
 62
   179
420
  1709851
370
    18
100
AcDbVertex
100
AcDb2dVertex
 10
169.5345268673386
 20
-171.3266655387656
 30
0.0
  0
VERTEX
  5
33F
330
33D
100
AcDbEntity
  8
Ebene 1
 62
   179
420
  1709851
370
    18
100
AcDbVertex
100
AcDb2dVertex
 10
169.5345268673386
 20
-171.1151366759712
 30
0.0
  0
SEQEND
  5
340
330
33D
100
AcDbEntity
  8
Ebene 1
370
    18
  0
POLYLINE
  5
341
330
30F
100
AcDbEntity
  8
Ebene 1
 62
   179
420
  1709851
370
    18
100
AcDb2dPolyline
 66
     1
 10
0.0
 20
0.0
 30
0.0
  0
VERTEX
  5
342
330
341
100
AcDbEntity
  8
Ebene 1
 62
   179
420
  1709851
370
    18
100
AcDbVertex
100
AcDb2dVertex
 10
167.333110852264
 20
-171.1151366759712
 30
0.0
  0
VERTEX
  5
343
330
341
100
AcDbEntity
  8
Ebene 1
 62
   179
420
  1709851
370
    18
100
AcDbVertex
100
AcDb2dVertex
 10
167.333110852264
 20
-171.3266655387656
 30
0.0
  0
SEQEND
  5
344
330
341
100
AcDbEntity
  8
Ebene 1
370
    18
  0
POLYLINE
  5
345
330
30F
100
AcDbEntity
  8
Ebene 1
 62
   179
420
  1709851
370
    18
100
AcDb2dPolyline
 66
     1
 10
0.0
 20
0.0
 30
0.0
  0
VERTEX
  5
346
330
345
100
AcDbEntity
  8
Ebene 1
 62
   179
420
  1709851
370
    18
100
AcDbVertex
100
AcDb2dVertex
 10
161.5336371123944
 20
-171.3266655387656
 30
0.0
  0
VERTEX
  5
347
330
345
100
AcDbEntity
  8
Ebene 1
 62
   179
420
  1709851
370
    18
100
AcDbVertex
100
AcDb2dVertex
 10
161.5336371123944
 20
-171.1151366759712
 30
0.0
  0
SEQEND
  5
348
330
345
100
AcDbEntity
  8
Ebene 1
370
    18
  0
POLYLINE
  5
349
330
30F
100
AcDbEntity
  8
Ebene 1
 62
   179
420
  1709851
370
    18
100
AcDb2dPolyline
 66
     1
 10
0.0
 20
0.0
 30
0.0
  0
VERTEX
  5
34A
330
349
100
AcDbEntity
  8
Ebene 1
 62
   179
420
  1709851
370
    18
100
AcDbVertex
100
AcDb2dVertex
 10
159.3322210973197
 20
-171.1151366759712
 30
0.0
  0
VERTEX
  5
34B
330
349
100
AcDbEntity
  8
Ebene 1
 62
   179
420
  1709851
370
    18
100
AcDbVertex
100
AcDb2dVertex
 10
159.3322210973197
 20
-171.3266655387656
 30
0.0
  0
SEQEND
  5
34C
330
349
100
AcDbEntity
  8
Ebene 1
370
    18
  0
POLYLINE
  5
34D
330
30F
100
AcDbEntity
  8
Ebene 1
 62
   179
420
  1709851
370
    18
100
AcDb2dPolyline
 66
     1
 10
0.0
 20
0.0
 30
0.0
  0
VERTEX
  5
34E
330
34D
100
AcDbEntity
  8
Ebene 1
 62
   179
420
  1709851
370
    18
100
AcDbVertex
100
AcDb2dVertex
 10
169.42910694549
 20
-172.6178873266372
 30
0.0
  0
VERTEX
  5
34F
330
34D
100
AcDbEntity
  8
Ebene 1
 62
   179
420
  1709851
370
    18
100
AcDbVertex
100
AcDb2dVertex
 10
169.42910694549
 20
-171.3266655387656
 30
0.0
  0
SEQEND
  5
350
330
34D
100
AcDbEntity
  8
Ebene 1
370
    18
  0
POLYLINE
  5
351
330
30F
100
AcDbEntity
  8
Ebene 1
 62
   179
420
  1709851
370
    18
100
AcDb2dPolyline
 66
     1
 10
0.0
 20
0.0
 30
0.0
  0
VERTEX
  5
352
330
351
100
AcDbEntity
  8
Ebene 1
 62
   179
420
  1709851
370
    18
100
AcDbVertex
100
AcDb2dVertex
 10
167.4388752836611
 20
-172.6178873266372
 30
0.0
  0
VERTEX
  5
353
330
351
100
AcDbEntity
  8
Ebene 1
 62
   179
420
  1709851
370
    18
100
AcDbVertex
100
AcDb2dVertex
 10
167.4388752836611
 20
-171.3266655387656
 30
0.0
  0
SEQEND
  5
354
330
351
100
AcDbEntity
  8
Ebene 1
370
    18
  0
POLYLINE
  5
355
330
30F
100
AcDbEntity
  8
Ebene 1
 62
   179
420
  1709851
370
    18
100
AcDb2dPolyline
 66
     1
 10
0.0
 20
0.0
 30
0.0
  0
VERTEX
  5
356
330
355
100
AcDbEntity
  8
Ebene 1
 62
   179
420
  1709851
370
    18
100
AcDbVertex
100
AcDb2dVertex
 10
161.4488877634572
 20
-172.6178873266372
 30
0.0
  0
VERTEX
  5
357
330
355
100
AcDbEntity
  8
Ebene 1
 62
   179
420
  1709851
370
    18
100
AcDbVertex
100
AcDb2dVertex
 10
161.4488877634572
 20
-171.3266655387656
 30
0.0
  0
SEQEND
  5
358
330
355
100
AcDbEntity
  8
Ebene 1
370
    18
  0
POLYLINE
  5
359
330
30F
100
AcDbEntity
  8
Ebene 1
 62
   179
420
  1709851
370
    18
100
AcDb2dPolyline
 66
     1
 10
0.0
 20
0.0
 30
0.0
  0
VERTEX
  5
35A
330
359
100
AcDbEntity
  8
Ebene 1
 62
   179
420
  1709851
370
    18
100
AcDbVertex
100
AcDb2dVertex
 10
159.4379855287169
 20
-172.6178873266372
 30
0.0
  0
VERTEX
  5
35B
330
359
100
AcDbEntity
  8
Ebene 1
 62
   179
420
  1709851
370
    18
100
AcDbVertex
100
AcDb2dVertex
 10
159.4379855287169
 20
-171.3266655387656
 30
0.0
  0
SEQEND
  5
35C
330
359
100
AcDbEntity
  8
Ebene 1
370
    18
  0
POLYLINE
  5
35D
330
30F
100
AcDbEntity
  8
Ebene 1
 62
   179
420
  1709851
370
    18
100
AcDb2dPolyline
 66
     1
 10
0.0
 20
0.0
 30
0.0
  0
VERTEX
  5
35E
330
35D
100
AcDbEntity
  8
Ebene 1
 62
   179
420
  1709851
370
    18
100
AcDbVertex
100
AcDb2dVertex
 10
169.42910694549
 20
-173.2104437501002
 30
0.0
  0
VERTEX
  5
35F
330
35D
100
AcDbEntity
  8
Ebene 1
 62
   179
420
  1709851
370
    18
100
AcDbVertex
100
AcDb2dVertex
 10
169.42910694549
 20
-172.9141655383687
 30
0.0
  0
SEQEND
  5
360
330
35D
100
AcDbEntity
  8
Ebene 1
370
    18
  0
POLYLINE
  5
361
330
30F
100
AcDbEntity
  8
Ebene 1
 62
   179
420
  1709851
370
    18
100
AcDb2dPolyline
 66
     1
 10
0.0
 20
0.0
 30
0.0
  0
VERTEX
  5
362
330
361
100
AcDbEntity
  8
Ebene 1
 62
   179
420
  1709851
370
    18
100
AcDbVertex
100
AcDb2dVertex
 10
169.42910694549
 20
-171.3266655387656
 30
0.0
  0
VERTEX
  5
363
330
361
100
AcDbEntity
  8
Ebene 1
 62
   179
420
  1709851
370
    18
100
AcDbVertex
100
AcDb2dVertex
 10
169.42910694549
 20
-171.2212456169169
 30
0.0
  0
SEQEND
  5
364
330
361
100
AcDbEntity
  8
Ebene 1
370
    18
  0
POLYLINE
  5
365
330
30F
100
AcDbEntity
  8
Ebene 1
 62
   179
420
  1709851
370
    18
100
AcDb2dPolyline
 66
     1
 10
0.0
 20
0.0
 30
0.0
  0
VERTEX
  5
366
330
365
100
AcDbEntity
  8
Ebene 1
 62
   179
420
  1709851
370
    18
100
AcDbVertex
100
AcDb2dVertex
 10
167.4388752836611
 20
-171.2212456169169
 30
0.0
  0
VERTEX
  5
367
330
365
100
AcDbEntity
  8
Ebene 1
 62
   179
420
  1709851
370
    18
100
AcDbVertex
100
AcDb2dVertex
 10
167.4388752836611
 20
-171.3266655387656
 30
0.0
  0
SEQEND
  5
368
330
365
100
AcDbEntity
  8
Ebene 1
370
    18
  0
POLYLINE
  5
369
330
30F
100
AcDbEntity
  8
Ebene 1
 62
   179
420
  1709851
370
    18
100
AcDb2dPolyline
 66
     1
 10
0.0
 20
0.0
 30
0.0
  0
VERTEX
  5
36A
330
369
100
AcDbEntity
  8
Ebene 1
 62
   179
420
  1709851
370
    18
100
AcDbVertex
100
AcDb2dVertex
 10
167.4388752836611
 20
-172.9141655383687
 30
0.0
  0
VERTEX
  5
36B
330
369
100
AcDbEntity
  8
Ebene 1
 62
   179
420
  1709851
370
    18
100
AcDbVertex
100
AcDb2dVertex
 10
167.4388752836611
 20
-173.2104437501002
 30
0.0
  0
SEQEND
  5
36C
330
369
100
AcDbEntity
  8
Ebene 1
370
    18
  0
POLYLINE
  5
36D
330
30F
100
AcDbEntity
  8
Ebene 1
 62
   179
420
  1709851
370
    18
100
AcDb2dPolyline
 66
     1
 10
0.0
 20
0.0
 30
0.0
  0
VERTEX
  5
36E
330
36D
100
AcDbEntity
  8
Ebene 1
 62
   179
420
  1709851
370
    18
100
AcDbVertex
100
AcDb2dVertex
 10
161.4488877634572
 20
-173.2104437501002
 30
0.0
  0
VERTEX
  5
36F
330
36D
100
AcDbEntity
  8
Ebene 1
 62
   179
420
  1709851
370
    18
100
AcDbVertex
100
AcDb2dVertex
 10
161.4488877634572
 20
-172.9141655383687
 30
0.0
  0
SEQEND
  5
370
330
36D
100
AcDbEntity
  8
Ebene 1
370
    18
  0
POLYLINE
  5
371
330
30F
100
AcDbEntity
  8
Ebene 1
 62
   179
420
  1709851
370
    18
100
AcDb2dPolyline
 66
     1
 10
0.0
 20
0.0
 30
0.0
  0
VERTEX
  5
372
330
371
100
AcDbEntity
  8
Ebene 1
 62
   179
420
  1709851
370
    18
100
AcDbVertex
100
AcDb2dVertex
 10
161.4488877634572
 20
-171.3266655387656
 30
0.0
  0
VERTEX
  5
373
330
371
100
AcDbEntity
  8
Ebene 1
 62
   179
420
  1709851
370
    18
100
AcDbVertex
100
AcDb2dVertex
 10
161.4488877634572
 20
-171.2212456169169
 30
0.0
  0
SEQEND
  5
374
330
371
100
AcDbEntity
  8
Ebene 1
370
    18
  0
POLYLINE
  5
375
330
30F
100
AcDbEntity
  8
Ebene 1
 62
   179
420
  1709851
370
    18
100
AcDb2dPolyline
 66
     1
 10
0.0
 20
0.0
 30
0.0
  0
VERTEX
  5
376
330
375
100
AcDbEntity
  8
Ebene 1
 62
   179
420
  1709851
370
    18
100
AcDbVertex
100
AcDb2dVertex
 10
159.4379855287169
 20
-171.2212456169169
 30
0.0
  0
VERTEX
  5
377
330
375
100
AcDbEntity
  8
Ebene 1
 62
   179
420
  1709851
370
    18
100
AcDbVertex
100
AcDb2dVertex
 10
159.4379855287169
 20
-171.3266655387656
 30
0.0
  0
SEQEND
  5
378
330
375
100
AcDbEntity
  8
Ebene 1
370
    18
  0
POLYLINE
  5
379
330
30F
100
AcDbEntity
  8
Ebene 1
 62
   179
420
  1709851
370
    18
100
AcDb2dPolyline
 66
     1
 10
0.0
 20
0.0
 30
0.0
  0
VERTEX
  5
37A
330
379
100
AcDbEntity
  8
Ebene 1
 62
   179
420
  1709851
370
    18
100
AcDbVertex
100
AcDb2dVertex
 10
159.4379855287169
 20
-172.9141655383687
 30
0.0
  0
VERTEX
  5
37B
330
379
100
AcDbEntity
  8
Ebene 1
 62
   179
420
  1709851
370
    18
100
AcDbVertex
100
AcDb2dVertex
 10
159.4379855287169
 20
-173.2104437501002
 30
0.0
  0
SEQEND
  5
37C
330
379
100
AcDbEntity
  8
Ebene 1
370
    18
  0
POLYLINE
  5
37D
330
30F
100
AcDbEntity
  8
Ebene 1
 62
   179
420
  1709851
370
    18
100
AcDb2dPolyline
 66
     1
 10
0.0
 20
0.0
 30
0.0
  0
VERTEX
  5
37E
330
37D
100
AcDbEntity
  8
Ebene 1
 62
   179
420
  1709851
370
    18
100
AcDbVertex
100
AcDb2dVertex
 10
169.5772460513557
 20
-170.9669975701055
 30
0.0
  0
VERTEX
  5
37F
330
37D
100
AcDbEntity
  8
Ebene 1
 62
   179
420
  1709851
370
    18
100
AcDbVertex
100
AcDb2dVertex
 10
169.5979166242672
 20
-170.9242783860884
 30
0.0
  0
SEQEND
  5
380
330
37D
100
AcDbEntity
  8
Ebene 1
370
    18
  0
POLYLINE
  5
381
330
30F
100
AcDbEntity
  8
Ebene 1
 62
   179
420
  1709851
370
    18
100
AcDb2dPolyline
 66
     1
 10
0.0
 20
0.0
 30
0.0
  0
VERTEX
  5
382
330
381
100
AcDbEntity
  8
Ebene 1
 62
   179
420
  1709851
370
    18
100
AcDbVertex
100
AcDb2dVertex
 10
167.692778820924
 20
-171.3266655387656
 30
0.0
  0
VERTEX
  5
383
330
381
100
AcDbEntity
  8
Ebene 1
 62
   179
420
  1709851
370
    18
100
AcDbVertex
100
AcDb2dVertex
 10
169.17451438913
 20
-171.3266655387656
 30
0.0
  0
SEQEND
  5
384
330
381
100
AcDbEntity
  8
Ebene 1
370
    18
  0
POLYLINE
  5
385
330
30F
100
AcDbEntity
  8
Ebene 1
 62
   179
420
  1709851
370
    18
100
AcDb2dPolyline
 66
     1
 10
0.0
 20
0.0
 30
0.0
  0
VERTEX
  5
386
330
385
100
AcDbEntity
  8
Ebene 1
 62
   179
420
  1709851
370
    18
100
AcDbVertex
100
AcDb2dVertex
 10
169.17451438913
 20
-171.3266655387656
 30
0.0
  0
VERTEX
  5
387
330
385
100
AcDbEntity
  8
Ebene 1
 62
   179
420
  1709851
370
    18
100
AcDbVertex
100
AcDb2dVertex
 10
169.3650281694643
 20
-171.2846353738455
 30
0.0
  0
VERTEX
  5
388
330
385
100
AcDbEntity
  8
Ebene 1
 62
   179
420
  1709851
370
    18
100
AcDbVertex
100
AcDb2dVertex
 10
169.5131672753301
 20
-171.1571668408913
 30
0.0
  0
VERTEX
  5
389
330
385
100
AcDbEntity
  8
Ebene 1
 62
   179
420
  1709851
370
    18
100
AcDbVertex
100
AcDb2dVertex
 10
169.5772460513557
 20
-170.988357162114
 30
0.0
  0
VERTEX
  5
38A
330
385
100
AcDbEntity
  8
Ebene 1
 62
   179
420
  1709851
370
    18
100
AcDbVertex
100
AcDb2dVertex
 10
169.5772460513557
 20
-170.9669975701055
 30
0.0
  0
SEQEND
  5
38B
330
385
100
AcDbEntity
  8
Ebene 1
370
    18
  0
POLYLINE
  5
38C
330
30F
100
AcDbEntity
  8
Ebene 1
 62
   179
420
  1709851
370
    18
100
AcDb2dPolyline
 66
     1
 10
0.0
 20
0.0
 30
0.0
  0
VERTEX
  5
38D
330
38C
100
AcDbEntity
  8
Ebene 1
 62
   179
420
  1709851
370
    18
100
AcDbVertex
100
AcDb2dVertex
 10
167.2907361777954
 20
-170.9242783860884
 30
0.0
  0
VERTEX
  5
38E
330
38C
100
AcDbEntity
  8
Ebene 1
 62
   179
420
  1709851
370
    18
100
AcDbVertex
100
AcDb2dVertex
 10
167.2907361777954
 20
-170.9669975701055
 30
0.0
  0
SEQEND
  5
38F
330
38C
100
AcDbEntity
  8
Ebene 1
370
    18
  0
POLYLINE
  5
390
330
30F
100
AcDbEntity
  8
Ebene 1
 62
   179
420
  1709851
370
    18
100
AcDb2dPolyline
 66
     1
 10
0.0
 20
0.0
 30
0.0
  0
VERTEX
  5
391
330
390
100
AcDbEntity
  8
Ebene 1
 62
   179
420
  1709851
370
    18
100
AcDbVertex
100
AcDb2dVertex
 10
167.2907361777954
 20
-170.9669975701055
 30
0.0
  0
VERTEX
  5
392
330
390
100
AcDbEntity
  8
Ebene 1
 62
   179
420
  1709851
370
    18
100
AcDbVertex
100
AcDb2dVertex
 10
167.354125934724
 20
-171.1358072488827
 30
0.0
  0
VERTEX
  5
393
330
390
100
AcDbEntity
  8
Ebene 1
 62
   179
420
  1709851
370
    18
100
AcDbVertex
100
AcDb2dVertex
 10
167.5026095501382
 20
-171.263275781837
 30
0.0
  0
VERTEX
  5
394
330
390
100
AcDbEntity
  8
Ebene 1
 62
   179
420
  1709851
370
    18
100
AcDbVertex
100
AcDb2dVertex
 10
167.671763738464
 20
-171.3266655387656
 30
0.0
  0
VERTEX
  5
395
330
390
100
AcDbEntity
  8
Ebene 1
 62
   179
420
  1709851
370
    18
100
AcDbVertex
100
AcDb2dVertex
 10
167.692778820924
 20
-171.3266655387656
 30
0.0
  0
SEQEND
  5
396
330
390
100
AcDbEntity
  8
Ebene 1
370
    18
  0
POLYLINE
  5
397
330
30F
100
AcDbEntity
  8
Ebene 1
 62
   179
420
  1709851
370
    18
100
AcDb2dPolyline
 66
     1
 10
0.0
 20
0.0
 30
0.0
  0
VERTEX
  5
398
330
397
100
AcDbEntity
  8
Ebene 1
 62
   179
420
  1709851
370
    18
100
AcDbVertex
100
AcDb2dVertex
 10
161.5756672773144
 20
-170.9669975701055
 30
0.0
  0
VERTEX
  5
399
330
397
100
AcDbEntity
  8
Ebene 1
 62
   179
420
  1709851
370
    18
100
AcDbVertex
100
AcDb2dVertex
 10
161.597026869323
 20
-170.9242783860884
 30
0.0
  0
SEQEND
  5
39A
330
397
100
AcDbEntity
  8
Ebene 1
370
    18
  0
POLYLINE
  5
39B
330
30F
100
AcDbEntity
  8
Ebene 1
 62
   179
420
  1709851
370
    18
100
AcDb2dPolyline
 66
     1
 10
0.0
 20
0.0
 30
0.0
  0
VERTEX
  5
39C
330
39B
100
AcDbEntity
  8
Ebene 1
 62
   179
420
  1709851
370
    18
100
AcDbVertex
100
AcDb2dVertex
 10
159.6918890659798
 20
-171.3266655387656
 30
0.0
  0
VERTEX
  5
39D
330
39B
100
AcDbEntity
  8
Ebene 1
 62
   179
420
  1709851
370
    18
100
AcDbVertex
100
AcDb2dVertex
 10
161.1946397166458
 20
-171.3266655387656
 30
0.0
  0
SEQEND
  5
39E
330
39B
100
AcDbEntity
  8
Ebene 1
370
    18
  0
POLYLINE
  5
39F
330
30F
100
AcDbEntity
  8
Ebene 1
 62
   179
420
  1709851
370
    18
100
AcDb2dPolyline
 66
     1
 10
0.0
 20
0.0
 30
0.0
  0
VERTEX
  5
3A0
330
39F
100
AcDbEntity
  8
Ebene 1
 62
   179
420
  1709851
370
    18
100
AcDbVertex
100
AcDb2dVertex
 10
161.1946397166458
 20
-171.3266655387656
 30
0.0
  0
VERTEX
  5
3A1
330
39F
100
AcDbEntity
  8
Ebene 1
 62
   179
420
  1709851
370
    18
100
AcDbVertex
100
AcDb2dVertex
 10
161.3641384145201
 20
-171.2846353738455
 30
0.0
  0
VERTEX
  5
3A2
330
39F
100
AcDbEntity
  8
Ebene 1
 62
   179
420
  1709851
370
    18
100
AcDbVertex
100
AcDb2dVertex
 10
161.5122775203858
 20
-171.1571668408913
 30
0.0
  0
VERTEX
  5
3A3
330
39F
100
AcDbEntity
  8
Ebene 1
 62
   179
420
  1709851
370
    18
100
AcDbVertex
100
AcDb2dVertex
 10
161.5756672773144
 20
-170.988357162114
 30
0.0
  0
VERTEX
  5
3A4
330
39F
100
AcDbEntity
  8
Ebene 1
 62
   179
420
  1709851
370
    18
100
AcDbVertex
100
AcDb2dVertex
 10
161.5756672773144
 20
-170.9669975701055
 30
0.0
  0
SEQEND
  5
3A5
330
39F
100
AcDbEntity
  8
Ebene 1
370
    18
  0
POLYLINE
  5
3A6
330
30F
100
AcDbEntity
  8
Ebene 1
 62
   179
420
  1709851
370
    18
100
AcDb2dPolyline
 66
     1
 10
0.0
 20
0.0
 30
0.0
  0
VERTEX
  5
3A7
330
3A6
100
AcDbEntity
  8
Ebene 1
 62
   179
420
  1709851
370
    18
100
AcDbVertex
100
AcDb2dVertex
 10
159.2898464228512
 20
-170.9242783860884
 30
0.0
  0
VERTEX
  5
3A8
330
3A6
100
AcDbEntity
  8
Ebene 1
 62
   179
420
  1709851
370
    18
100
AcDbVertex
100
AcDb2dVertex
 10
159.2898464228512
 20
-170.9669975701055
 30
0.0
  0
SEQEND
  5
3A9
330
3A6
100
AcDbEntity
  8
Ebene 1
370
    18
  0
POLYLINE
  5
3AA
330
30F
100
AcDbEntity
  8
Ebene 1
 62
   179
420
  1709851
370
    18
100
AcDb2dPolyline
 66
     1
 10
0.0
 20
0.0
 30
0.0
  0
VERTEX
  5
3AB
330
3AA
100
AcDbEntity
  8
Ebene 1
 62
   179
420
  1709851
370
    18
100
AcDbVertex
100
AcDb2dVertex
 10
159.2898464228512
 20
-170.9669975701055
 30
0.0
  0
VERTEX
  5
3AC
330
3AA
100
AcDbEntity
  8
Ebene 1
 62
   179
420
  1709851
370
    18
100
AcDbVertex
100
AcDb2dVertex
 10
159.3532361797797
 20
-171.1358072488827
 30
0.0
  0
VERTEX
  5
3AD
330
3AA
100
AcDbEntity
  8
Ebene 1
 62
   179
420
  1709851
370
    18
100
AcDbVertex
100
AcDb2dVertex
 10
159.5013752856455
 20
-171.263275781837
 30
0.0
  0
VERTEX
  5
3AE
330
3AA
100
AcDbEntity
  8
Ebene 1
 62
   179
420
  1709851
370
    18
100
AcDbVertex
100
AcDb2dVertex
 10
159.6708739835198
 20
-171.3266655387656
 30
0.0
  0
VERTEX
  5
3AF
330
3AA
100
AcDbEntity
  8
Ebene 1
 62
   179
420
  1709851
370
    18
100
AcDbVertex
100
AcDb2dVertex
 10
159.6918890659798
 20
-171.3266655387656
 30
0.0
  0
SEQEND
  5
3B0
330
3AA
100
AcDbEntity
  8
Ebene 1
370
    18
  0
POLYLINE
  5
3B1
330
30F
100
AcDbEntity
  8
Ebene 1
 62
   179
420
  1709851
370
    18
100
AcDb2dPolyline
 66
     1
 10
0.0
 20
0.0
 30
0.0
  0
VERTEX
  5
3B2
330
3B1
100
AcDbEntity
  8
Ebene 1
 62
   179
420
  1709851
370
    18
100
AcDbVertex
100
AcDb2dVertex
 10
169.42910694549
 20
-172.0253309031742
 30
0.0
  0
VERTEX
  5
3B3
330
3B1
100
AcDbEntity
  8
Ebene 1
 62
   179
420
  1709851
370
    18
100
AcDbVertex
100
AcDb2dVertex
 10
169.5345268673386
 20
-172.0253309031742
 30
0.0
  0
SEQEND
  5
3B4
330
3B1
100
AcDbEntity
  8
Ebene 1
370
    18
  0
POLYLINE
  5
3B5
330
30F
100
AcDbEntity
  8
Ebene 1
 62
   179
420
  1709851
370
    18
100
AcDb2dPolyline
 66
     1
 10
0.0
 20
0.0
 30
0.0
  0
VERTEX
  5
3B6
330
3B5
100
AcDbEntity
  8
Ebene 1
 62
   179
420
  1709851
370
    18
100
AcDbVertex
100
AcDb2dVertex
 10
167.333110852264
 20
-172.0253309031742
 30
0.0
  0
VERTEX
  5
3B7
330
3B5
100
AcDbEntity
  8
Ebene 1
 62
   179
420
  1709851
370
    18
100
AcDbVertex
100
AcDb2dVertex
 10
167.4388752836611
 20
-172.0253309031742
 30
0.0
  0
SEQEND
  5
3B8
330
3B5
100
AcDbEntity
  8
Ebene 1
370
    18
  0
POLYLINE
  5
3B9
330
30F
100
AcDbEntity
  8
Ebene 1
 62
   179
420
  1709851
370
    18
100
AcDb2dPolyline
 66
     1
 10
0.0
 20
0.0
 30
0.0
  0
VERTEX
  5
3BA
330
3B9
100
AcDbEntity
  8
Ebene 1
 62
   179
420
  1709851
370
    18
100
AcDbVertex
100
AcDb2dVertex
 10
159.4379855287169
 20
-172.0253309031742
 30
0.0
  0
VERTEX
  5
3BB
330
3B9
100
AcDbEntity
  8
Ebene 1
 62
   179
420
  1709851
370
    18
100
AcDbVertex
100
AcDb2dVertex
 10
159.3322210973197
 20
-172.0253309031742
 30
0.0
  0
SEQEND
  5
3BC
330
3B9
100
AcDbEntity
  8
Ebene 1
370
    18
  0
POLYLINE
  5
3BD
330
30F
100
AcDbEntity
  8
Ebene 1
 62
   179
420
  1709851
370
    18
100
AcDb2dPolyline
 66
     1
 10
0.0
 20
0.0
 30
0.0
  0
VERTEX
  5
3BE
330
3BD
100
AcDbEntity
  8
Ebene 1
 62
   179
420
  1709851
370
    18
100
AcDbVertex
100
AcDb2dVertex
 10
161.5332926028458
 20
-172.0253309031742
 30
0.0
  0
VERTEX
  5
3BF
330
3BD
100
AcDbEntity
  8
Ebene 1
 62
   179
420
  1709851
370
    18
100
AcDbVertex
100
AcDb2dVertex
 10
161.4488877634572
 20
-172.0253309031742
 30
0.0
  0
SEQEND
  5
3C0
330
3BD
100
AcDbEntity
  8
Ebene 1
370
    18
  0
POLYLINE
  5
3C1
330
30F
100
AcDbEntity
  8
Ebene 1
 62
   179
420
  1709851
370
    18
100
AcDb2dPolyline
 66
     1
 10
0.0
 20
0.0
 30
0.0
  0
VERTEX
  5
3C2
330
3C1
100
AcDbEntity
  8
Ebene 1
 62
   179
420
  1709851
370
    18
100
AcDbVertex
100
AcDb2dVertex
 10
159.2474717483826
 20
-170.712749523294
 30
0.0
  0
VERTEX
  5
3C3
330
3C1
100
AcDbEntity
  8
Ebene 1
 62
   179
420
  1709851
370
    18
100
AcDbVertex
100
AcDb2dVertex
 10
169.6402912987358
 20
-170.712749523294
 30
0.0
  0
SEQEND
  5
3C4
330
3C1
100
AcDbEntity
  8
Ebene 1
370
    18
  0
POLYLINE
  5
3C5
330
30F
100
AcDbEntity
  8
Ebene 1
 62
   179
420
  1709851
370
    18
100
AcDb2dPolyline
 66
     1
 10
0.0
 20
0.0
 30
0.0
  0
VERTEX
  5
3C6
330
3C5
100
AcDbEntity
  8
Ebene 1
 62
   179
420
  1709851
370
    18
100
AcDbVertex
100
AcDb2dVertex
 10
159.1627223994454
 20
-170.9242783860884
 30
0.0
  0
VERTEX
  5
3C7
330
3C5
100
AcDbEntity
  8
Ebene 1
 62
   179
420
  1709851
370
    18
100
AcDbVertex
100
AcDb2dVertex
 10
169.7250406476729
 20
-170.9242783860884
 30
0.0
  0
SEQEND
  5
3C8
330
3C5
100
AcDbEntity
  8
Ebene 1
370
    18
  0
POLYLINE
  5
3C9
330
30F
100
AcDbEntity
  8
Ebene 1
 62
   179
420
  1709851
370
    18
100
AcDb2dPolyline
 66
     1
 10
0.0
 20
0.0
 30
0.0
  0
VERTEX
  5
3CA
330
3C9
100
AcDbEntity
  8
Ebene 1
 62
   179
420
  1709851
370
    18
100
AcDbVertex
100
AcDb2dVertex
 10
159.4379855287169
 20
-170.4378309035711
 30
0.0
  0
VERTEX
  5
3CB
330
3C9
100
AcDbEntity
  8
Ebene 1
 62
   179
420
  1709851
370
    18
100
AcDbVertex
100
AcDb2dVertex
 10
159.4379855287169
 20
-170.712749523294
 30
0.0
  0
SEQEND
  5
3CC
330
3C9
100
AcDbEntity
  8
Ebene 1
370
    18
  0
POLYLINE
  5
3CD
330
30F
100
AcDbEntity
  8
Ebene 1
 62
   179
420
  1709851
370
    18
100
AcDb2dPolyline
 66
     1
 10
0.0
 20
0.0
 30
0.0
  0
VERTEX
  5
3CE
330
3CD
100
AcDbEntity
  8
Ebene 1
 62
   179
420
  1709851
370
    18
100
AcDbVertex
100
AcDb2dVertex
 10
161.4488877634572
 20
-170.712749523294
 30
0.0
  0
VERTEX
  5
3CF
330
3CD
100
AcDbEntity
  8
Ebene 1
 62
   179
420
  1709851
370
    18
100
AcDbVertex
100
AcDb2dVertex
 10
161.4488877634572
 20
-170.4378309035711
 30
0.0
  0
SEQEND
  5
3D0
330
3CD
100
AcDbEntity
  8
Ebene 1
370
    18
  0
POLYLINE
  5
3D1
330
30F
100
AcDbEntity
  8
Ebene 1
 62
   179
420
  1709851
370
    18
100
AcDb2dPolyline
 66
     1
 10
0.0
 20
0.0
 30
0.0
  0
VERTEX
  5
3D2
330
3D1
100
AcDbEntity
  8
Ebene 1
 62
   179
420
  1709851
370
    18
100
AcDbVertex
100
AcDb2dVertex
 10
169.42910694549
 20
-170.712749523294
 30
0.0
  0
VERTEX
  5
3D3
330
3D1
100
AcDbEntity
  8
Ebene 1
 62
   179
420
  1709851
370
    18
100
AcDbVertex
100
AcDb2dVertex
 10
169.42910694549
 20
-170.4378309035711
 30
0.0
  0
SEQEND
  5
3D4
330
3D1
100
AcDbEntity
  8
Ebene 1
370
    18
  0
POLYLINE
  5
3D5
330
30F
100
AcDbEntity
  8
Ebene 1
 62
   179
420
  1709851
370
    18
100
AcDb2dPolyline
 66
     1
 10
0.0
 20
0.0
 30
0.0
  0
VERTEX
  5
3D6
330
3D5
100
AcDbEntity
  8
Ebene 1
 62
   179
420
  1709851
370
    18
100
AcDbVertex
100
AcDb2dVertex
 10
167.4388752836611
 20
-170.4378309035711
 30
0.0
  0
VERTEX
  5
3D7
330
3D5
100
AcDbEntity
  8
Ebene 1
 62
   179
420
  1709851
370
    18
100
AcDbVertex
100
AcDb2dVertex
 10
167.4388752836611
 20
-170.712749523294
 30
0.0
  0
SEQEND
  5
3D8
330
3D5
100
AcDbEntity
  8
Ebene 1
370
    18
  0
POLYLINE
  5
3D9
330
30F
100
AcDbEntity
  8
Ebene 1
 62
   179
420
  1709851
370
    18
100
AcDb2dPolyline
 66
     1
 10
0.0
 20
0.0
 30
0.0
  0
VERTEX
  5
3DA
330
3D9
100
AcDbEntity
  8
Ebene 1
 62
   179
420
  1709851
370
    18
100
AcDbVertex
100
AcDb2dVertex
 10
167.4388752836611
 20
-173.2104437501002
 30
0.0
  0
VERTEX
  5
3DB
330
3D9
100
AcDbEntity
  8
Ebene 1
 62
   179
420
  1709851
370
    18
100
AcDbVertex
100
AcDb2dVertex
 10
169.42910694549
 20
-173.2104437501002
 30
0.0
  0
SEQEND
  5
3DC
330
3D9
100
AcDbEntity
  8
Ebene 1
370
    18
  0
POLYLINE
  5
3DD
330
30F
100
AcDbEntity
  8
Ebene 1
 62
   179
420
  1709851
370
    18
100
AcDb2dPolyline
 66
     1
 10
0.0
 20
0.0
 30
0.0
  0
VERTEX
  5
3DE
330
3DD
100
AcDbEntity
  8
Ebene 1
 62
   179
420
  1709851
370
    18
100
AcDbVertex
100
AcDb2dVertex
 10
159.4379855287169
 20
-173.2104437501002
 30
0.0
  0
VERTEX
  5
3DF
330
3DD
100
AcDbEntity
  8
Ebene 1
 62
   179
420
  1709851
370
    18
100
AcDbVertex
100
AcDb2dVertex
 10
161.4488877634572
 20
-173.2104437501002
 30
0.0
  0
SEQEND
  5
3E0
330
3DD
100
AcDbEntity
  8
Ebene 1
370
    18
  0
POLYLINE
  5
3E1
330
30F
100
AcDbEntity
  8
Ebene 1
 62
   179
420
  1709851
370
    18
100
AcDb2dPolyline
 66
     1
 10
0.0
 20
0.0
 30
0.0
  0
VERTEX
  5
3E2
330
3E1
100
AcDbEntity
  8
Ebene 1
 62
   179
420
  1709851
370
    18
100
AcDbVertex
100
AcDb2dVertex
 10
161.4488877634572
 20
-170.4378309035711
 30
0.0
  0
VERTEX
  5
3E3
330
3E1
100
AcDbEntity
  8
Ebene 1
 62
   179
420
  1709851
370
    18
100
AcDbVertex
100
AcDb2dVertex
 10
159.4379855287169
 20
-170.4378309035711
 30
0.0
  0
SEQEND
  5
3E4
330
3E1
100
AcDbEntity
  8
Ebene 1
370
    18
  0
POLYLINE
  5
3E5
330
30F
100
AcDbEntity
  8
Ebene 1
 62
   179
420
  1709851
370
    18
100
AcDb2dPolyline
 66
     1
 10
0.0
 20
0.0
 30
0.0
  0
VERTEX
  5
3E6
330
3E5
100
AcDbEntity
  8
Ebene 1
 62
   179
420
  1709851
370
    18
100
AcDbVertex
100
AcDb2dVertex
 10
167.4388752836611
 20
-170.4378309035711
 30
0.0
  0
VERTEX
  5
3E7
330
3E5
100
AcDbEntity
  8
Ebene 1
 62
   179
420
  1709851
370
    18
100
AcDbVertex
100
AcDb2dVertex
 10
169.42910694549
 20
-170.4378309035711
 30
0.0
  0
SEQEND
  5
3E8
330
3E5
100
AcDbEntity
  8
Ebene 1
370
    18
  0
POLYLINE
  5
3E9
330
30F
100
AcDbEntity
  8
Ebene 1
 62
   179
420
  1709851
370
    18
100
AcDb2dPolyline
 66
     1
 10
0.0
 20
0.0
 30
0.0
  0
VERTEX
  5
3EA
330
3E9
100
AcDbEntity
  8
Ebene 1
 62
   179
420
  1709851
370
    18
100
AcDbVertex
100
AcDb2dVertex
 10
170.1270832908016
 20
-170.6493597663654
 30
0.0
  0
VERTEX
  5
3EB
330
3E9
100
AcDbEntity
  8
Ebene 1
 62
   179
420
  1709851
370
    18
100
AcDbVertex
100
AcDb2dVertex
 10
169.9999592673958
 20
-170.6920789503826
 30
0.0
  0
VERTEX
  5
3EC
330
3E9
100
AcDbEntity
  8
Ebene 1
 62
   179
420
  1709851
370
    18
100
AcDbVertex
100
AcDb2dVertex
 10
169.9789441849358
 20
-170.6920789503826
 30
0.0
  0
SEQEND
  5
3ED
330
3E9
100
AcDbEntity
  8
Ebene 1
370
    18
  0
POLYLINE
  5
3EE
330
30F
100
AcDbEntity
  8
Ebene 1
 62
   179
420
  1709851
370
    18
100
AcDb2dPolyline
 66
     1
 10
0.0
 20
0.0
 30
0.0
  0
VERTEX
  5
3EF
330
3EE
100
AcDbEntity
  8
Ebene 1
 62
   179
420
  1709851
370
    18
100
AcDbVertex
100
AcDb2dVertex
 10
166.9734428836039
 20
-170.5012206604997
 30
0.0
  0
VERTEX
  5
3F0
330
3EE
100
AcDbEntity
  8
Ebene 1
 62
   179
420
  1709851
370
    18
100
AcDbVertex
100
AcDb2dVertex
 10
166.8673339426582
 20
-170.4378309035711
 30
0.0
  0
VERTEX
  5
3F1
330
3EE
100
AcDbEntity
  8
Ebene 1
 62
   179
420
  1709851
370
    18
100
AcDbVertex
100
AcDb2dVertex
 10
166.8463188601982
 20
-170.4378309035711
 30
0.0
  0
SEQEND
  5
3F2
330
3EE
100
AcDbEntity
  8
Ebene 1
370
    18
  0
POLYLINE
  5
3F3
330
30F
100
AcDbEntity
  8
Ebene 1
 62
   179
420
  1709851
370
    18
100
AcDb2dPolyline
 66
     1
 10
0.0
 20
0.0
 30
0.0
  0
VERTEX
  5
3F4
330
3F3
100
AcDbEntity
  8
Ebene 1
 62
   179
420
  1709851
370
    18
100
AcDbVertex
100
AcDb2dVertex
 10
170.0423339418644
 20
-170.4378309035711
 30
0.0
  0
VERTEX
  5
3F5
330
3F3
100
AcDbEntity
  8
Ebene 1
 62
   179
420
  1709851
370
    18
100
AcDbVertex
100
AcDb2dVertex
 10
169.9155544280072
 20
-170.4798610684911
 30
0.0
  0
VERTEX
  5
3F6
330
3F3
100
AcDbEntity
  8
Ebene 1
 62
   179
420
  1709851
370
    18
100
AcDbVertex
100
AcDb2dVertex
 10
169.8941948359987
 20
-170.5012206604997
 30
0.0
  0
SEQEND
  5
3F7
330
3F3
100
AcDbEntity
  8
Ebene 1
370
    18
  0
POLYLINE
  5
3F8
330
30F
100
AcDbEntity
  8
Ebene 1
 62
   179
420
  1709851
370
    18
100
AcDb2dPolyline
 66
     1
 10
0.0
 20
0.0
 30
0.0
  0
VERTEX
  5
3F9
330
3F8
100
AcDbEntity
  8
Ebene 1
 62
   179
420
  1709851
370
    18
100
AcDbVertex
100
AcDb2dVertex
 10
169.7250406476729
 20
-170.9242783860884
 30
0.0
  0
VERTEX
  5
3FA
330
3F8
100
AcDbEntity
  8
Ebene 1
 62
   179
420
  1709851
370
    18
100
AcDbVertex
100
AcDb2dVertex
 10
169.7884304046015
 20
-170.8822482211683
 30
0.0
  0
SEQEND
  5
3FB
330
3F8
100
AcDbEntity
  8
Ebene 1
370
    18
  0
POLYLINE
  5
3FC
330
30F
100
AcDbEntity
  8
Ebene 1
 62
   179
420
  1709851
370
    18
100
AcDb2dPolyline
 66
     1
 10
0.0
 20
0.0
 30
0.0
  0
VERTEX
  5
3FD
330
3FC
100
AcDbEntity
  8
Ebene 1
 62
   179
420
  1709851
370
    18
100
AcDbVertex
100
AcDb2dVertex
 10
169.6402912987358
 20
-170.712749523294
 30
0.0
  0
VERTEX
  5
3FE
330
3FC
100
AcDbEntity
  8
Ebene 1
 62
   179
420
  1709851
370
    18
100
AcDbVertex
100
AcDb2dVertex
 10
169.7036810556644
 20
-170.6920789503826
 30
0.0
  0
SEQEND
  5
3FF
330
3FC
100
AcDbEntity
  8
Ebene 1
370
    18
  0
POLYLINE
  5
400
330
30F
100
AcDbEntity
  8
Ebene 1
 62
   179
420
  1709851
370
    18
100
AcDb2dPolyline
 66
     1
 10
0.0
 20
0.0
 30
0.0
  0
VERTEX
  5
401
330
400
100
AcDbEntity
  8
Ebene 1
 62
   179
420
  1709851
370
    18
100
AcDbVertex
100
AcDb2dVertex
 10
167.1639566639382
 20
-170.6920789503826
 30
0.0
  0
VERTEX
  5
402
330
400
100
AcDbEntity
  8
Ebene 1
 62
   179
420
  1709851
370
    18
100
AcDbVertex
100
AcDb2dVertex
 10
167.2483615033268
 20
-170.712749523294
 30
0.0
  0
SEQEND
  5
403
330
400
100
AcDbEntity
  8
Ebene 1
370
    18
  0
POLYLINE
  5
404
330
30F
100
AcDbEntity
  8
Ebene 1
 62
   179
420
  1709851
370
    18
100
AcDb2dPolyline
 66
     1
 10
0.0
 20
0.0
 30
0.0
  0
VERTEX
  5
405
330
404
100
AcDbEntity
  8
Ebene 1
 62
   179
420
  1709851
370
    18
100
AcDbVertex
100
AcDb2dVertex
 10
161.6397460533401
 20
-170.712749523294
 30
0.0
  0
VERTEX
  5
406
330
404
100
AcDbEntity
  8
Ebene 1
 62
   179
420
  1709851
370
    18
100
AcDbVertex
100
AcDb2dVertex
 10
161.7027913007202
 20
-170.6920789503826
 30
0.0
  0
SEQEND
  5
407
330
404
100
AcDbEntity
  8
Ebene 1
370
    18
  0
POLYLINE
  5
408
330
30F
100
AcDbEntity
  8
Ebene 1
 62
   179
420
  1709851
370
    18
100
AcDb2dPolyline
 66
     1
 10
0.0
 20
0.0
 30
0.0
  0
VERTEX
  5
409
330
408
100
AcDbEntity
  8
Ebene 1
 62
   179
420
  1709851
370
    18
100
AcDbVertex
100
AcDb2dVertex
 10
159.1844265010025
 20
-170.6920789503826
 30
0.0
  0
VERTEX
  5
40A
330
408
100
AcDbEntity
  8
Ebene 1
 62
   179
420
  1709851
370
    18
100
AcDbVertex
100
AcDb2dVertex
 10
159.2474717483826
 20
-170.712749523294
 30
0.0
  0
SEQEND
  5
40B
330
408
100
AcDbEntity
  8
Ebene 1
370
    18
  0
POLYLINE
  5
40C
330
30F
100
AcDbEntity
  8
Ebene 1
 62
   179
420
  1709851
370
    18
100
AcDb2dPolyline
 66
     1
 10
0.0
 20
0.0
 30
0.0
  0
VERTEX
  5
40D
330
40C
100
AcDbEntity
  8
Ebene 1
 62
   179
420
  1709851
370
    18
100
AcDbVertex
100
AcDb2dVertex
 10
159.0993326425168
 20
-170.8822482211683
 30
0.0
  0
VERTEX
  5
40E
330
40C
100
AcDbEntity
  8
Ebene 1
 62
   179
420
  1709851
370
    18
100
AcDbVertex
100
AcDb2dVertex
 10
159.1627223994454
 20
-170.9242783860884
 30
0.0
  0
SEQEND
  5
40F
330
40C
100
AcDbEntity
  8
Ebene 1
370
    18
  0
POLYLINE
  5
410
330
30F
100
AcDbEntity
  8
Ebene 1
 62
   179
420
  1709851
370
    18
100
AcDb2dPolyline
 66
     1
 10
0.0
 20
0.0
 30
0.0
  0
VERTEX
  5
411
330
410
100
AcDbEntity
  8
Ebene 1
 62
   179
420
  1709851
370
    18
100
AcDbVertex
100
AcDb2dVertex
 10
158.9722086191111
 20
-170.5012206604997
 30
0.0
  0
VERTEX
  5
412
330
410
100
AcDbEntity
  8
Ebene 1
 62
   179
420
  1709851
370
    18
100
AcDbVertex
100
AcDb2dVertex
 10
158.8664441877139
 20
-170.4378309035711
 30
0.0
  0
VERTEX
  5
413
330
410
100
AcDbEntity
  8
Ebene 1
 62
   179
420
  1709851
370
    18
100
AcDbVertex
100
AcDb2dVertex
 10
158.8457736148025
 20
-170.4378309035711
 30
0.0
  0
SEQEND
  5
414
330
410
100
AcDbEntity
  8
Ebene 1
370
    18
  0
POLYLINE
  5
415
330
30F
100
AcDbEntity
  8
Ebene 1
 62
   179
420
  1709851
370
    18
100
AcDb2dPolyline
 66
     1
 10
0.0
 20
0.0
 30
0.0
  0
VERTEX
  5
416
330
415
100
AcDbEntity
  8
Ebene 1
 62
   179
420
  1709851
370
    18
100
AcDbVertex
100
AcDb2dVertex
 10
158.9088188621825
 20
-170.6920789503826
 30
0.0
  0
VERTEX
  5
417
330
415
100
AcDbEntity
  8
Ebene 1
 62
   179
420
  1709851
370
    18
100
AcDbVertex
100
AcDb2dVertex
 10
158.7816948387768
 20
-170.6493597663654
 30
0.0
  0
VERTEX
  5
418
330
415
100
AcDbEntity
  8
Ebene 1
 62
   179
420
  1709851
370
    18
100
AcDbVertex
100
AcDb2dVertex
 10
158.7606797563168
 20
-170.6493597663654
 30
0.0
  0
SEQEND
  5
419
330
415
100
AcDbEntity
  8
Ebene 1
370
    18
  0
POLYLINE
  5
41A
330
30F
100
AcDbEntity
  8
Ebene 1
 62
   179
420
  1709851
370
    18
100
AcDb2dPolyline
 66
     1
 10
0.0
 20
0.0
 30
0.0
  0
VERTEX
  5
41B
330
41A
100
AcDbEntity
  8
Ebene 1
 62
   179
420
  1709851
370
    18
100
AcDbVertex
100
AcDb2dVertex
 10
162.0414441869202
 20
-170.4378309035711
 30
0.0
  0
VERTEX
  5
41C
330
41A
100
AcDbEntity
  8
Ebene 1
 62
   179
420
  1709851
370
    18
100
AcDbVertex
100
AcDb2dVertex
 10
161.9143201635145
 20
-170.4798610684911
 30
0.0
  0
VERTEX
  5
41D
330
41A
100
AcDbEntity
  8
Ebene 1
 62
   179
420
  1709851
370
    18
100
AcDbVertex
100
AcDb2dVertex
 10
161.8933050810545
 20
-170.5012206604997
 30
0.0
  0
SEQEND
  5
41E
330
41A
100
AcDbEntity
  8
Ebene 1
370
    18
  0
POLYLINE
  5
41F
330
30F
100
AcDbEntity
  8
Ebene 1
 62
   179
420
  1709851
370
    18
100
AcDb2dPolyline
 66
     1
 10
0.0
 20
0.0
 30
0.0
  0
VERTEX
  5
420
330
41F
100
AcDbEntity
  8
Ebene 1
 62
   179
420
  1709851
370
    18
100
AcDbVertex
100
AcDb2dVertex
 10
158.7606797563168
 20
-170.6493597663654
 30
0.0
  0
VERTEX
  5
421
330
41F
100
AcDbEntity
  8
Ebene 1
 62
   179
420
  1709851
370
    18
100
AcDbVertex
100
AcDb2dVertex
 10
158.4430419525767
 20
-170.6493597663654
 30
0.0
  0
VERTEX
  5
422
330
41F
100
AcDbEntity
  8
Ebene 1
 62
   179
420
  1709851
370
    18
100
AcDbVertex
100
AcDb2dVertex
 10
158.4430419525767
 20
-170.4378309035711
 30
0.0
  0
SEQEND
  5
423
330
41F
100
AcDbEntity
  8
Ebene 1
370
    18
  0
POLYLINE
  5
424
330
30F
100
AcDbEntity
  8
Ebene 1
 62
   179
420
  1709851
370
    18
100
AcDb2dPolyline
 66
     1
 10
0.0
 20
0.0
 30
0.0
  0
VERTEX
  5
425
330
424
100
AcDbEntity
  8
Ebene 1
 62
   179
420
  1709851
370
    18
100
AcDbVertex
100
AcDb2dVertex
 10
159.0993326425168
 20
-170.8822482211683
 30
0.0
  0
VERTEX
  5
426
330
424
100
AcDbEntity
  8
Ebene 1
 62
   179
420
  1709851
370
    18
100
AcDbVertex
100
AcDb2dVertex
 10
158.9088188621825
 20
-170.6920789503826
 30
0.0
  0
SEQEND
  5
427
330
424
100
AcDbEntity
  8
Ebene 1
370
    18
  0
POLYLINE
  5
428
330
30F
100
AcDbEntity
  8
Ebene 1
 62
   179
420
  1709851
370
    18
100
AcDb2dPolyline
 66
     1
 10
0.0
 20
0.0
 30
0.0
  0
VERTEX
  5
429
330
428
100
AcDbEntity
  8
Ebene 1
 62
   179
420
  1709851
370
    18
100
AcDbVertex
100
AcDb2dVertex
 10
169.9789441849358
 20
-170.6920789503826
 30
0.0
  0
VERTEX
  5
42A
330
428
100
AcDbEntity
  8
Ebene 1
 62
   179
420
  1709851
370
    18
100
AcDbVertex
100
AcDb2dVertex
 10
169.7884304046015
 20
-170.8822482211683
 30
0.0
  0
SEQEND
  5
42B
330
428
100
AcDbEntity
  8
Ebene 1
370
    18
  0
POLYLINE
  5
42C
330
30F
100
AcDbEntity
  8
Ebene 1
 62
   179
420
  1709851
370
    18
100
AcDb2dPolyline
 66
     1
 10
0.0
 20
0.0
 30
0.0
  0
VERTEX
  5
42D
330
42C
100
AcDbEntity
  8
Ebene 1
 62
   179
420
  1709851
370
    18
100
AcDbVertex
100
AcDb2dVertex
 10
170.0423339418644
 20
-170.4378309035711
 30
0.0
  0
VERTEX
  5
42E
330
42C
100
AcDbEntity
  8
Ebene 1
 62
   179
420
  1709851
370
    18
100
AcDbVertex
100
AcDb2dVertex
 10
170.4447210945416
 20
-170.4378309035711
 30
0.0
  0
VERTEX
  5
42F
330
42C
100
AcDbEntity
  8
Ebene 1
 62
   179
420
  1709851
370
    18
100
AcDbVertex
100
AcDb2dVertex
 10
170.4447210945416
 20
-170.6493597663654
 30
0.0
  0
VERTEX
  5
430
330
42C
100
AcDbEntity
  8
Ebene 1
 62
   179
420
  1709851
370
    18
100
AcDbVertex
100
AcDb2dVertex
 10
170.1270832908016
 20
-170.6493597663654
 30
0.0
  0
SEQEND
  5
431
330
42C
100
AcDbEntity
  8
Ebene 1
370
    18
  0
POLYLINE
  5
432
330
30F
100
AcDbEntity
  8
Ebene 1
 62
   179
420
  1709851
370
    18
100
AcDb2dPolyline
 66
     1
 10
0.0
 20
0.0
 30
0.0
  0
VERTEX
  5
433
330
432
100
AcDbEntity
  8
Ebene 1
 62
   179
420
  1709851
370
    18
100
AcDbVertex
100
AcDb2dVertex
 10
169.7036810556644
 20
-170.6920789503826
 30
0.0
  0
VERTEX
  5
434
330
432
100
AcDbEntity
  8
Ebene 1
 62
   179
420
  1709851
370
    18
100
AcDbVertex
100
AcDb2dVertex
 10
169.8941948359987
 20
-170.5012206604997
 30
0.0
  0
SEQEND
  5
435
330
432
100
AcDbEntity
  8
Ebene 1
370
    18
  0
POLYLINE
  5
436
330
30F
100
AcDbEntity
  8
Ebene 1
 62
   179
420
  1709851
370
    18
100
AcDb2dPolyline
 66
     1
 10
0.0
 20
0.0
 30
0.0
  0
VERTEX
  5
437
330
436
100
AcDbEntity
  8
Ebene 1
 62
   179
420
  1709851
370
    18
100
AcDbVertex
100
AcDb2dVertex
 10
166.9734428836039
 20
-170.5012206604997
 30
0.0
  0
VERTEX
  5
438
330
436
100
AcDbEntity
  8
Ebene 1
 62
   179
420
  1709851
370
    18
100
AcDbVertex
100
AcDb2dVertex
 10
167.1639566639382
 20
-170.6920789503826
 30
0.0
  0
SEQEND
  5
439
330
436
100
AcDbEntity
  8
Ebene 1
370
    18
  0
POLYLINE
  5
43A
330
30F
100
AcDbEntity
  8
Ebene 1
 62
   179
420
  1709851
370
    18
100
AcDb2dPolyline
 66
     1
 10
0.0
 20
0.0
 30
0.0
  0
VERTEX
  5
43B
330
43A
100
AcDbEntity
  8
Ebene 1
 62
   179
420
  1709851
370
    18
100
AcDbVertex
100
AcDb2dVertex
 10
161.7027913007202
 20
-170.6920789503826
 30
0.0
  0
VERTEX
  5
43C
330
43A
100
AcDbEntity
  8
Ebene 1
 62
   179
420
  1709851
370
    18
100
AcDbVertex
100
AcDb2dVertex
 10
161.8933050810545
 20
-170.5012206604997
 30
0.0
  0
SEQEND
  5
43D
330
43A
100
AcDbEntity
  8
Ebene 1
370
    18
  0
POLYLINE
  5
43E
330
30F
100
AcDbEntity
  8
Ebene 1
 62
   179
420
  1709851
370
    18
100
AcDb2dPolyline
 66
     1
 10
0.0
 20
0.0
 30
0.0
  0
VERTEX
  5
43F
330
43E
100
AcDbEntity
  8
Ebene 1
 62
   179
420
  1709851
370
    18
100
AcDbVertex
100
AcDb2dVertex
 10
158.9722086191111
 20
-170.5012206604997
 30
0.0
  0
VERTEX
  5
440
330
43E
100
AcDbEntity
  8
Ebene 1
 62
   179
420
  1709851
370
    18
100
AcDbVertex
100
AcDb2dVertex
 10
159.1844265010025
 20
-170.6920789503826
 30
0.0
  0
SEQEND
  5
441
330
43E
100
AcDbEntity
  8
Ebene 1
370
    18
  0
POLYLINE
  5
442
330
30F
100
AcDbEntity
  8
Ebene 1
 62
   179
420
  1709851
370
    18
100
AcDb2dPolyline
 66
     1
 10
0.0
 20
0.0
 30
0.0
  0
VERTEX
  5
443
330
442
100
AcDbEntity
  8
Ebene 1
 62
   179
420
  1709851
370
    18
100
AcDbVertex
100
AcDb2dVertex
 10
158.4430419525767
 20
-170.4378309035711
 30
0.0
  0
VERTEX
  5
444
330
442
100
AcDbEntity
  8
Ebene 1
 62
   179
420
  1709851
370
    18
100
AcDbVertex
100
AcDb2dVertex
 10
158.8457736148025
 20
-170.4378309035711
 30
0.0
  0
SEQEND
  5
445
330
442
100
AcDbEntity
  8
Ebene 1
370
    18
  0
POLYLINE
  5
446
330
30F
100
AcDbEntity
  8
Ebene 1
 62
   179
420
  1709851
370
    18
100
AcDb2dPolyline
 66
     1
 10
0.0
 20
0.0
 30
0.0
  0
VERTEX
  5
447
330
446
100
AcDbEntity
  8
Ebene 1
 62
   179
420
  1709851
370
    18
100
AcDbVertex
100
AcDb2dVertex
 10
20.35172932433915
 20
-162.9233886311441
 30
0.0
  0
VERTEX
  5
448
330
446
100
AcDbEntity
  8
Ebene 1
 62
   179
420
  1709851
370
    18
100
AcDbVertex
100
AcDb2dVertex
 10
44.24897866732317
 20
-162.9233886311441
 30
0.0
  0
SEQEND
  5
449
330
446
100
AcDbEntity
  8
Ebene 1
370
    18
  0
POLYLINE
  5
44A
330
30F
100
AcDbEntity
  8
Ebene 1
 62
   179
420
  1709851
370
    18
100
AcDb2dPolyline
 66
     1
 10
0.0
 20
0.0
 30
0.0
  0
VERTEX
  5
44B
330
44A
100
AcDbEntity
  8
Ebene 1
 62
   179
420
  1709851
370
    18
100
AcDbVertex
100
AcDb2dVertex
 10
40.86227755054832
 20
-148.5302964580931
 30
0.0
  0
VERTEX
  5
44C
330
44A
100
AcDbEntity
  8
Ebene 1
 62
   179
420
  1709851
370
    18
100
AcDbVertex
100
AcDb2dVertex
 10
44.58763155352323
 20
-160.4470539963466
 30
0.0
  0
SEQEND
  5
44D
330
44A
100
AcDbEntity
  8
Ebene 1
370
    18
  0
POLYLINE
  5
44E
330
30F
100
AcDbEntity
  8
Ebene 1
 62
   179
420
  1709851
370
    18
100
AcDb2dPolyline
 66
     1
 10
0.0
 20
0.0
 30
0.0
  0
VERTEX
  5
44F
330
44E
100
AcDbEntity
  8
Ebene 1
 62
   179
420
  1709851
370
    18
100
AcDbVertex
100
AcDb2dVertex
 10
45.15900063975192
 20
-162.2674424507526
 30
0.0
  0
VERTEX
  5
450
330
44E
100
AcDbEntity
  8
Ebene 1
 62
   179
420
  1709851
370
    18
100
AcDbVertex
100
AcDb2dVertex
 10
45.34951442008624
 20
-162.9233886311441
 30
0.0
  0
SEQEND
  5
451
330
44E
100
AcDbEntity
  8
Ebene 1
370
    18
  0
POLYLINE
  5
452
330
30F
100
AcDbEntity
  8
Ebene 1
 62
   179
420
  1709851
370
    18
100
AcDb2dPolyline
 66
     1
 10
0.0
 20
0.0
 30
0.0
  0
VERTEX
  5
453
330
452
100
AcDbEntity
  8
Ebene 1
 62
   179
420
  1709851
370
    18
100
AcDbVertex
100
AcDb2dVertex
 10
35.35890976763597
 20
-162.9233886311441
 30
0.0
  0
VERTEX
  5
454
330
452
100
AcDbEntity
  8
Ebene 1
 62
   179
420
  1709851
370
    18
100
AcDbVertex
100
AcDb2dVertex
 10
39.84631889194814
 20
-148.5302964580931
 30
0.0
  0
SEQEND
  5
455
330
452
100
AcDbEntity
  8
Ebene 1
370
    18
  0
POLYLINE
  5
456
330
30F
100
AcDbEntity
  8
Ebene 1
 62
   179
420
  1709851
370
    18
100
AcDb2dPolyline
 66
     1
 10
0.0
 20
0.0
 30
0.0
  0
VERTEX
  5
457
330
456
100
AcDbEntity
  8
Ebene 1
 62
   179
420
  1709851
370
    18
100
AcDbVertex
100
AcDb2dVertex
 10
45.34951442008624
 20
-162.9233886311441
 30
0.0
  0
VERTEX
  5
458
330
456
100
AcDbEntity
  8
Ebene 1
 62
   179
420
  1709851
370
    18
100
AcDbVertex
100
AcDb2dVertex
 10
50.3449028736985
 20
-146.9214368664815
 30
0.0
  0
VERTEX
  5
459
330
456
100
AcDbEntity
  8
Ebene 1
 62
   179
420
  1709851
370
    18
100
AcDbVertex
100
AcDb2dVertex
 10
55.36147866454505
 20
-162.9233886311441
 30
0.0
  0
SEQEND
  5
45A
330
456
100
AcDbEntity
  8
Ebene 1
370
    18
  0
POLYLINE
  5
45B
330
30F
100
AcDbEntity
  8
Ebene 1
 62
   179
420
  1709851
370
    18
100
AcDb2dPolyline
 66
     1
 10
0.0
 20
0.0
 30
0.0
  0
VERTEX
  5
45C
330
45B
100
AcDbEntity
  8
Ebene 1
 62
   179
420
  1709851
370
    18
100
AcDbVertex
100
AcDb2dVertex
 10
49.54064533266693
 20
-172.0253309031742
 30
0.0
  0
VERTEX
  5
45D
330
45B
100
AcDbEntity
  8
Ebene 1
 62
   179
420
  1709851
370
    18
100
AcDbVertex
100
AcDb2dVertex
 10
49.54064533266693
 20
-171.3266655387656
 30
0.0
  0
SEQEND
  5
45E
330
45B
100
AcDbEntity
  8
Ebene 1
370
    18
  0
POLYLINE
  5
45F
330
30F
100
AcDbEntity
  8
Ebene 1
 62
   179
420
  1709851
370
    18
100
AcDb2dPolyline
 66
     1
 10
0.0
 20
0.0
 30
0.0
  0
VERTEX
  5
460
330
45F
100
AcDbEntity
  8
Ebene 1
 62
   179
420
  1709851
370
    18
100
AcDbVertex
100
AcDb2dVertex
 10
47.33922931759228
 20
-172.0253309031742
 30
0.0
  0
VERTEX
  5
461
330
45F
100
AcDbEntity
  8
Ebene 1
 62
   179
420
  1709851
370
    18
100
AcDbVertex
100
AcDb2dVertex
 10
47.33922931759228
 20
-171.3266655387656
 30
0.0
  0
SEQEND
  5
462
330
45F
100
AcDbEntity
  8
Ebene 1
370
    18
  0
POLYLINE
  5
463
330
30F
100
AcDbEntity
  8
Ebene 1
 62
   179
420
  1709851
370
    18
100
AcDb2dPolyline
 66
     1
 10
0.0
 20
0.0
 30
0.0
  0
VERTEX
  5
464
330
463
100
AcDbEntity
  8
Ebene 1
 62
   179
420
  1709851
370
    18
100
AcDbVertex
100
AcDb2dVertex
 10
41.53958332294844
 20
-172.0253309031742
 30
0.0
  0
VERTEX
  5
465
330
463
100
AcDbEntity
  8
Ebene 1
 62
   179
420
  1709851
370
    18
100
AcDbVertex
100
AcDb2dVertex
 10
41.53958332294844
 20
-171.3266655387656
 30
0.0
  0
SEQEND
  5
466
330
463
100
AcDbEntity
  8
Ebene 1
370
    18
  0
POLYLINE
  5
467
330
30F
100
AcDbEntity
  8
Ebene 1
 62
   179
420
  1709851
370
    18
100
AcDb2dPolyline
 66
     1
 10
0.0
 20
0.0
 30
0.0
  0
VERTEX
  5
468
330
467
100
AcDbEntity
  8
Ebene 1
 62
   179
420
  1709851
370
    18
100
AcDbVertex
100
AcDb2dVertex
 10
39.35935464510808
 20
-172.0253309031742
 30
0.0
  0
VERTEX
  5
469
330
467
100
AcDbEntity
  8
Ebene 1
 62
   179
420
  1709851
370
    18
100
AcDbVertex
100
AcDb2dVertex
 10
39.35935464510808
 20
-172.0253309031742
 30
0.0
  0
VERTEX
  5
46A
330
467
100
AcDbEntity
  8
Ebene 1
 62
   179
420
  1709851
370
    18
100
AcDbVertex
100
AcDb2dVertex
 10
39.35935464510808
 20
-171.3266655387656
 30
0.0
  0
SEQEND
  5
46B
330
467
100
AcDbEntity
  8
Ebene 1
370
    18
  0
POLYLINE
  5
46C
330
30F
100
AcDbEntity
  8
Ebene 1
 62
   179
420
  1709851
370
    18
100
AcDb2dPolyline
 66
     1
 10
0.0
 20
0.0
 30
0.0
  0
VERTEX
  5
46D
330
46C
100
AcDbEntity
  8
Ebene 1
 62
   179
420
  1709851
370
    18
100
AcDbVertex
100
AcDb2dVertex
 10
49.54064533266693
 20
-171.3266655387656
 30
0.0
  0
VERTEX
  5
46E
330
46C
100
AcDbEntity
  8
Ebene 1
 62
   179
420
  1709851
370
    18
100
AcDbVertex
100
AcDb2dVertex
 10
49.54064533266693
 20
-171.1151366759712
 30
0.0
  0
SEQEND
  5
46F
330
46C
100
AcDbEntity
  8
Ebene 1
370
    18
  0
POLYLINE
  5
470
330
30F
100
AcDbEntity
  8
Ebene 1
 62
   179
420
  1709851
370
    18
100
AcDb2dPolyline
 66
     1
 10
0.0
 20
0.0
 30
0.0
  0
VERTEX
  5
471
330
470
100
AcDbEntity
  8
Ebene 1
 62
   179
420
  1709851
370
    18
100
AcDbVertex
100
AcDb2dVertex
 10
47.33922931759228
 20
-171.1151366759712
 30
0.0
  0
VERTEX
  5
472
330
470
100
AcDbEntity
  8
Ebene 1
 62
   179
420
  1709851
370
    18
100
AcDbVertex
100
AcDb2dVertex
 10
47.33922931759228
 20
-171.3266655387656
 30
0.0
  0
SEQEND
  5
473
330
470
100
AcDbEntity
  8
Ebene 1
370
    18
  0
POLYLINE
  5
474
330
30F
100
AcDbEntity
  8
Ebene 1
 62
   179
420
  1709851
370
    18
100
AcDb2dPolyline
 66
     1
 10
0.0
 20
0.0
 30
0.0
  0
VERTEX
  5
475
330
474
100
AcDbEntity
  8
Ebene 1
 62
   179
420
  1709851
370
    18
100
AcDbVertex
100
AcDb2dVertex
 10
41.53958332294844
 20
-171.3266655387656
 30
0.0
  0
VERTEX
  5
476
330
474
100
AcDbEntity
  8
Ebene 1
 62
   179
420
  1709851
370
    18
100
AcDbVertex
100
AcDb2dVertex
 10
41.53958332294844
 20
-171.1151366759712
 30
0.0
  0
SEQEND
  5
477
330
474
100
AcDbEntity
  8
Ebene 1
370
    18
  0
POLYLINE
  5
478
330
30F
100
AcDbEntity
  8
Ebene 1
 62
   179
420
  1709851
370
    18
100
AcDb2dPolyline
 66
     1
 10
0.0
 20
0.0
 30
0.0
  0
VERTEX
  5
479
330
478
100
AcDbEntity
  8
Ebene 1
 62
   179
420
  1709851
370
    18
100
AcDbVertex
100
AcDb2dVertex
 10
39.35935464510808
 20
-171.1151366759712
 30
0.0
  0
VERTEX
  5
47A
330
478
100
AcDbEntity
  8
Ebene 1
 62
   179
420
  1709851
370
    18
100
AcDbVertex
100
AcDb2dVertex
 10
39.35935464510808
 20
-171.3266655387656
 30
0.0
  0
SEQEND
  5
47B
330
478
100
AcDbEntity
  8
Ebene 1
370
    18
  0
POLYLINE
  5
47C
330
30F
100
AcDbEntity
  8
Ebene 1
 62
   179
420
  1709851
370
    18
100
AcDb2dPolyline
 66
     1
 10
0.0
 20
0.0
 30
0.0
  0
VERTEX
  5
47D
330
47C
100
AcDbEntity
  8
Ebene 1
 62
   179
420
  1709851
370
    18
100
AcDbVertex
100
AcDb2dVertex
 10
49.45589598372977
 20
-172.6178873266372
 30
0.0
  0
VERTEX
  5
47E
330
47C
100
AcDbEntity
  8
Ebene 1
 62
   179
420
  1709851
370
    18
100
AcDbVertex
100
AcDb2dVertex
 10
49.45589598372977
 20
-171.3266655387656
 30
0.0
  0
SEQEND
  5
47F
330
47C
100
AcDbEntity
  8
Ebene 1
370
    18
  0
POLYLINE
  5
480
330
30F
100
AcDbEntity
  8
Ebene 1
 62
   179
420
  1709851
370
    18
100
AcDb2dPolyline
 66
     1
 10
0.0
 20
0.0
 30
0.0
  0
VERTEX
  5
481
330
480
100
AcDbEntity
  8
Ebene 1
 62
   179
420
  1709851
370
    18
100
AcDbVertex
100
AcDb2dVertex
 10
47.44516600376371
 20
-172.6178873266372
 30
0.0
  0
VERTEX
  5
482
330
480
100
AcDbEntity
  8
Ebene 1
 62
   179
420
  1709851
370
    18
100
AcDbVertex
100
AcDb2dVertex
 10
47.44516600376371
 20
-171.3266655387656
 30
0.0
  0
SEQEND
  5
483
330
480
100
AcDbEntity
  8
Ebene 1
370
    18
  0
POLYLINE
  5
484
330
30F
100
AcDbEntity
  8
Ebene 1
 62
   179
420
  1709851
370
    18
100
AcDb2dPolyline
 66
     1
 10
0.0
 20
0.0
 30
0.0
  0
VERTEX
  5
485
330
484
100
AcDbEntity
  8
Ebene 1
 62
   179
420
  1709851
370
    18
100
AcDbVertex
100
AcDb2dVertex
 10
41.45483397401129
 20
-172.6178873266372
 30
0.0
  0
VERTEX
  5
486
330
484
100
AcDbEntity
  8
Ebene 1
 62
   179
420
  1709851
370
    18
100
AcDbVertex
100
AcDb2dVertex
 10
41.45483397401129
 20
-171.3266655387656
 30
0.0
  0
SEQEND
  5
487
330
484
100
AcDbEntity
  8
Ebene 1
370
    18
  0
POLYLINE
  5
488
330
30F
100
AcDbEntity
  8
Ebene 1
 62
   179
420
  1709851
370
    18
100
AcDb2dPolyline
 66
     1
 10
0.0
 20
0.0
 30
0.0
  0
VERTEX
  5
489
330
488
100
AcDbEntity
  8
Ebene 1
 62
   179
420
  1709851
370
    18
100
AcDbVertex
100
AcDb2dVertex
 10
39.44410399404523
 20
-172.6178873266372
 30
0.0
  0
VERTEX
  5
48A
330
488
100
AcDbEntity
  8
Ebene 1
 62
   179
420
  1709851
370
    18
100
AcDbVertex
100
AcDb2dVertex
 10
39.44410399404523
 20
-171.3266655387656
 30
0.0
  0
SEQEND
  5
48B
330
488
100
AcDbEntity
  8
Ebene 1
370
    18
  0
POLYLINE
  5
48C
330
30F
100
AcDbEntity
  8
Ebene 1
 62
   179
420
  1709851
370
    18
100
AcDb2dPolyline
 66
     1
 10
0.0
 20
0.0
 30
0.0
  0
VERTEX
  5
48D
330
48C
100
AcDbEntity
  8
Ebene 1
 62
   179
420
  1709851
370
    18
100
AcDbVertex
100
AcDb2dVertex
 10
49.45589598372977
 20
-173.2104437501002
 30
0.0
  0
VERTEX
  5
48E
330
48C
100
AcDbEntity
  8
Ebene 1
 62
   179
420
  1709851
370
    18
100
AcDbVertex
100
AcDb2dVertex
 10
49.45589598372977
 20
-172.9141655383687
 30
0.0
  0
SEQEND
  5
48F
330
48C
100
AcDbEntity
  8
Ebene 1
370
    18
  0
POLYLINE
  5
490
330
30F
100
AcDbEntity
  8
Ebene 1
 62
   179
420
  1709851
370
    18
100
AcDb2dPolyline
 66
     1
 10
0.0
 20
0.0
 30
0.0
  0
VERTEX
  5
491
330
490
100
AcDbEntity
  8
Ebene 1
 62
   179
420
  1709851
370
    18
100
AcDbVertex
100
AcDb2dVertex
 10
49.45589598372977
 20
-171.3266655387656
 30
0.0
  0
VERTEX
  5
492
330
490
100
AcDbEntity
  8
Ebene 1
 62
   179
420
  1709851
370
    18
100
AcDbVertex
100
AcDb2dVertex
 10
49.45589598372977
 20
-171.2212456169169
 30
0.0
  0
SEQEND
  5
493
330
490
100
AcDbEntity
  8
Ebene 1
370
    18
  0
POLYLINE
  5
494
330
30F
100
AcDbEntity
  8
Ebene 1
 62
   179
420
  1709851
370
    18
100
AcDb2dPolyline
 66
     1
 10
0.0
 20
0.0
 30
0.0
  0
VERTEX
  5
495
330
494
100
AcDbEntity
  8
Ebene 1
 62
   179
420
  1709851
370
    18
100
AcDbVertex
100
AcDb2dVertex
 10
47.44516600376371
 20
-171.2212456169169
 30
0.0
  0
VERTEX
  5
496
330
494
100
AcDbEntity
  8
Ebene 1
 62
   179
420
  1709851
370
    18
100
AcDbVertex
100
AcDb2dVertex
 10
47.44516600376371
 20
-171.3266655387656
 30
0.0
  0
SEQEND
  5
497
330
494
100
AcDbEntity
  8
Ebene 1
370
    18
  0
POLYLINE
  5
498
330
30F
100
AcDbEntity
  8
Ebene 1
 62
   179
420
  1709851
370
    18
100
AcDb2dPolyline
 66
     1
 10
0.0
 20
0.0
 30
0.0
  0
VERTEX
  5
499
330
498
100
AcDbEntity
  8
Ebene 1
 62
   179
420
  1709851
370
    18
100
AcDbVertex
100
AcDb2dVertex
 10
47.44516600376371
 20
-172.9141655383687
 30
0.0
  0
VERTEX
  5
49A
330
498
100
AcDbEntity
  8
Ebene 1
 62
   179
420
  1709851
370
    18
100
AcDbVertex
100
AcDb2dVertex
 10
47.44516600376371
 20
-173.2104437501002
 30
0.0
  0
SEQEND
  5
49B
330
498
100
AcDbEntity
  8
Ebene 1
370
    18
  0
POLYLINE
  5
49C
330
30F
100
AcDbEntity
  8
Ebene 1
 62
   179
420
  1709851
370
    18
100
AcDb2dPolyline
 66
     1
 10
0.0
 20
0.0
 30
0.0
  0
VERTEX
  5
49D
330
49C
100
AcDbEntity
  8
Ebene 1
 62
   179
420
  1709851
370
    18
100
AcDbVertex
100
AcDb2dVertex
 10
41.45483397401129
 20
-173.2104437501002
 30
0.0
  0
VERTEX
  5
49E
330
49C
100
AcDbEntity
  8
Ebene 1
 62
   179
420
  1709851
370
    18
100
AcDbVertex
100
AcDb2dVertex
 10
41.45483397401129
 20
-172.9141655383687
 30
0.0
  0
SEQEND
  5
49F
330
49C
100
AcDbEntity
  8
Ebene 1
370
    18
  0
POLYLINE
  5
4A0
330
30F
100
AcDbEntity
  8
Ebene 1
 62
   179
420
  1709851
370
    18
100
AcDb2dPolyline
 66
     1
 10
0.0
 20
0.0
 30
0.0
  0
VERTEX
  5
4A1
330
4A0
100
AcDbEntity
  8
Ebene 1
 62
   179
420
  1709851
370
    18
100
AcDbVertex
100
AcDb2dVertex
 10
41.45483397401129
 20
-171.3266655387656
 30
0.0
  0
VERTEX
  5
4A2
330
4A0
100
AcDbEntity
  8
Ebene 1
 62
   179
420
  1709851
370
    18
100
AcDbVertex
100
AcDb2dVertex
 10
41.45483397401129
 20
-171.2212456169169
 30
0.0
  0
SEQEND
  5
4A3
330
4A0
100
AcDbEntity
  8
Ebene 1
370
    18
  0
POLYLINE
  5
4A4
330
30F
100
AcDbEntity
  8
Ebene 1
 62
   179
420
  1709851
370
    18
100
AcDb2dPolyline
 66
     1
 10
0.0
 20
0.0
 30
0.0
  0
VERTEX
  5
4A5
330
4A4
100
AcDbEntity
  8
Ebene 1
 62
   179
420
  1709851
370
    18
100
AcDbVertex
100
AcDb2dVertex
 10
39.44410399404523
 20
-171.2212456169169
 30
0.0
  0
VERTEX
  5
4A6
330
4A4
100
AcDbEntity
  8
Ebene 1
 62
   179
420
  1709851
370
    18
100
AcDbVertex
100
AcDb2dVertex
 10
39.44410399404523
 20
-171.3266655387656
 30
0.0
  0
SEQEND
  5
4A7
330
4A4
100
AcDbEntity
  8
Ebene 1
370
    18
  0
POLYLINE
  5
4A8
330
30F
100
AcDbEntity
  8
Ebene 1
 62
   179
420
  1709851
370
    18
100
AcDb2dPolyline
 66
     1
 10
0.0
 20
0.0
 30
0.0
  0
VERTEX
  5
4A9
330
4A8
100
AcDbEntity
  8
Ebene 1
 62
   179
420
  1709851
370
    18
100
AcDbVertex
100
AcDb2dVertex
 10
39.44410399404523
 20
-172.9141655383687
 30
0.0
  0
VERTEX
  5
4AA
330
4A8
100
AcDbEntity
  8
Ebene 1
 62
   179
420
  1709851
370
    18
100
AcDbVertex
100
AcDb2dVertex
 10
39.44410399404523
 20
-173.2104437501002
 30
0.0
  0
SEQEND
  5
4AB
330
4A8
100
AcDbEntity
  8
Ebene 1
370
    18
  0
POLYLINE
  5
4AC
330
30F
100
AcDbEntity
  8
Ebene 1
 62
   179
420
  1709851
370
    18
100
AcDb2dPolyline
 66
     1
 10
0.0
 20
0.0
 30
0.0
  0
VERTEX
  5
4AD
330
4AC
100
AcDbEntity
  8
Ebene 1
 62
   179
420
  1709851
370
    18
100
AcDbVertex
100
AcDb2dVertex
 10
49.58284775236123
 20
-170.9669975701055
 30
0.0
  0
VERTEX
  5
4AE
330
4AC
100
AcDbEntity
  8
Ebene 1
 62
   179
420
  1709851
370
    18
100
AcDbVertex
100
AcDb2dVertex
 10
49.60403508959552
 20
-170.9242783860884
 30
0.0
  0
SEQEND
  5
4AF
330
4AC
100
AcDbEntity
  8
Ebene 1
370
    18
  0
POLYLINE
  5
4B0
330
30F
100
AcDbEntity
  8
Ebene 1
 62
   179
420
  1709851
370
    18
100
AcDb2dPolyline
 66
     1
 10
0.0
 20
0.0
 30
0.0
  0
VERTEX
  5
4B1
330
4B0
100
AcDbEntity
  8
Ebene 1
 62
   179
420
  1709851
370
    18
100
AcDbVertex
100
AcDb2dVertex
 10
47.69906954102662
 20
-171.3266655387656
 30
0.0
  0
VERTEX
  5
4B2
330
4B0
100
AcDbEntity
  8
Ebene 1
 62
   179
420
  1709851
370
    18
100
AcDbVertex
100
AcDb2dVertex
 10
49.20199244646687
 20
-171.3266655387656
 30
0.0
  0
SEQEND
  5
4B3
330
4B0
100
AcDbEntity
  8
Ebene 1
370
    18
  0
POLYLINE
  5
4B4
330
30F
100
AcDbEntity
  8
Ebene 1
 62
   179
420
  1709851
370
    18
100
AcDb2dPolyline
 66
     1
 10
0.0
 20
0.0
 30
0.0
  0
VERTEX
  5
4B5
330
4B4
100
AcDbEntity
  8
Ebene 1
 62
   179
420
  1709851
370
    18
100
AcDbVertex
100
AcDb2dVertex
 10
49.20199244646687
 20
-171.3266655387656
 30
0.0
  0
VERTEX
  5
4B6
330
4B4
100
AcDbEntity
  8
Ebene 1
 62
   179
420
  1709851
370
    18
100
AcDbVertex
100
AcDb2dVertex
 10
49.37131888956689
 20
-171.2846353738455
 30
0.0
  0
VERTEX
  5
4B7
330
4B4
100
AcDbEntity
  8
Ebene 1
 62
   179
420
  1709851
370
    18
100
AcDbVertex
100
AcDb2dVertex
 10
49.51945799543264
 20
-171.1571668408913
 30
0.0
  0
VERTEX
  5
4B8
330
4B4
100
AcDbEntity
  8
Ebene 1
 62
   179
420
  1709851
370
    18
100
AcDbVertex
100
AcDb2dVertex
 10
49.58284775236123
 20
-170.988357162114
 30
0.0
  0
VERTEX
  5
4B9
330
4B4
100
AcDbEntity
  8
Ebene 1
 62
   179
420
  1709851
370
    18
100
AcDbVertex
100
AcDb2dVertex
 10
49.58284775236123
 20
-170.9669975701055
 30
0.0
  0
SEQEND
  5
4BA
330
4B4
100
AcDbEntity
  8
Ebene 1
370
    18
  0
POLYLINE
  5
4BB
330
30F
100
AcDbEntity
  8
Ebene 1
 62
   179
420
  1709851
370
    18
100
AcDb2dPolyline
 66
     1
 10
0.0
 20
0.0
 30
0.0
  0
VERTEX
  5
4BC
330
4BB
100
AcDbEntity
  8
Ebene 1
 62
   179
420
  1709851
370
    18
100
AcDbVertex
100
AcDb2dVertex
 10
47.29685464312371
 20
-170.9242783860884
 30
0.0
  0
VERTEX
  5
4BD
330
4BB
100
AcDbEntity
  8
Ebene 1
 62
   179
420
  1709851
370
    18
100
AcDbVertex
100
AcDb2dVertex
 10
47.29685464312371
 20
-170.9669975701055
 30
0.0
  0
SEQEND
  5
4BE
330
4BB
100
AcDbEntity
  8
Ebene 1
370
    18
  0
POLYLINE
  5
4BF
330
30F
100
AcDbEntity
  8
Ebene 1
 62
   179
420
  1709851
370
    18
100
AcDb2dPolyline
 66
     1
 10
0.0
 20
0.0
 30
0.0
  0
VERTEX
  5
4C0
330
4BF
100
AcDbEntity
  8
Ebene 1
 62
   179
420
  1709851
370
    18
100
AcDbVertex
100
AcDb2dVertex
 10
47.29685464312371
 20
-170.9669975701055
 30
0.0
  0
VERTEX
  5
4C1
330
4BF
100
AcDbEntity
  8
Ebene 1
 62
   179
420
  1709851
370
    18
100
AcDbVertex
100
AcDb2dVertex
 10
47.36041665482657
 20
-171.1358072488827
 30
0.0
  0
VERTEX
  5
4C2
330
4BF
100
AcDbEntity
  8
Ebene 1
 62
   179
420
  1709851
370
    18
100
AcDbVertex
100
AcDb2dVertex
 10
47.50855576069231
 20
-171.263275781837
 30
0.0
  0
VERTEX
  5
4C3
330
4BF
100
AcDbEntity
  8
Ebene 1
 62
   179
420
  1709851
370
    18
100
AcDbVertex
100
AcDb2dVertex
 10
47.67788220379234
 20
-171.3266655387656
 30
0.0
  0
VERTEX
  5
4C4
330
4BF
100
AcDbEntity
  8
Ebene 1
 62
   179
420
  1709851
370
    18
100
AcDbVertex
100
AcDb2dVertex
 10
47.69906954102662
 20
-171.3266655387656
 30
0.0
  0
SEQEND
  5
4C5
330
4BF
100
AcDbEntity
  8
Ebene 1
370
    18
  0
POLYLINE
  5
4C6
330
30F
100
AcDbEntity
  8
Ebene 1
 62
   179
420
  1709851
370
    18
100
AcDb2dPolyline
 66
     1
 10
0.0
 20
0.0
 30
0.0
  0
VERTEX
  5
4C7
330
4C6
100
AcDbEntity
  8
Ebene 1
 62
   179
420
  1709851
370
    18
100
AcDbVertex
100
AcDb2dVertex
 10
41.6031453346513
 20
-170.9669975701055
 30
0.0
  0
VERTEX
  5
4C8
330
4C6
100
AcDbEntity
  8
Ebene 1
 62
   179
420
  1709851
370
    18
100
AcDbVertex
100
AcDb2dVertex
 10
41.6031453346513
 20
-170.9242783860884
 30
0.0
  0
SEQEND
  5
4C9
330
4C6
100
AcDbEntity
  8
Ebene 1
370
    18
  0
POLYLINE
  5
4CA
330
30F
100
AcDbEntity
  8
Ebene 1
 62
   179
420
  1709851
370
    18
100
AcDb2dPolyline
 66
     1
 10
0.0
 20
0.0
 30
0.0
  0
VERTEX
  5
4CB
330
4CA
100
AcDbEntity
  8
Ebene 1
 62
   179
420
  1709851
370
    18
100
AcDbVertex
100
AcDb2dVertex
 10
39.69800753130814
 20
-171.3266655387656
 30
0.0
  0
VERTEX
  5
4CC
330
4CA
100
AcDbEntity
  8
Ebene 1
 62
   179
420
  1709851
370
    18
100
AcDbVertex
100
AcDb2dVertex
 10
41.20093043674838
 20
-171.3266655387656
 30
0.0
  0
SEQEND
  5
4CD
330
4CA
100
AcDbEntity
  8
Ebene 1
370
    18
  0
POLYLINE
  5
4CE
330
30F
100
AcDbEntity
  8
Ebene 1
 62
   179
420
  1709851
370
    18
100
AcDb2dPolyline
 66
     1
 10
0.0
 20
0.0
 30
0.0
  0
VERTEX
  5
4CF
330
4CE
100
AcDbEntity
  8
Ebene 1
 62
   179
420
  1709851
370
    18
100
AcDbVertex
100
AcDb2dVertex
 10
41.20093043674838
 20
-171.3266655387656
 30
0.0
  0
VERTEX
  5
4D0
330
4CE
100
AcDbEntity
  8
Ebene 1
 62
   179
420
  1709851
370
    18
100
AcDbVertex
100
AcDb2dVertex
 10
41.37025687984841
 20
-171.2846353738455
 30
0.0
  0
VERTEX
  5
4D1
330
4CE
100
AcDbEntity
  8
Ebene 1
 62
   179
420
  1709851
370
    18
100
AcDbVertex
100
AcDb2dVertex
 10
41.51839598571415
 20
-171.1571668408913
 30
0.0
  0
VERTEX
  5
4D2
330
4CE
100
AcDbEntity
  8
Ebene 1
 62
   179
420
  1709851
370
    18
100
AcDbVertex
100
AcDb2dVertex
 10
41.58195799741701
 20
-170.988357162114
 30
0.0
  0
VERTEX
  5
4D3
330
4CE
100
AcDbEntity
  8
Ebene 1
 62
   179
420
  1709851
370
    18
100
AcDbVertex
100
AcDb2dVertex
 10
41.6031453346513
 20
-170.9669975701055
 30
0.0
  0
SEQEND
  5
4D4
330
4CE
100
AcDbEntity
  8
Ebene 1
370
    18
  0
POLYLINE
  5
4D5
330
30F
100
AcDbEntity
  8
Ebene 1
 62
   179
420
  1709851
370
    18
100
AcDb2dPolyline
 66
     1
 10
0.0
 20
0.0
 30
0.0
  0
VERTEX
  5
4D6
330
4D5
100
AcDbEntity
  8
Ebene 1
 62
   179
420
  1709851
370
    18
100
AcDbVertex
100
AcDb2dVertex
 10
39.29596488817948
 20
-170.9242783860884
 30
0.0
  0
VERTEX
  5
4D7
330
4D5
100
AcDbEntity
  8
Ebene 1
 62
   179
420
  1709851
370
    18
100
AcDbVertex
100
AcDb2dVertex
 10
39.29596488817948
 20
-170.9669975701055
 30
0.0
  0
SEQEND
  5
4D8
330
4D5
100
AcDbEntity
  8
Ebene 1
370
    18
  0
POLYLINE
  5
4D9
330
30F
100
AcDbEntity
  8
Ebene 1
 62
   179
420
  1709851
370
    18
100
AcDb2dPolyline
 66
     1
 10
0.0
 20
0.0
 30
0.0
  0
VERTEX
  5
4DA
330
4D9
100
AcDbEntity
  8
Ebene 1
 62
   179
420
  1709851
370
    18
100
AcDbVertex
100
AcDb2dVertex
 10
39.29596488817948
 20
-170.9669975701055
 30
0.0
  0
VERTEX
  5
4DB
330
4D9
100
AcDbEntity
  8
Ebene 1
 62
   179
420
  1709851
370
    18
100
AcDbVertex
100
AcDb2dVertex
 10
39.35935464510808
 20
-171.1358072488827
 30
0.0
  0
VERTEX
  5
4DC
330
4D9
100
AcDbEntity
  8
Ebene 1
 62
   179
420
  1709851
370
    18
100
AcDbVertex
100
AcDb2dVertex
 10
39.50766600574809
 20
-171.263275781837
 30
0.0
  0
VERTEX
  5
4DD
330
4D9
100
AcDbEntity
  8
Ebene 1
 62
   179
420
  1709851
370
    18
100
AcDbVertex
100
AcDb2dVertex
 10
39.67699244884812
 20
-171.3266655387656
 30
0.0
  0
VERTEX
  5
4DE
330
4D9
100
AcDbEntity
  8
Ebene 1
 62
   179
420
  1709851
370
    18
100
AcDbVertex
100
AcDb2dVertex
 10
39.69800753130814
 20
-171.3266655387656
 30
0.0
  0
SEQEND
  5
4DF
330
4D9
100
AcDbEntity
  8
Ebene 1
370
    18
  0
POLYLINE
  5
4E0
330
30F
100
AcDbEntity
  8
Ebene 1
 62
   179
420
  1709851
370
    18
100
AcDb2dPolyline
 66
     1
 10
0.0
 20
0.0
 30
0.0
  0
VERTEX
  5
4E1
330
4E0
100
AcDbEntity
  8
Ebene 1
 62
   179
420
  1709851
370
    18
100
AcDbVertex
100
AcDb2dVertex
 10
49.45589598372977
 20
-172.0253309031742
 30
0.0
  0
VERTEX
  5
4E2
330
4E0
100
AcDbEntity
  8
Ebene 1
 62
   179
420
  1709851
370
    18
100
AcDbVertex
100
AcDb2dVertex
 10
49.54064533266693
 20
-172.0253309031742
 30
0.0
  0
SEQEND
  5
4E3
330
4E0
100
AcDbEntity
  8
Ebene 1
370
    18
  0
POLYLINE
  5
4E4
330
30F
100
AcDbEntity
  8
Ebene 1
 62
   179
420
  1709851
370
    18
100
AcDb2dPolyline
 66
     1
 10
0.0
 20
0.0
 30
0.0
  0
VERTEX
  5
4E5
330
4E4
100
AcDbEntity
  8
Ebene 1
 62
   179
420
  1709851
370
    18
100
AcDbVertex
100
AcDb2dVertex
 10
47.33922931759228
 20
-172.0253309031742
 30
0.0
  0
VERTEX
  5
4E6
330
4E4
100
AcDbEntity
  8
Ebene 1
 62
   179
420
  1709851
370
    18
100
AcDbVertex
100
AcDb2dVertex
 10
47.44516600376371
 20
-172.0253309031742
 30
0.0
  0
SEQEND
  5
4E7
330
4E4
100
AcDbEntity
  8
Ebene 1
370
    18
  0
POLYLINE
  5
4E8
330
30F
100
AcDbEntity
  8
Ebene 1
 62
   179
420
  1709851
370
    18
100
AcDb2dPolyline
 66
     1
 10
0.0
 20
0.0
 30
0.0
  0
VERTEX
  5
4E9
330
4E8
100
AcDbEntity
  8
Ebene 1
 62
   179
420
  1709851
370
    18
100
AcDbVertex
100
AcDb2dVertex
 10
39.44410399404523
 20
-172.0253309031742
 30
0.0
  0
VERTEX
  5
4EA
330
4E8
100
AcDbEntity
  8
Ebene 1
 62
   179
420
  1709851
370
    18
100
AcDbVertex
100
AcDb2dVertex
 10
39.35935464510808
 20
-172.0253309031742
 30
0.0
  0
SEQEND
  5
4EB
330
4E8
100
AcDbEntity
  8
Ebene 1
370
    18
  0
POLYLINE
  5
4EC
330
30F
100
AcDbEntity
  8
Ebene 1
 62
   179
420
  1709851
370
    18
100
AcDb2dPolyline
 66
     1
 10
0.0
 20
0.0
 30
0.0
  0
VERTEX
  5
4ED
330
4EC
100
AcDbEntity
  8
Ebene 1
 62
   179
420
  1709851
370
    18
100
AcDbVertex
100
AcDb2dVertex
 10
41.53958332294844
 20
-172.0253309031742
 30
0.0
  0
VERTEX
  5
4EE
330
4EC
100
AcDbEntity
  8
Ebene 1
 62
   179
420
  1709851
370
    18
100
AcDbVertex
100
AcDb2dVertex
 10
41.45483397401129
 20
-172.0253309031742
 30
0.0
  0
SEQEND
  5
4EF
330
4EC
100
AcDbEntity
  8
Ebene 1
370
    18
  0
POLYLINE
  5
4F0
330
30F
100
AcDbEntity
  8
Ebene 1
 62
   179
420
  1709851
370
    18
100
AcDb2dPolyline
 66
     1
 10
0.0
 20
0.0
 30
0.0
  0
VERTEX
  5
4F1
330
4F0
100
AcDbEntity
  8
Ebene 1
 62
   179
420
  1709851
370
    18
100
AcDbVertex
100
AcDb2dVertex
 10
39.25359021371091
 20
-170.712749523294
 30
0.0
  0
VERTEX
  5
4F2
330
4F0
100
AcDbEntity
  8
Ebene 1
 62
   179
420
  1709851
370
    18
100
AcDbVertex
100
AcDb2dVertex
 10
49.6464097640641
 20
-170.712749523294
 30
0.0
  0
SEQEND
  5
4F3
330
4F0
100
AcDbEntity
  8
Ebene 1
370
    18
  0
POLYLINE
  5
4F4
330
30F
100
AcDbEntity
  8
Ebene 1
 62
   179
420
  1709851
370
    18
100
AcDb2dPolyline
 66
     1
 10
0.0
 20
0.0
 30
0.0
  0
VERTEX
  5
4F5
330
4F4
100
AcDbEntity
  8
Ebene 1
 62
   179
420
  1709851
370
    18
100
AcDbVertex
100
AcDb2dVertex
 10
39.16884086477376
 20
-170.9242783860884
 30
0.0
  0
VERTEX
  5
4F6
330
4F4
100
AcDbEntity
  8
Ebene 1
 62
   179
420
  1709851
370
    18
100
AcDbVertex
100
AcDb2dVertex
 10
49.73115911300124
 20
-170.9242783860884
 30
0.0
  0
SEQEND
  5
4F7
330
4F4
100
AcDbEntity
  8
Ebene 1
370
    18
  0
POLYLINE
  5
4F8
330
30F
100
AcDbEntity
  8
Ebene 1
 62
   179
420
  1709851
370
    18
100
AcDb2dPolyline
 66
     1
 10
0.0
 20
0.0
 30
0.0
  0
VERTEX
  5
4F9
330
4F8
100
AcDbEntity
  8
Ebene 1
 62
   179
420
  1709851
370
    18
100
AcDbVertex
100
AcDb2dVertex
 10
39.44410399404523
 20
-170.4378309035711
 30
0.0
  0
VERTEX
  5
4FA
330
4F8
100
AcDbEntity
  8
Ebene 1
 62
   179
420
  1709851
370
    18
100
AcDbVertex
100
AcDb2dVertex
 10
39.44410399404523
 20
-170.712749523294
 30
0.0
  0
SEQEND
  5
4FB
330
4F8
100
AcDbEntity
  8
Ebene 1
370
    18
  0
POLYLINE
  5
4FC
330
30F
100
AcDbEntity
  8
Ebene 1
 62
   179
420
  1709851
370
    18
100
AcDb2dPolyline
 66
     1
 10
0.0
 20
0.0
 30
0.0
  0
VERTEX
  5
4FD
330
4FC
100
AcDbEntity
  8
Ebene 1
 62
   179
420
  1709851
370
    18
100
AcDbVertex
100
AcDb2dVertex
 10
41.45483397401129
 20
-170.712749523294
 30
0.0
  0
VERTEX
  5
4FE
330
4FC
100
AcDbEntity
  8
Ebene 1
 62
   179
420
  1709851
370
    18
100
AcDbVertex
100
AcDb2dVertex
 10
41.45483397401129
 20
-170.4378309035711
 30
0.0
  0
SEQEND
  5
4FF
330
4FC
100
AcDbEntity
  8
Ebene 1
370
    18
  0
POLYLINE
  5
500
330
30F
100
AcDbEntity
  8
Ebene 1
 62
   179
420
  1709851
370
    18
100
AcDb2dPolyline
 66
     1
 10
0.0
 20
0.0
 30
0.0
  0
VERTEX
  5
501
330
500
100
AcDbEntity
  8
Ebene 1
 62
   179
420
  1709851
370
    18
100
AcDbVertex
100
AcDb2dVertex
 10
49.45589598372977
 20
-170.712749523294
 30
0.0
  0
VERTEX
  5
502
330
500
100
AcDbEntity
  8
Ebene 1
 62
   179
420
  1709851
370
    18
100
AcDbVertex
100
AcDb2dVertex
 10
49.45589598372977
 20
-170.4378309035711
 30
0.0
  0
SEQEND
  5
503
330
500
100
AcDbEntity
  8
Ebene 1
370
    18
  0
POLYLINE
  5
504
330
30F
100
AcDbEntity
  8
Ebene 1
 62
   179
420
  1709851
370
    18
100
AcDb2dPolyline
 66
     1
 10
0.0
 20
0.0
 30
0.0
  0
VERTEX
  5
505
330
504
100
AcDbEntity
  8
Ebene 1
 62
   179
420
  1709851
370
    18
100
AcDbVertex
100
AcDb2dVertex
 10
47.44516600376371
 20
-170.4378309035711
 30
0.0
  0
VERTEX
  5
506
330
504
100
AcDbEntity
  8
Ebene 1
 62
   179
420
  1709851
370
    18
100
AcDbVertex
100
AcDb2dVertex
 10
47.44516600376371
 20
-170.712749523294
 30
0.0
  0
SEQEND
  5
507
330
504
100
AcDbEntity
  8
Ebene 1
370
    18
  0
POLYLINE
  5
508
330
30F
100
AcDbEntity
  8
Ebene 1
 62
   179
420
  1709851
370
    18
100
AcDb2dPolyline
 66
     1
 10
0.0
 20
0.0
 30
0.0
  0
VERTEX
  5
509
330
508
100
AcDbEntity
  8
Ebene 1
 62
   179
420
  1709851
370
    18
100
AcDbVertex
100
AcDb2dVertex
 10
47.44516600376371
 20
-173.2104437501002
 30
0.0
  0
VERTEX
  5
50A
330
508
100
AcDbEntity
  8
Ebene 1
 62
   179
420
  1709851
370
    18
100
AcDbVertex
100
AcDb2dVertex
 10
49.45589598372977
 20
-173.2104437501002
 30
0.0
  0
SEQEND
  5
50B
330
508
100
AcDbEntity
  8
Ebene 1
370
    18
  0
POLYLINE
  5
50C
330
30F
100
AcDbEntity
  8
Ebene 1
 62
   179
420
  1709851
370
    18
100
AcDb2dPolyline
 66
     1
 10
0.0
 20
0.0
 30
0.0
  0
VERTEX
  5
50D
330
50C
100
AcDbEntity
  8
Ebene 1
 62
   179
420
  1709851
370
    18
100
AcDbVertex
100
AcDb2dVertex
 10
39.44410399404523
 20
-173.2104437501002
 30
0.0
  0
VERTEX
  5
50E
330
50C
100
AcDbEntity
  8
Ebene 1
 62
   179
420
  1709851
370
    18
100
AcDbVertex
100
AcDb2dVertex
 10
41.45483397401129
 20
-173.2104437501002
 30
0.0
  0
SEQEND
  5
50F
330
50C
100
AcDbEntity
  8
Ebene 1
370
    18
  0
POLYLINE
  5
510
330
30F
100
AcDbEntity
  8
Ebene 1
 62
   179
420
  1709851
370
    18
100
AcDb2dPolyline
 66
     1
 10
0.0
 20
0.0
 30
0.0
  0
VERTEX
  5
511
330
510
100
AcDbEntity
  8
Ebene 1
 62
   179
420
  1709851
370
    18
100
AcDbVertex
100
AcDb2dVertex
 10
41.45483397401129
 20
-170.4378309035711
 30
0.0
  0
VERTEX
  5
512
330
510
100
AcDbEntity
  8
Ebene 1
 62
   179
420
  1709851
370
    18
100
AcDbVertex
100
AcDb2dVertex
 10
39.44410399404523
 20
-170.4378309035711
 30
0.0
  0
SEQEND
  5
513
330
510
100
AcDbEntity
  8
Ebene 1
370
    18
  0
POLYLINE
  5
514
330
30F
100
AcDbEntity
  8
Ebene 1
 62
   179
420
  1709851
370
    18
100
AcDb2dPolyline
 66
     1
 10
0.0
 20
0.0
 30
0.0
  0
VERTEX
  5
515
330
514
100
AcDbEntity
  8
Ebene 1
 62
   179
420
  1709851
370
    18
100
AcDbVertex
100
AcDb2dVertex
 10
47.44516600376371
 20
-170.4378309035711
 30
0.0
  0
VERTEX
  5
516
330
514
100
AcDbEntity
  8
Ebene 1
 62
   179
420
  1709851
370
    18
100
AcDbVertex
100
AcDb2dVertex
 10
49.45589598372977
 20
-170.4378309035711
 30
0.0
  0
SEQEND
  5
517
330
514
100
AcDbEntity
  8
Ebene 1
370
    18
  0
POLYLINE
  5
518
330
30F
100
AcDbEntity
  8
Ebene 1
 62
   179
420
  1709851
370
    18
100
AcDb2dPolyline
 66
     1
 10
0.0
 20
0.0
 30
0.0
  0
VERTEX
  5
519
330
518
100
AcDbEntity
  8
Ebene 1
 62
   179
420
  1709851
370
    18
100
AcDbVertex
100
AcDb2dVertex
 10
50.1332017561299
 20
-170.6493597663654
 30
0.0
  0
VERTEX
  5
51A
330
518
100
AcDbEntity
  8
Ebene 1
 62
   179
420
  1709851
370
    18
100
AcDbVertex
100
AcDb2dVertex
 10
50.00624998749844
 20
-170.6920789503826
 30
0.0
  0
VERTEX
  5
51B
330
518
100
AcDbEntity
  8
Ebene 1
 62
   179
420
  1709851
370
    18
100
AcDbVertex
100
AcDb2dVertex
 10
49.98506265026415
 20
-170.6920789503826
 30
0.0
  0
SEQEND
  5
51C
330
518
100
AcDbEntity
  8
Ebene 1
370
    18
  0
POLYLINE
  5
51D
330
30F
100
AcDbEntity
  8
Ebene 1
 62
   179
420
  1709851
370
    18
100
AcDb2dPolyline
 66
     1
 10
0.0
 20
0.0
 30
0.0
  0
VERTEX
  5
51E
330
51D
100
AcDbEntity
  8
Ebene 1
 62
   179
420
  1709851
370
    18
100
AcDbVertex
100
AcDb2dVertex
 10
47.00057643139222
 20
-170.5012206604997
 30
0.0
  0
VERTEX
  5
51F
330
51D
100
AcDbEntity
  8
Ebene 1
 62
   179
420
  1709851
370
    18
100
AcDbVertex
100
AcDb2dVertex
 10
46.87362466276076
 20
-170.4378309035711
 30
0.0
  0
VERTEX
  5
520
330
51D
100
AcDbEntity
  8
Ebene 1
 62
   179
420
  1709851
370
    18
100
AcDbVertex
100
AcDb2dVertex
 10
46.85243732552647
 20
-170.4378309035711
 30
0.0
  0
SEQEND
  5
521
330
51D
100
AcDbEntity
  8
Ebene 1
370
    18
  0
POLYLINE
  5
522
330
30F
100
AcDbEntity
  8
Ebene 1
 62
   179
420
  1709851
370
    18
100
AcDb2dPolyline
 66
     1
 10
0.0
 20
0.0
 30
0.0
  0
VERTEX
  5
523
330
522
100
AcDbEntity
  8
Ebene 1
 62
   179
420
  1709851
370
    18
100
AcDbVertex
100
AcDb2dVertex
 10
50.04862466196701
 20
-170.4378309035711
 30
0.0
  0
VERTEX
  5
524
330
522
100
AcDbEntity
  8
Ebene 1
 62
   179
420
  1709851
370
    18
100
AcDbVertex
100
AcDb2dVertex
 10
49.92150063856129
 20
-170.4798610684911
 30
0.0
  0
VERTEX
  5
525
330
522
100
AcDbEntity
  8
Ebene 1
 62
   179
420
  1709851
370
    18
100
AcDbVertex
100
AcDb2dVertex
 10
49.90048555610127
 20
-170.5012206604997
 30
0.0
  0
SEQEND
  5
526
330
522
100
AcDbEntity
  8
Ebene 1
370
    18
  0
POLYLINE
  5
527
330
30F
100
AcDbEntity
  8
Ebene 1
 62
   179
420
  1709851
370
    18
100
AcDb2dPolyline
 66
     1
 10
0.0
 20
0.0
 30
0.0
  0
VERTEX
  5
528
330
527
100
AcDbEntity
  8
Ebene 1
 62
   179
420
  1709851
370
    18
100
AcDbVertex
100
AcDb2dVertex
 10
49.73115911300124
 20
-170.9242783860884
 30
0.0
  0
VERTEX
  5
529
330
527
100
AcDbEntity
  8
Ebene 1
 62
   179
420
  1709851
370
    18
100
AcDbVertex
100
AcDb2dVertex
 10
49.79454886992983
 20
-170.8822482211683
 30
0.0
  0
SEQEND
  5
52A
330
527
100
AcDbEntity
  8
Ebene 1
370
    18
  0
POLYLINE
  5
52B
330
30F
100
AcDbEntity
  8
Ebene 1
 62
   179
420
  1709851
370
    18
100
AcDb2dPolyline
 66
     1
 10
0.0
 20
0.0
 30
0.0
  0
VERTEX
  5
52C
330
52B
100
AcDbEntity
  8
Ebene 1
 62
   179
420
  1709851
370
    18
100
AcDbVertex
100
AcDb2dVertex
 10
49.6464097640641
 20
-170.712749523294
 30
0.0
  0
VERTEX
  5
52D
330
52B
100
AcDbEntity
  8
Ebene 1
 62
   179
420
  1709851
370
    18
100
AcDbVertex
100
AcDb2dVertex
 10
49.70997177576695
 20
-170.6920789503826
 30
0.0
  0
SEQEND
  5
52E
330
52B
100
AcDbEntity
  8
Ebene 1
370
    18
  0
POLYLINE
  5
52F
330
30F
100
AcDbEntity
  8
Ebene 1
 62
   179
420
  1709851
370
    18
100
AcDb2dPolyline
 66
     1
 10
0.0
 20
0.0
 30
0.0
  0
VERTEX
  5
530
330
52F
100
AcDbEntity
  8
Ebene 1
 62
   179
420
  1709851
370
    18
100
AcDbVertex
100
AcDb2dVertex
 10
47.19109021172653
 20
-170.6920789503826
 30
0.0
  0
VERTEX
  5
531
330
52F
100
AcDbEntity
  8
Ebene 1
 62
   179
420
  1709851
370
    18
100
AcDbVertex
100
AcDb2dVertex
 10
47.2546522234294
 20
-170.712749523294
 30
0.0
  0
SEQEND
  5
532
330
52F
100
AcDbEntity
  8
Ebene 1
370
    18
  0
POLYLINE
  5
533
330
30F
100
AcDbEntity
  8
Ebene 1
 62
   179
420
  1709851
370
    18
100
AcDb2dPolyline
 66
     1
 10
0.0
 20
0.0
 30
0.0
  0
VERTEX
  5
534
330
533
100
AcDbEntity
  8
Ebene 1
 62
   179
420
  1709851
370
    18
100
AcDbVertex
100
AcDb2dVertex
 10
41.64534775434561
 20
-170.712749523294
 30
0.0
  0
VERTEX
  5
535
330
533
100
AcDbEntity
  8
Ebene 1
 62
   179
420
  1709851
370
    18
100
AcDbVertex
100
AcDb2dVertex
 10
41.70890976604847
 20
-170.6920789503826
 30
0.0
  0
SEQEND
  5
536
330
533
100
AcDbEntity
  8
Ebene 1
370
    18
  0
POLYLINE
  5
537
330
30F
100
AcDbEntity
  8
Ebene 1
 62
   179
420
  1709851
370
    18
100
AcDb2dPolyline
 66
     1
 10
0.0
 20
0.0
 30
0.0
  0
VERTEX
  5
538
330
537
100
AcDbEntity
  8
Ebene 1
 62
   179
420
  1709851
370
    18
100
AcDbVertex
100
AcDb2dVertex
 10
39.19002820200805
 20
-170.6920789503826
 30
0.0
  0
VERTEX
  5
539
330
537
100
AcDbEntity
  8
Ebene 1
 62
   179
420
  1709851
370
    18
100
AcDbVertex
100
AcDb2dVertex
 10
39.25359021371091
 20
-170.712749523294
 30
0.0
  0
SEQEND
  5
53A
330
537
100
AcDbEntity
  8
Ebene 1
370
    18
  0
POLYLINE
  5
53B
330
30F
100
AcDbEntity
  8
Ebene 1
 62
   179
420
  1709851
370
    18
100
AcDb2dPolyline
 66
     1
 10
0.0
 20
0.0
 30
0.0
  0
VERTEX
  5
53C
330
53B
100
AcDbEntity
  8
Ebene 1
 62
   179
420
  1709851
370
    18
100
AcDbVertex
100
AcDb2dVertex
 10
39.10545110784517
 20
-170.8822482211683
 30
0.0
  0
VERTEX
  5
53D
330
53B
100
AcDbEntity
  8
Ebene 1
 62
   179
420
  1709851
370
    18
100
AcDbVertex
100
AcDb2dVertex
 10
39.16884086477376
 20
-170.9242783860884
 30
0.0
  0
SEQEND
  5
53E
330
53B
100
AcDbEntity
  8
Ebene 1
370
    18
  0
POLYLINE
  5
53F
330
30F
100
AcDbEntity
  8
Ebene 1
 62
   179
420
  1709851
370
    18
100
AcDb2dPolyline
 66
     1
 10
0.0
 20
0.0
 30
0.0
  0
VERTEX
  5
540
330
53F
100
AcDbEntity
  8
Ebene 1
 62
   179
420
  1709851
370
    18
100
AcDbVertex
100
AcDb2dVertex
 10
38.99951442167374
 20
-170.5012206604997
 30
0.0
  0
VERTEX
  5
541
330
53F
100
AcDbEntity
  8
Ebene 1
 62
   179
420
  1709851
370
    18
100
AcDbVertex
100
AcDb2dVertex
 10
38.87256265304228
 20
-170.4378309035711
 30
0.0
  0
VERTEX
  5
542
330
53F
100
AcDbEntity
  8
Ebene 1
 62
   179
420
  1709851
370
    18
100
AcDbVertex
100
AcDb2dVertex
 10
38.85137531580799
 20
-170.4378309035711
 30
0.0
  0
SEQEND
  5
543
330
53F
100
AcDbEntity
  8
Ebene 1
370
    18
  0
POLYLINE
  5
544
330
30F
100
AcDbEntity
  8
Ebene 1
 62
   179
420
  1709851
370
    18
100
AcDb2dPolyline
 66
     1
 10
0.0
 20
0.0
 30
0.0
  0
VERTEX
  5
545
330
544
100
AcDbEntity
  8
Ebene 1
 62
   179
420
  1709851
370
    18
100
AcDbVertex
100
AcDb2dVertex
 10
38.91493732751085
 20
-170.6920789503826
 30
0.0
  0
VERTEX
  5
546
330
544
100
AcDbEntity
  8
Ebene 1
 62
   179
420
  1709851
370
    18
100
AcDbVertex
100
AcDb2dVertex
 10
38.78798555887939
 20
-170.6493597663654
 30
0.0
  0
VERTEX
  5
547
330
544
100
AcDbEntity
  8
Ebene 1
 62
   179
420
  1709851
370
    18
100
AcDbVertex
100
AcDb2dVertex
 10
38.76679822164511
 20
-170.6493597663654
 30
0.0
  0
SEQEND
  5
548
330
544
100
AcDbEntity
  8
Ebene 1
370
    18
  0
POLYLINE
  5
549
330
30F
100
AcDbEntity
  8
Ebene 1
 62
   179
420
  1709851
370
    18
100
AcDb2dPolyline
 66
     1
 10
0.0
 20
0.0
 30
0.0
  0
VERTEX
  5
54A
330
549
100
AcDbEntity
  8
Ebene 1
 62
   179
420
  1709851
370
    18
100
AcDbVertex
100
AcDb2dVertex
 10
42.04756265224853
 20
-170.4378309035711
 30
0.0
  0
VERTEX
  5
54B
330
549
100
AcDbEntity
  8
Ebene 1
 62
   179
420
  1709851
370
    18
100
AcDbVertex
100
AcDb2dVertex
 10
41.92061088361707
 20
-170.4798610684911
 30
0.0
  0
VERTEX
  5
54C
330
549
100
AcDbEntity
  8
Ebene 1
 62
   179
420
  1709851
370
    18
100
AcDbVertex
100
AcDb2dVertex
 10
41.89942354638278
 20
-170.5012206604997
 30
0.0
  0
SEQEND
  5
54D
330
549
100
AcDbEntity
  8
Ebene 1
370
    18
  0
POLYLINE
  5
54E
330
30F
100
AcDbEntity
  8
Ebene 1
 62
   179
420
  1709851
370
    18
100
AcDb2dPolyline
 66
     1
 10
0.0
 20
0.0
 30
0.0
  0
VERTEX
  5
54F
330
54E
100
AcDbEntity
  8
Ebene 1
 62
   179
420
  1709851
370
    18
100
AcDbVertex
100
AcDb2dVertex
 10
38.76679822164511
 20
-170.6493597663654
 30
0.0
  0
VERTEX
  5
550
330
54E
100
AcDbEntity
  8
Ebene 1
 62
   179
420
  1709851
370
    18
100
AcDbVertex
100
AcDb2dVertex
 10
38.44933267267933
 20
-170.6493597663654
 30
0.0
  0
VERTEX
  5
551
330
54E
100
AcDbEntity
  8
Ebene 1
 62
   179
420
  1709851
370
    18
100
AcDbVertex
100
AcDb2dVertex
 10
38.44933267267933
 20
-170.4378309035711
 30
0.0
  0
SEQEND
  5
552
330
54E
100
AcDbEntity
  8
Ebene 1
370
    18
  0
POLYLINE
  5
553
330
30F
100
AcDbEntity
  8
Ebene 1
 62
   179
420
  1709851
370
    18
100
AcDb2dPolyline
 66
     1
 10
0.0
 20
0.0
 30
0.0
  0
VERTEX
  5
554
330
553
100
AcDbEntity
  8
Ebene 1
 62
   179
420
  1709851
370
    18
100
AcDbVertex
100
AcDb2dVertex
 10
39.10545110784517
 20
-170.8822482211683
 30
0.0
  0
VERTEX
  5
555
330
553
100
AcDbEntity
  8
Ebene 1
 62
   179
420
  1709851
370
    18
100
AcDbVertex
100
AcDb2dVertex
 10
38.91493732751085
 20
-170.6920789503826
 30
0.0
  0
SEQEND
  5
556
330
553
100
AcDbEntity
  8
Ebene 1
370
    18
  0
POLYLINE
  5
557
330
30F
100
AcDbEntity
  8
Ebene 1
 62
   179
420
  1709851
370
    18
100
AcDb2dPolyline
 66
     1
 10
0.0
 20
0.0
 30
0.0
  0
VERTEX
  5
558
330
557
100
AcDbEntity
  8
Ebene 1
 62
   179
420
  1709851
370
    18
100
AcDbVertex
100
AcDb2dVertex
 10
49.98506265026415
 20
-170.6920789503826
 30
0.0
  0
VERTEX
  5
559
330
557
100
AcDbEntity
  8
Ebene 1
 62
   179
420
  1709851
370
    18
100
AcDbVertex
100
AcDb2dVertex
 10
49.79454886992983
 20
-170.8822482211683
 30
0.0
  0
SEQEND
  5
55A
330
557
100
AcDbEntity
  8
Ebene 1
370
    18
  0
POLYLINE
  5
55B
330
30F
100
AcDbEntity
  8
Ebene 1
 62
   179
420
  1709851
370
    18
100
AcDb2dPolyline
 66
     1
 10
0.0
 20
0.0
 30
0.0
  0
VERTEX
  5
55C
330
55B
100
AcDbEntity
  8
Ebene 1
 62
   179
420
  1709851
370
    18
100
AcDbVertex
100
AcDb2dVertex
 10
50.04862466196701
 20
-170.4378309035711
 30
0.0
  0
VERTEX
  5
55D
330
55B
100
AcDbEntity
  8
Ebene 1
 62
   179
420
  1709851
370
    18
100
AcDbVertex
100
AcDb2dVertex
 10
50.45066730509567
 20
-170.4378309035711
 30
0.0
  0
VERTEX
  5
55E
330
55B
100
AcDbEntity
  8
Ebene 1
 62
   179
420
  1709851
370
    18
100
AcDbVertex
100
AcDb2dVertex
 10
50.45066730509567
 20
-170.6493597663654
 30
0.0
  0
VERTEX
  5
55F
330
55B
100
AcDbEntity
  8
Ebene 1
 62
   179
420
  1709851
370
    18
100
AcDbVertex
100
AcDb2dVertex
 10
50.1332017561299
 20
-170.6493597663654
 30
0.0
  0
SEQEND
  5
560
330
55B
100
AcDbEntity
  8
Ebene 1
370
    18
  0
POLYLINE
  5
561
330
30F
100
AcDbEntity
  8
Ebene 1
 62
   179
420
  1709851
370
    18
100
AcDb2dPolyline
 66
     1
 10
0.0
 20
0.0
 30
0.0
  0
VERTEX
  5
562
330
561
100
AcDbEntity
  8
Ebene 1
 62
   179
420
  1709851
370
    18
100
AcDbVertex
100
AcDb2dVertex
 10
49.70997177576695
 20
-170.6920789503826
 30
0.0
  0
VERTEX
  5
563
330
561
100
AcDbEntity
  8
Ebene 1
 62
   179
420
  1709851
370
    18
100
AcDbVertex
100
AcDb2dVertex
 10
49.90048555610127
 20
-170.5012206604997
 30
0.0
  0
SEQEND
  5
564
330
561
100
AcDbEntity
  8
Ebene 1
370
    18
  0
POLYLINE
  5
565
330
30F
100
AcDbEntity
  8
Ebene 1
 62
   179
420
  1709851
370
    18
100
AcDb2dPolyline
 66
     1
 10
0.0
 20
0.0
 30
0.0
  0
VERTEX
  5
566
330
565
100
AcDbEntity
  8
Ebene 1
 62
   179
420
  1709851
370
    18
100
AcDbVertex
100
AcDb2dVertex
 10
47.00057643139222
 20
-170.5012206604997
 30
0.0
  0
VERTEX
  5
567
330
565
100
AcDbEntity
  8
Ebene 1
 62
   179
420
  1709851
370
    18
100
AcDbVertex
100
AcDb2dVertex
 10
47.19109021172653
 20
-170.6920789503826
 30
0.0
  0
SEQEND
  5
568
330
565
100
AcDbEntity
  8
Ebene 1
370
    18
  0
POLYLINE
  5
569
330
30F
100
AcDbEntity
  8
Ebene 1
 62
   179
420
  1709851
370
    18
100
AcDb2dPolyline
 66
     1
 10
0.0
 20
0.0
 30
0.0
  0
VERTEX
  5
56A
330
569
100
AcDbEntity
  8
Ebene 1
 62
   179
420
  1709851
370
    18
100
AcDbVertex
100
AcDb2dVertex
 10
41.70890976604847
 20
-170.6920789503826
 30
0.0
  0
VERTEX
  5
56B
330
569
100
AcDbEntity
  8
Ebene 1
 62
   179
420
  1709851
370
    18
100
AcDbVertex
100
AcDb2dVertex
 10
41.89942354638278
 20
-170.5012206604997
 30
0.0
  0
SEQEND
  5
56C
330
569
100
AcDbEntity
  8
Ebene 1
370
    18
  0
POLYLINE
  5
56D
330
30F
100
AcDbEntity
  8
Ebene 1
 62
   179
420
  1709851
370
    18
100
AcDb2dPolyline
 66
     1
 10
0.0
 20
0.0
 30
0.0
  0
VERTEX
  5
56E
330
56D
100
AcDbEntity
  8
Ebene 1
 62
   179
420
  1709851
370
    18
100
AcDbVertex
100
AcDb2dVertex
 10
38.99951442167374
 20
-170.5012206604997
 30
0.0
  0
VERTEX
  5
56F
330
56D
100
AcDbEntity
  8
Ebene 1
 62
   179
420
  1709851
370
    18
100
AcDbVertex
100
AcDb2dVertex
 10
39.19002820200805
 20
-170.6920789503826
 30
0.0
  0
SEQEND
  5
570
330
56D
100
AcDbEntity
  8
Ebene 1
370
    18
  0
POLYLINE
  5
571
330
30F
100
AcDbEntity
  8
Ebene 1
 62
   179
420
  1709851
370
    18
100
AcDb2dPolyline
 66
     1
 10
0.0
 20
0.0
 30
0.0
  0
VERTEX
  5
572
330
571
100
AcDbEntity
  8
Ebene 1
 62
   179
420
  1709851
370
    18
100
AcDbVertex
100
AcDb2dVertex
 10
38.44933267267933
 20
-170.4378309035711
 30
0.0
  0
VERTEX
  5
573
330
571
100
AcDbEntity
  8
Ebene 1
 62
   179
420
  1709851
370
    18
100
AcDbVertex
100
AcDb2dVertex
 10
38.85137531580799
 20
-170.4378309035711
 30
0.0
  0
SEQEND
  5
574
330
571
100
AcDbEntity
  8
Ebene 1
370
    18
  0
POLYLINE
  5
575
330
30F
100
AcDbEntity
  8
Ebene 1
 62
   179
420
  1709851
370
    18
100
AcDb2dPolyline
 66
     1
 10
0.0
 20
0.0
 30
0.0
  0
VERTEX
  5
576
330
575
100
AcDbEntity
  8
Ebene 1
 62
   179
420
  1709851
370
    18
100
AcDbVertex
100
AcDb2dVertex
 10
175.3340006072082
 20
-162.9233886311441
 30
0.0
  0
VERTEX
  5
577
330
575
100
AcDbEntity
  8
Ebene 1
 62
   179
420
  1709851
370
    18
100
AcDbVertex
100
AcDb2dVertex
 10
180.3510931623775
 20
-146.9214368664815
 30
0.0
  0
VERTEX
  5
578
330
575
100
AcDbEntity
  8
Ebene 1
 62
   179
420
  1709851
370
    18
100
AcDbVertex
100
AcDb2dVertex
 10
185.3457925968927
 20
-162.9233886311441
 30
0.0
  0
VERTEX
  5
579
330
575
100
AcDbEntity
  8
Ebene 1
 62
   179
420
  1709851
370
    18
100
AcDbVertex
100
AcDb2dVertex
 10
188.3516384077732
 20
-153.3136392845883
 30
0.0
  0
SEQEND
  5
57A
330
575
100
AcDbEntity
  8
Ebene 1
370
    18
  0
POLYLINE
  5
57B
330
30F
100
AcDbEntity
  8
Ebene 1
 62
   179
420
  1709851
370
    18
100
AcDb2dPolyline
 66
     1
 10
0.0
 20
0.0
 30
0.0
  0
VERTEX
  5
57C
330
57B
100
AcDbEntity
  8
Ebene 1
 62
   179
420
  1709851
370
    18
100
AcDbVertex
100
AcDb2dVertex
 10
55.36147866454505
 20
-162.9233886311441
 30
0.0
  0
VERTEX
  5
57D
330
57B
100
AcDbEntity
  8
Ebene 1
 62
   179
420
  1709851
370
    18
100
AcDbVertex
100
AcDb2dVertex
 10
60.35669486338305
 20
-146.9214368664815
 30
0.0
  0
VERTEX
  5
57E
330
57B
100
AcDbEntity
  8
Ebene 1
 62
   179
420
  1709851
370
    18
100
AcDbVertex
100
AcDb2dVertex
 10
65.35208331699532
 20
-162.9233886311441
 30
0.0
  0
VERTEX
  5
57F
330
57B
100
AcDbEntity
  8
Ebene 1
 62
   179
420
  1709851
370
    18
100
AcDbVertex
100
AcDb2dVertex
 10
70.34747177060758
 20
-146.9214368664815
 30
0.0
  0
VERTEX
  5
580
330
57B
100
AcDbEntity
  8
Ebene 1
 62
   179
420
  1709851
370
    18
100
AcDbVertex
100
AcDb2dVertex
 10
75.34268796944558
 20
-162.9233886311441
 30
0.0
  0
VERTEX
  5
581
330
57B
100
AcDbEntity
  8
Ebene 1
 62
   179
420
  1709851
370
    18
100
AcDbVertex
100
AcDb2dVertex
 10
80.35926376029214
 20
-146.9214368664815
 30
0.0
  0
VERTEX
  5
582
330
57B
100
AcDbEntity
  8
Ebene 1
 62
   179
420
  1709851
370
    18
100
AcDbVertex
100
AcDb2dVertex
 10
85.3546522139044
 20
-162.9233886311441
 30
0.0
  0
VERTEX
  5
583
330
57B
100
AcDbEntity
  8
Ebene 1
 62
   179
420
  1709851
370
    18
100
AcDbVertex
100
AcDb2dVertex
 10
90.3498684127424
 20
-146.9214368664815
 30
0.0
  0
VERTEX
  5
584
330
57B
100
AcDbEntity
  8
Ebene 1
 62
   179
420
  1709851
370
    18
100
AcDbVertex
100
AcDb2dVertex
 10
95.34525686635466
 20
-162.9233886311441
 30
0.0
  0
VERTEX
  5
585
330
57B
100
AcDbEntity
  8
Ebene 1
 62
   179
420
  1709851
370
    18
100
AcDbVertex
100
AcDb2dVertex
 10
100.3406453199669
 20
-146.9214368664815
 30
0.0
  0
VERTEX
  5
586
330
57B
100
AcDbEntity
  8
Ebene 1
 62
   179
420
  1709851
370
    18
100
AcDbVertex
100
AcDb2dVertex
 10
105.3570488560392
 20
-162.9233886311441
 30
0.0
  0
VERTEX
  5
587
330
57B
100
AcDbEntity
  8
Ebene 1
 62
   179
420
  1709851
370
    18
100
AcDbVertex
100
AcDb2dVertex
 10
110.3526095644257
 20
-146.9214368664815
 30
0.0
  0
VERTEX
  5
588
330
57B
100
AcDbEntity
  8
Ebene 1
 62
   179
420
  1709851
370
    18
100
AcDbVertex
100
AcDb2dVertex
 10
115.347998018038
 20
-162.9233886311441
 30
0.0
  0
VERTEX
  5
589
330
57B
100
AcDbEntity
  8
Ebene 1
 62
   179
420
  1709851
370
    18
100
AcDbVertex
100
AcDb2dVertex
 10
120.3430419621018
 20
-146.9214368664815
 30
0.0
  0
VERTEX
  5
58A
330
57B
100
AcDbEntity
  8
Ebene 1
 62
   179
420
  1709851
370
    18
100
AcDbVertex
100
AcDb2dVertex
 10
125.338430415714
 20
-162.9233886311441
 30
0.0
  0
VERTEX
  5
58B
330
57B
100
AcDbEntity
  8
Ebene 1
 62
   179
420
  1709851
370
    18
100
AcDbVertex
100
AcDb2dVertex
 10
130.3548339517863
 20
-146.9214368664815
 30
0.0
  0
VERTEX
  5
58C
330
57B
100
AcDbEntity
  8
Ebene 1
 62
   179
420
  1709851
370
    18
100
AcDbVertex
100
AcDb2dVertex
 10
135.3502224053986
 20
-162.9233886311441
 30
0.0
  0
VERTEX
  5
58D
330
57B
100
AcDbEntity
  8
Ebene 1
 62
   179
420
  1709851
370
    18
100
AcDbVertex
100
AcDb2dVertex
 10
140.3456108590108
 20
-146.9214368664815
 30
0.0
  0
VERTEX
  5
58E
330
57B
100
AcDbEntity
  8
Ebene 1
 62
   179
420
  1709851
370
    18
100
AcDbVertex
100
AcDb2dVertex
 10
145.3409993126231
 20
-162.9233886311441
 30
0.0
  0
VERTEX
  5
58F
330
57B
100
AcDbEntity
  8
Ebene 1
 62
   179
420
  1709851
370
    18
100
AcDbVertex
100
AcDb2dVertex
 10
150.3363877662354
 20
-146.9214368664815
 30
0.0
  0
VERTEX
  5
590
330
57B
100
AcDbEntity
  8
Ebene 1
 62
   179
420
  1709851
370
    18
100
AcDbVertex
100
AcDb2dVertex
 10
155.3527913023077
 20
-162.9233886311441
 30
0.0
  0
SEQEND
  5
591
330
57B
100
AcDbEntity
  8
Ebene 1
370
    18
  0
POLYLINE
  5
592
330
30F
100
AcDbEntity
  8
Ebene 1
 62
   179
420
  1709851
370
    18
100
AcDb2dPolyline
 66
     1
 10
0.0
 20
0.0
 30
0.0
  0
VERTEX
  5
593
330
592
100
AcDbEntity
  8
Ebene 1
 62
   179
420
  1709851
370
    18
100
AcDbVertex
100
AcDb2dVertex
 10
20.35172932433915
 20
-146.9214368664815
 30
0.0
  0
VERTEX
  5
594
330
592
100
AcDbEntity
  8
Ebene 1
 62
   179
420
  1709851
370
    18
100
AcDbVertex
100
AcDb2dVertex
 10
25.34711777795142
 20
-162.9233886311441
 30
0.0
  0
VERTEX
  5
595
330
592
100
AcDbEntity
  8
Ebene 1
 62
   179
420
  1709851
370
    18
100
AcDbVertex
100
AcDb2dVertex
 10
30.3635213140237
 20
-146.9214368664815
 30
0.0
  0
VERTEX
  5
596
330
592
100
AcDbEntity
  8
Ebene 1
 62
   179
420
  1709851
370
    18
100
AcDbVertex
100
AcDb2dVertex
 10
35.35890976763597
 20
-162.9233886311441
 30
0.0
  0
SEQEND
  5
597
330
592
100
AcDbEntity
  8
Ebene 1
370
    18
  0
POLYLINE
  5
598
330
30F
100
AcDbEntity
  8
Ebene 1
 62
   179
420
  1709851
370
    18
100
AcDb2dPolyline
 66
     1
 10
0.0
 20
0.0
 30
0.0
  0
VERTEX
  5
599
330
598
100
AcDbEntity
  8
Ebene 1
 62
   179
420
  1709851
370
    18
100
AcDbVertex
100
AcDb2dVertex
 10
164.6449028451235
 20
-160.4470539963466
 30
0.0
  0
VERTEX
  5
59A
330
598
100
AcDbEntity
  8
Ebene 1
 62
   179
420
  1709851
370
    18
100
AcDbVertex
100
AcDb2dVertex
 10
164.2428602019949
 20
-160.4470539963466
 30
0.0
  0
SEQEND
  5
59B
330
598
100
AcDbEntity
  8
Ebene 1
370
    18
  0
POLYLINE
  5
59C
330
30F
100
AcDbEntity
  8
Ebene 1
 62
   179
420
  1709851
370
    18
100
AcDb2dPolyline
 66
     1
 10
0.0
 20
0.0
 30
0.0
  0
VERTEX
  5
59D
330
59C
100
AcDbEntity
  8
Ebene 1
 62
   179
420
  1709851
370
    18
100
AcDbVertex
100
AcDb2dVertex
 10
164.2428602019949
 20
-160.4470539963466
 30
0.0
  0
VERTEX
  5
59E
330
59C
100
AcDbEntity
  8
Ebene 1
 62
   179
420
  1709851
370
    18
100
AcDbVertex
100
AcDb2dVertex
 10
164.2428602019949
 20
-170.0354437508939
 30
0.0
  0
SEQEND
  5
59F
330
59C
100
AcDbEntity
  8
Ebene 1
370
    18
  0
POLYLINE
  5
5A0
330
30F
100
AcDbEntity
  8
Ebene 1
 62
   179
420
  1709851
370
    18
100
AcDb2dPolyline
 66
     1
 10
0.0
 20
0.0
 30
0.0
  0
VERTEX
  5
5A1
330
5A0
100
AcDbEntity
  8
Ebene 1
 62
   179
420
  1709851
370
    18
100
AcDbVertex
100
AcDb2dVertex
 10
164.2428602019949
 20
-170.0354437508939
 30
0.0
  0
VERTEX
  5
5A2
330
5A0
100
AcDbEntity
  8
Ebene 1
 62
   179
420
  1709851
370
    18
100
AcDbVertex
100
AcDb2dVertex
 10
157.4484428859851
 20
-170.0354437508939
 30
0.0
  0
SEQEND
  5
5A3
330
5A0
100
AcDbEntity
  8
Ebene 1
370
    18
  0
POLYLINE
  5
5A4
330
30F
100
AcDbEntity
  8
Ebene 1
 62
   179
420
  1709851
370
    18
100
AcDb2dPolyline
 66
     1
 10
0.0
 20
0.0
 30
0.0
  0
VERTEX
  5
5A5
330
5A4
100
AcDbEntity
  8
Ebene 1
 62
   179
420
  1709851
370
    18
100
AcDbVertex
100
AcDb2dVertex
 10
157.4484428859851
 20
-170.0354437508939
 30
0.0
  0
VERTEX
  5
5A6
330
5A4
100
AcDbEntity
  8
Ebene 1
 62
   179
420
  1709851
370
    18
100
AcDbVertex
100
AcDb2dVertex
 10
157.4484428859851
 20
-170.4378309035711
 30
0.0
  0
SEQEND
  5
5A7
330
5A4
100
AcDbEntity
  8
Ebene 1
370
    18
  0
POLYLINE
  5
5A8
330
30F
100
AcDbEntity
  8
Ebene 1
 62
   179
420
  1709851
370
    18
100
AcDb2dPolyline
 66
     1
 10
0.0
 20
0.0
 30
0.0
  0
VERTEX
  5
5A9
330
5A8
100
AcDbEntity
  8
Ebene 1
 62
   179
420
  1709851
370
    18
100
AcDbVertex
100
AcDb2dVertex
 10
157.4484428859851
 20
-170.4378309035711
 30
0.0
  0
VERTEX
  5
5AA
330
5A8
100
AcDbEntity
  8
Ebene 1
 62
   179
420
  1709851
370
    18
100
AcDbVertex
100
AcDb2dVertex
 10
171.4393201611332
 20
-170.4378309035711
 30
0.0
  0
SEQEND
  5
5AB
330
5A8
100
AcDbEntity
  8
Ebene 1
370
    18
  0
POLYLINE
  5
5AC
330
30F
100
AcDbEntity
  8
Ebene 1
 62
   179
420
  1709851
370
    18
100
AcDb2dPolyline
 66
     1
 10
0.0
 20
0.0
 30
0.0
  0
VERTEX
  5
5AD
330
5AC
100
AcDbEntity
  8
Ebene 1
 62
   179
420
  1709851
370
    18
100
AcDbVertex
100
AcDb2dVertex
 10
171.4393201611332
 20
-170.4378309035711
 30
0.0
  0
VERTEX
  5
5AE
330
5AC
100
AcDbEntity
  8
Ebene 1
 62
   179
420
  1709851
370
    18
100
AcDbVertex
100
AcDb2dVertex
 10
171.4393201611332
 20
-170.0354437508939
 30
0.0
  0
SEQEND
  5
5AF
330
5AC
100
AcDbEntity
  8
Ebene 1
370
    18
  0
POLYLINE
  5
5B0
330
30F
100
AcDbEntity
  8
Ebene 1
 62
   179
420
  1709851
370
    18
100
AcDb2dPolyline
 66
     1
 10
0.0
 20
0.0
 30
0.0
  0
VERTEX
  5
5B1
330
5B0
100
AcDbEntity
  8
Ebene 1
 62
   179
420
  1709851
370
    18
100
AcDbVertex
100
AcDb2dVertex
 10
171.4393201611332
 20
-170.0354437508939
 30
0.0
  0
VERTEX
  5
5B2
330
5B0
100
AcDbEntity
  8
Ebene 1
 62
   179
420
  1709851
370
    18
100
AcDbVertex
100
AcDb2dVertex
 10
164.6449028451235
 20
-170.0354437508939
 30
0.0
  0
SEQEND
  5
5B3
330
5B0
100
AcDbEntity
  8
Ebene 1
370
    18
  0
POLYLINE
  5
5B4
330
30F
100
AcDbEntity
  8
Ebene 1
 62
   179
420
  1709851
370
    18
100
AcDb2dPolyline
 66
     1
 10
0.0
 20
0.0
 30
0.0
  0
VERTEX
  5
5B5
330
5B4
100
AcDbEntity
  8
Ebene 1
 62
   179
420
  1709851
370
    18
100
AcDbVertex
100
AcDb2dVertex
 10
157.1308050822451
 20
-147.9163804426216
 30
0.0
  0
VERTEX
  5
5B6
330
5B4
100
AcDbEntity
  8
Ebene 1
 62
   179
420
  1709851
370
    18
100
AcDbVertex
100
AcDb2dVertex
 10
165.1316948371893
 20
-147.9163804426216
 30
0.0
  0
VERTEX
  5
5B7
330
5B4
100
AcDbEntity
  8
Ebene 1
 62
   179
420
  1709851
370
    18
100
AcDbVertex
100
AcDb2dVertex
 10
165.1316948371893
 20
-146.9214368664815
 30
0.0
  0
SEQEND
  5
5B8
330
5B4
100
AcDbEntity
  8
Ebene 1
370
    18
  0
POLYLINE
  5
5B9
330
30F
100
AcDbEntity
  8
Ebene 1
 62
   179
420
  1709851
370
    18
100
AcDb2dPolyline
 66
     1
 10
0.0
 20
0.0
 30
0.0
  0
VERTEX
  5
5BA
330
5B9
100
AcDbEntity
  8
Ebene 1
 62
   179
420
  1709851
370
    18
100
AcDbVertex
100
AcDb2dVertex
 10
157.1308050822451
 20
-147.9163804426216
 30
0.0
  0
VERTEX
  5
5BB
330
5B9
100
AcDbEntity
  8
Ebene 1
 62
   179
420
  1709851
370
    18
100
AcDbVertex
100
AcDb2dVertex
 10
157.1308050822451
 20
-146.9214368664815
 30
0.0
  0
SEQEND
  5
5BC
330
5B9
100
AcDbEntity
  8
Ebene 1
370
    18
  0
POLYLINE
  5
5BD
330
30F
100
AcDbEntity
  8
Ebene 1
 62
   179
420
  1709851
370
    18
100
AcDb2dPolyline
 66
     1
 10
0.0
 20
0.0
 30
0.0
  0
VERTEX
  5
5BE
330
5BD
100
AcDbEntity
  8
Ebene 1
 62
   179
420
  1709851
370
    18
100
AcDbVertex
100
AcDb2dVertex
 10
157.1308050822451
 20
-147.9163804426216
 30
0.0
  0
VERTEX
  5
5BF
330
5BD
100
AcDbEntity
  8
Ebene 1
 62
   179
420
  1709851
370
    18
100
AcDbVertex
100
AcDb2dVertex
 10
157.1308050822451
 20
-148.5302964580931
 30
0.0
  0
SEQEND
  5
5C0
330
5BD
100
AcDbEntity
  8
Ebene 1
370
    18
  0
POLYLINE
  5
5C1
330
30F
100
AcDbEntity
  8
Ebene 1
 62
   179
420
  1709851
370
    18
100
AcDb2dPolyline
 66
     1
 10
0.0
 20
0.0
 30
0.0
  0
VERTEX
  5
5C2
330
5C1
100
AcDbEntity
  8
Ebene 1
 62
   179
420
  1709851
370
    18
100
AcDbVertex
100
AcDb2dVertex
 10
157.1308050822451
 20
-148.5302964580931
 30
0.0
  0
VERTEX
  5
5C3
330
5C1
100
AcDbEntity
  8
Ebene 1
 62
   179
420
  1709851
370
    18
100
AcDbVertex
100
AcDb2dVertex
 10
164.6449028451235
 20
-148.5302964580931
 30
0.0
  0
SEQEND
  5
5C4
330
5C1
100
AcDbEntity
  8
Ebene 1
370
    18
  0
POLYLINE
  5
5C5
330
30F
100
AcDbEntity
  8
Ebene 1
 62
   179
420
  1709851
370
    18
100
AcDb2dPolyline
 66
     1
 10
0.0
 20
0.0
 30
0.0
  0
VERTEX
  5
5C6
330
5C5
100
AcDbEntity
  8
Ebene 1
 62
   179
420
  1709851
370
    18
100
AcDbVertex
100
AcDb2dVertex
 10
164.6449028451235
 20
-148.5302964580931
 30
0.0
  0
VERTEX
  5
5C7
330
5C5
100
AcDbEntity
  8
Ebene 1
 62
   179
420
  1709851
370
    18
100
AcDbVertex
100
AcDb2dVertex
 10
164.6449028451235
 20
-165.9295789515732
 30
0.0
  0
SEQEND
  5
5C8
330
5C5
100
AcDbEntity
  8
Ebene 1
370
    18
  0
POLYLINE
  5
5C9
330
30F
100
AcDbEntity
  8
Ebene 1
 62
   179
420
  1709851
370
    18
100
AcDb2dPolyline
 66
     1
 10
0.0
 20
0.0
 30
0.0
  0
VERTEX
  5
5CA
330
5C9
100
AcDbEntity
  8
Ebene 1
 62
   179
420
  1709851
370
    18
100
AcDbVertex
100
AcDb2dVertex
 10
164.6449028451235
 20
-165.9295789515732
 30
0.0
  0
VERTEX
  5
5CB
330
5C9
100
AcDbEntity
  8
Ebene 1
 62
   179
420
  1709851
370
    18
100
AcDbVertex
100
AcDb2dVertex
 10
165.1316948371893
 20
-165.9295789515732
 30
0.0
  0
SEQEND
  5
5CC
330
5C9
100
AcDbEntity
  8
Ebene 1
370
    18
  0
POLYLINE
  5
5CD
330
30F
100
AcDbEntity
  8
Ebene 1
 62
   179
420
  1709851
370
    18
100
AcDb2dPolyline
 66
     1
 10
0.0
 20
0.0
 30
0.0
  0
VERTEX
  5
5CE
330
5CD
100
AcDbEntity
  8
Ebene 1
 62
   179
420
  1709851
370
    18
100
AcDbVertex
100
AcDb2dVertex
 10
165.1316948371893
 20
-165.9295789515732
 30
0.0
  0
VERTEX
  5
5CF
330
5CD
100
AcDbEntity
  8
Ebene 1
 62
   179
420
  1709851
370
    18
100
AcDbVertex
100
AcDb2dVertex
 10
165.1316948371893
 20
-147.9163804426216
 30
0.0
  0
SEQEND
  5
5D0
330
5CD
100
AcDbEntity
  8
Ebene 1
370
    18
  0
POLYLINE
  5
5D1
330
30F
100
AcDbEntity
  8
Ebene 1
 62
   179
420
  1709851
370
    18
100
AcDb2dPolyline
 66
     1
 10
0.0
 20
0.0
 30
0.0
  0
VERTEX
  5
5D2
330
5D1
100
AcDbEntity
  8
Ebene 1
 62
   179
420
  1709851
370
    18
100
AcDbVertex
100
AcDb2dVertex
 10
166.1476534957895
 20
-163.3257757838213
 30
0.0
  0
VERTEX
  5
5D3
330
5D1
100
AcDbEntity
  8
Ebene 1
 62
   179
420
  1709851
370
    18
100
AcDbVertex
100
AcDb2dVertex
 10
163.2479166258547
 20
-163.3257757838213
 30
0.0
  0
SEQEND
  5
5D4
330
5D1
100
AcDbEntity
  8
Ebene 1
370
    18
  0
POLYLINE
  5
5D5
330
30F
100
AcDbEntity
  8
Ebene 1
 62
   179
420
  1709851
370
    18
100
AcDb2dPolyline
 66
     1
 10
0.0
 20
0.0
 30
0.0
  0
VERTEX
  5
5D6
330
5D5
100
AcDbEntity
  8
Ebene 1
 62
   179
420
  1709851
370
    18
100
AcDbVertex
100
AcDb2dVertex
 10
162.845873982726
 20
-171.3266655387656
 30
0.0
  0
VERTEX
  5
5D7
330
5D5
100
AcDbEntity
  8
Ebene 1
 62
   179
420
  1709851
370
    18
100
AcDbVertex
100
AcDb2dVertex
 10
162.845873982726
 20
-169.0405001747538
 30
0.0
  0
SEQEND
  5
5D8
330
5D5
100
AcDbEntity
  8
Ebene 1
370
    18
  0
POLYLINE
  5
5D9
330
30F
100
AcDbEntity
  8
Ebene 1
 62
   179
420
  1709851
370
    18
100
AcDb2dPolyline
 66
     1
 10
0.0
 20
0.0
 30
0.0
  0
VERTEX
  5
5DA
330
5D9
100
AcDbEntity
  8
Ebene 1
 62
   179
420
  1709851
370
    18
100
AcDbVertex
100
AcDb2dVertex
 10
166.0418890643923
 20
-169.0405001747538
 30
0.0
  0
VERTEX
  5
5DB
330
5D9
100
AcDbEntity
  8
Ebene 1
 62
   179
420
  1709851
370
    18
100
AcDbVertex
100
AcDb2dVertex
 10
166.0418890643923
 20
-171.3266655387656
 30
0.0
  0
SEQEND
  5
5DC
330
5D9
100
AcDbEntity
  8
Ebene 1
370
    18
  0
POLYLINE
  5
5DD
330
30F
100
AcDbEntity
  8
Ebene 1
370
     0
100
AcDb2dPolyline
 66
     1
 10
0.0
 20
0.0
 30
0.0
  0
VERTEX
  5
5DE
330
5DD
100
AcDbEntity
  8
Ebene 1
370
     0
100
AcDbVertex
100
AcDb2dVertex
 10
20.10833332830625
 20
-209.5114148781777
 30
0.0
  0
VERTEX
  5
5DF
330
5DD
100
AcDbEntity
  8
Ebene 1
370
     0
100
AcDbVertex
100
AcDb2dVertex
 10
188.5948621490319
 20
-209.5114148781777
 30
0.0
  0
VERTEX
  5
5E0
330
5DD
100
AcDbEntity
  8
Ebene 1
370
     0
100
AcDbVertex
100
AcDb2dVertex
 10
188.5948621490319
 20
-82.8498955413535
 30
0.0
  0
VERTEX
  5
5E1
330
5DD
100
AcDbEntity
  8
Ebene 1
370
     0
100
AcDbVertex
100
AcDb2dVertex
 10
20.10833332830625
 20
-82.8498955413535
 30
0.0
  0
VERTEX
  5
5E2
330
5DD
100
AcDbEntity
  8
Ebene 1
370
     0
100
AcDbVertex
100
AcDb2dVertex
 10
20.10833332830625
 20
-209.5114148781777
 30
0.0
  0
SEQEND
  5
5E3
330
5DD
100
AcDbEntity
  8
Ebene 1
370
     0
  0
ENDBLK
  5
312
330
30F
100
AcDbEntity
  8
0
100
AcDbBlockEnd
  0
ENDSEC
  0
SECTION
  2
ENTITIES
  0
INSERT
  5
3D
330
1F
100
AcDbEntity
  8
Ebene 1
100
AcDbBlockReference
  2
block 2
 10
0.0
 20
0.0
 30
0.0
  0
POLYLINE
  5
C7
330
1F
100
AcDbEntity
  8
Ebene 1
370
     0
100
AcDb2dPolyline
 66
     1
 10
0.0
 20
0.0
 30
0.0
  0
VERTEX
  5
C8
330
C7
100
AcDbEntity
  8
Ebene 1
370
     0
100
AcDbVertex
100
AcDb2dVertex
 10
44.65119356522609
 20
-160.4470539963466
 30
0.0
  0
VERTEX
  5
C9
330
C7
100
AcDbEntity
  8
Ebene 1
370
     0
100
AcDbVertex
100
AcDb2dVertex
 10
44.24897866732317
 20
-170.036132769991
 30
0.0
  0
VERTEX
  5
CA
330
C7
100
AcDbEntity
  8
Ebene 1
370
     0
100
AcDbVertex
100
AcDb2dVertex
 10
44.24897866732317
 20
-160.4470539963466
 30
0.0
  0
VERTEX
  5
CB
330
C7
100
AcDbEntity
  8
Ebene 1
370
     0
100
AcDbVertex
100
AcDb2dVertex
 10
44.65119356522609
 20
-160.4470539963466
 30
0.0
  0
SEQEND
  5
CC
330
C7
100
AcDbEntity
  8
Ebene 1
370
     0
  0
HATCH
  5
CD
330
1F
100
AcDbEntity
  8
Ebene 1
 62
   179
420
  1709851
100
AcDbHatch
 10
0.0
 20
0.0
 30
0.0
210
0.0
220
0.0
230
1.0
  2
SOLID
 70
     1
 71
     0
 91
        1
 92
        1
 93
        3
 72
     1
 10
44.65119356522609
 20
-160.4470539963466
 11
44.24897866732317
 21
-170.036132769991
 72
     1
 10
44.24897866732317
 20
-170.036132769991
 11
44.24897866732317
 21
-160.4470539963466
 72
     1
 10
44.24897866732317
 20
-160.4470539963466
 11
44.65119356522609
 21
-160.4470539963466
 97
        0
 75
     2
 76
     1
 98
        0
  0
POLYLINE
  5
CE
330
1F
100
AcDbEntity
  8
Ebene 1
370
     0
100
AcDb2dPolyline
 66
     1
 10
0.0
 20
0.0
 30
0.0
  0
VERTEX
  5
CF
330
CE
100
AcDbEntity
  8
Ebene 1
370
     0
100
AcDbVertex
100
AcDb2dVertex
 10
44.24897866732317
 20
-170.0354437508939
 30
0.0
  0
VERTEX
  5
D0
330
CE
100
AcDbEntity
  8
Ebene 1
370
     0
100
AcDbVertex
100
AcDb2dVertex
 10
37.45456135131344
 20
-170.4378309035711
 30
0.0
  0
VERTEX
  5
D1
330
CE
100
AcDbEntity
  8
Ebene 1
370
     0
100
AcDbVertex
100
AcDb2dVertex
 10
37.45456135131344
 20
-170.0354437508939
 30
0.0
  0
VERTEX
  5
D2
330
CE
100
AcDbEntity
  8
Ebene 1
370
     0
100
AcDbVertex
100
AcDb2dVertex
 10
44.24897866732317
 20
-170.0354437508939
 30
0.0
  0
SEQEND
  5
D3
330
CE
100
AcDbEntity
  8
Ebene 1
370
     0
  0
HATCH
  5
D4
330
1F
100
AcDbEntity
  8
Ebene 1
 62
   179
420
  1709851
100
AcDbHatch
 10
0.0
 20
0.0
 30
0.0
210
0.0
220
0.0
230
1.0
  2
SOLID
 70
     1
 71
     0
 91
        1
 92
        1
 93
        3
 72
     1
 10
44.24897866732317
 20
-170.0354437508939
 11
37.45456135131344
 21
-170.4378309035711
 72
     1
 10
37.45456135131344
 20
-170.4378309035711
 11
37.45456135131344
 21
-170.0354437508939
 72
     1
 10
37.45456135131344
 20
-170.0354437508939
 11
44.24897866732317
 21
-170.0354437508939
 97
        0
 75
     2
 76
     1
 98
        0
  0
POLYLINE
  5
D5
330
1F
100
AcDbEntity
  8
Ebene 1
370
     0
100
AcDb2dPolyline
 66
     1
 10
0.0
 20
0.0
 30
0.0
  0
VERTEX
  5
D6
330
D5
100
AcDbEntity
  8
Ebene 1
370
     0
100
AcDbVertex
100
AcDb2dVertex
 10
37.45438909653918
 20
-170.4378309035711
 30
0.0
  0
VERTEX
  5
D7
330
D5
100
AcDbEntity
  8
Ebene 1
370
     0
100
AcDbVertex
100
AcDb2dVertex
 10
44.24897866732317
 20
-170.0354437508939
 30
0.0
  0
VERTEX
  5
D8
330
D5
100
AcDbEntity
  8
Ebene 1
370
     0
100
AcDbVertex
100
AcDb2dVertex
 10
51.44561088123582
 20
-170.4378309035711
 30
0.0
  0
VERTEX
  5
D9
330
D5
100
AcDbEntity
  8
Ebene 1
370
     0
100
AcDbVertex
100
AcDb2dVertex
 10
37.45438909653918
 20
-170.4378309035711
 30
0.0
  0
SEQEND
  5
DA
330
D5
100
AcDbEntity
  8
Ebene 1
370
     0
  0
HATCH
  5
DB
330
1F
100
AcDbEntity
  8
Ebene 1
 62
   179
420
  1709851
100
AcDbHatch
 10
0.0
 20
0.0
 30
0.0
210
0.0
220
0.0
230
1.0
  2
SOLID
 70
     1
 71
     0
 91
        1
 92
        1
 93
        3
 72
     1
 10
37.45438909653918
 20
-170.4378309035711
 11
44.24897866732317
 21
-170.0354437508939
 72
     1
 10
44.24897866732317
 20
-170.0354437508939
 11
51.44561088123582
 21
-170.4378309035711
 72
     1
 10
51.44561088123582
 20
-170.4378309035711
 11
37.45438909653918
 21
-170.4378309035711
 97
        0
 75
     2
 76
     1
 98
        0
  0
POLYLINE
  5
DC
330
1F
100
AcDbEntity
  8
Ebene 1
370
     0
100
AcDb2dPolyline
 66
     1
 10
0.0
 20
0.0
 30
0.0
  0
VERTEX
  5
DD
330
DC
100
AcDbEntity
  8
Ebene 1
370
     0
100
AcDbVertex
100
AcDb2dVertex
 10
51.44561088123582
 20
-170.4378309035711
 30
0.0
  0
VERTEX
  5
DE
330
DC
100
AcDbEntity
  8
Ebene 1
370
     0
100
AcDbVertex
100
AcDb2dVertex
 10
44.24897866732317
 20
-170.0354437508939
 30
0.0
  0
VERTEX
  5
DF
330
DC
100
AcDbEntity
  8
Ebene 1
370
     0
100
AcDbVertex
100
AcDb2dVertex
 10
44.65119356522609
 20
-170.0354437508939
 30
0.0
  0
VERTEX
  5
E0
330
DC
100
AcDbEntity
  8
Ebene 1
370
     0
100
AcDbVertex
100
AcDb2dVertex
 10
51.44561088123582
 20
-170.4378309035711
 30
0.0
  0
SEQEND
  5
E1
330
DC
100
AcDbEntity
  8
Ebene 1
370
     0
  0
HATCH
  5
E2
330
1F
100
AcDbEntity
  8
Ebene 1
 62
   179
420
  1709851
100
AcDbHatch
 10
0.0
 20
0.0
 30
0.0
210
0.0
220
0.0
230
1.0
  2
SOLID
 70
     1
 71
     0
 91
        1
 92
        1
 93
        3
 72
     1
 10
51.44561088123582
 20
-170.4378309035711
 11
44.24897866732317
 21
-170.0354437508939
 72
     1
 10
44.24897866732317
 20
-170.0354437508939
 11
44.65119356522609
 21
-170.0354437508939
 72
     1
 10
44.65119356522609
 20
-170.0354437508939
 11
51.44561088123582
 21
-170.4378309035711
 97
        0
 75
     2
 76
     1
 98
        0
  0
POLYLINE
  5
E3
330
1F
100
AcDbEntity
  8
Ebene 1
370
     0
100
AcDb2dPolyline
 66
     1
 10
0.0
 20
0.0
 30
0.0
  0
VERTEX
  5
E4
330
E3
100
AcDbEntity
  8
Ebene 1
370
     0
100
AcDbVertex
100
AcDb2dVertex
 10
44.65119356522609
 20
-170.0354437508939
 30
0.0
  0
VERTEX
  5
E5
330
E3
100
AcDbEntity
  8
Ebene 1
370
     0
100
AcDbVertex
100
AcDb2dVertex
 10
44.24897866732317
 20
-170.0354437508939
 30
0.0
  0
VERTEX
  5
E6
330
E3
100
AcDbEntity
  8
Ebene 1
370
     0
100
AcDbVertex
100
AcDb2dVertex
 10
44.65119356522609
 20
-160.4470539963466
 30
0.0
  0
VERTEX
  5
E7
330
E3
100
AcDbEntity
  8
Ebene 1
370
     0
100
AcDbVertex
100
AcDb2dVertex
 10
44.65119356522609
 20
-170.0354437508939
 30
0.0
  0
SEQEND
  5
E8
330
E3
100
AcDbEntity
  8
Ebene 1
370
     0
  0
HATCH
  5
E9
330
1F
100
AcDbEntity
  8
Ebene 1
 62
   179
420
  1709851
100
AcDbHatch
 10
0.0
 20
0.0
 30
0.0
210
0.0
220
0.0
230
1.0
  2
SOLID
 70
     1
 71
     0
 91
        1
 92
        1
 93
        3
 72
     1
 10
44.65119356522609
 20
-170.0354437508939
 11
44.24897866732317
 21
-170.0354437508939
 72
     1
 10
44.24897866732317
 20
-170.0354437508939
 11
44.65119356522609
 21
-160.4470539963466
 72
     1
 10
44.65119356522609
 20
-160.4470539963466
 11
44.65119356522609
 21
-170.0354437508939
 97
        0
 75
     2
 76
     1
 98
        0
  0
POLYLINE
  5
EA
330
1F
100
AcDbEntity
  8
Ebene 1
370
     0
100
AcDb2dPolyline
 66
     1
 10
0.0
 20
0.0
 30
0.0
  0
VERTEX
  5
EB
330
EA
100
AcDbEntity
  8
Ebene 1
370
     0
100
AcDbVertex
100
AcDb2dVertex
 10
51.44561088123582
 20
-170.4378309035711
 30
0.0
  0
VERTEX
  5
EC
330
EA
100
AcDbEntity
  8
Ebene 1
370
     0
100
AcDbVertex
100
AcDb2dVertex
 10
44.65119356522609
 20
-170.0354437508939
 30
0.0
  0
VERTEX
  5
ED
330
EA
100
AcDbEntity
  8
Ebene 1
370
     0
100
AcDbVertex
100
AcDb2dVertex
 10
51.44561088123582
 20
-170.0354437508939
 30
0.0
  0
VERTEX
  5
EE
330
EA
100
AcDbEntity
  8
Ebene 1
370
     0
100
AcDbVertex
100
AcDb2dVertex
 10
51.44561088123582
 20
-170.4378309035711
 30
0.0
  0
SEQEND
  5
EF
330
EA
100
AcDbEntity
  8
Ebene 1
370
     0
  0
HATCH
  5
F0
330
1F
100
AcDbEntity
  8
Ebene 1
 62
   179
420
  1709851
100
AcDbHatch
 10
0.0
 20
0.0
 30
0.0
210
0.0
220
0.0
230
1.0
  2
SOLID
 70
     1
 71
     0
 91
        1
 92
        1
 93
        3
 72
     1
 10
51.44561088123582
 20
-170.4378309035711
 11
44.65119356522609
 21
-170.0354437508939
 72
     1
 10
44.65119356522609
 20
-170.0354437508939
 11
51.44561088123582
 21
-170.0354437508939
 72
     1
 10
51.44561088123582
 20
-170.0354437508939
 11
51.44561088123582
 21
-170.4378309035711
 97
        0
 75
     2
 76
     1
 98
        0
  0
POLYLINE
  5
F1
330
1F
100
AcDbEntity
  8
Ebene 1
370
     0
100
AcDb2dPolyline
 66
     1
 10
0.0
 20
0.0
 30
0.0
  0
VERTEX
  5
F2
330
F1
100
AcDbEntity
  8
Ebene 1
370
     0
100
AcDbVertex
100
AcDb2dVertex
 10
164.6449028451235
 20
-160.4470539963466
 30
0.0
  0
VERTEX
  5
F3
330
F1
100
AcDbEntity
  8
Ebene 1
370
     0
100
AcDbVertex
100
AcDb2dVertex
 10
164.2428602019949
 20
-170.036132769991
 30
0.0
  0
VERTEX
  5
F4
330
F1
100
AcDbEntity
  8
Ebene 1
370
     0
100
AcDbVertex
100
AcDb2dVertex
 10
164.2428602019949
 20
-160.4470539963466
 30
0.0
  0
VERTEX
  5
F5
330
F1
100
AcDbEntity
  8
Ebene 1
370
     0
100
AcDbVertex
100
AcDb2dVertex
 10
164.6449028451235
 20
-160.4470539963466
 30
0.0
  0
SEQEND
  5
F6
330
F1
100
AcDbEntity
  8
Ebene 1
370
     0
  0
HATCH
  5
F7
330
1F
100
AcDbEntity
  8
Ebene 1
 62
   179
420
  1709851
100
AcDbHatch
 10
0.0
 20
0.0
 30
0.0
210
0.0
220
0.0
230
1.0
  2
SOLID
 70
     1
 71
     0
 91
        1
 92
        1
 93
        3
 72
     1
 10
164.6449028451235
 20
-160.4470539963466
 11
164.2428602019949
 21
-170.036132769991
 72
     1
 10
164.2428602019949
 20
-170.036132769991
 11
164.2428602019949
 21
-160.4470539963466
 72
     1
 10
164.2428602019949
 20
-160.4470539963466
 11
164.6449028451235
 21
-160.4470539963466
 97
        0
 75
     2
 76
     1
 98
        0
  0
POLYLINE
  5
F8
330
1F
100
AcDbEntity
  8
Ebene 1
370
     0
100
AcDb2dPolyline
 66
     1
 10
0.0
 20
0.0
 30
0.0
  0
VERTEX
  5
F9
330
F8
100
AcDbEntity
  8
Ebene 1
370
     0
100
AcDbVertex
100
AcDb2dVertex
 10
164.2428602019949
 20
-170.0354437508939
 30
0.0
  0
VERTEX
  5
FA
330
F8
100
AcDbEntity
  8
Ebene 1
370
     0
100
AcDbVertex
100
AcDb2dVertex
 10
157.4484428859851
 20
-170.4378309035711
 30
0.0
  0
VERTEX
  5
FB
330
F8
100
AcDbEntity
  8
Ebene 1
370
     0
100
AcDbVertex
100
AcDb2dVertex
 10
157.4484428859851
 20
-170.0354437508939
 30
0.0
  0
VERTEX
  5
FC
330
F8
100
AcDbEntity
  8
Ebene 1
370
     0
100
AcDbVertex
100
AcDb2dVertex
 10
164.2428602019949
 20
-170.0354437508939
 30
0.0
  0
SEQEND
  5
FD
330
F8
100
AcDbEntity
  8
Ebene 1
370
     0
  0
HATCH
  5
FE
330
1F
100
AcDbEntity
  8
Ebene 1
 62
   179
420
  1709851
100
AcDbHatch
 10
0.0
 20
0.0
 30
0.0
210
0.0
220
0.0
230
1.0
  2
SOLID
 70
     1
 71
     0
 91
        1
 92
        1
 93
        3
 72
     1
 10
164.2428602019949
 20
-170.0354437508939
 11
157.4484428859851
 21
-170.4378309035711
 72
     1
 10
157.4484428859851
 20
-170.4378309035711
 11
157.4484428859851
 21
-170.0354437508939
 72
     1
 10
157.4484428859851
 20
-170.0354437508939
 11
164.2428602019949
 21
-170.0354437508939
 97
        0
 75
     2
 76
     1
 98
        0
  0
POLYLINE
  5
FF
330
1F
100
AcDbEntity
  8
Ebene 1
370
     0
100
AcDb2dPolyline
 66
     1
 10
0.0
 20
0.0
 30
0.0
  0
VERTEX
  5
100
330
FF
100
AcDbEntity
  8
Ebene 1
370
     0
100
AcDbVertex
100
AcDb2dVertex
 10
157.4484428859851
 20
-170.4378309035711
 30
0.0
  0
VERTEX
  5
101
330
FF
100
AcDbEntity
  8
Ebene 1
370
     0
100
AcDbVertex
100
AcDb2dVertex
 10
164.2428602019949
 20
-170.0354437508939
 30
0.0
  0
VERTEX
  5
102
330
FF
100
AcDbEntity
  8
Ebene 1
370
     0
100
AcDbVertex
100
AcDb2dVertex
 10
171.4393201611332
 20
-170.4378309035711
 30
0.0
  0
VERTEX
  5
103
330
FF
100
AcDbEntity
  8
Ebene 1
370
     0
100
AcDbVertex
100
AcDb2dVertex
 10
157.4484428859851
 20
-170.4378309035711
 30
0.0
  0
SEQEND
  5
104
330
FF
100
AcDbEntity
  8
Ebene 1
370
     0
  0
HATCH
  5
105
330
1F
100
AcDbEntity
  8
Ebene 1
 62
   179
420
  1709851
100
AcDbHatch
 10
0.0
 20
0.0
 30
0.0
210
0.0
220
0.0
230
1.0
  2
SOLID
 70
     1
 71
     0
 91
        1
 92
        1
 93
        3
 72
     1
 10
157.4484428859851
 20
-170.4378309035711
 11
164.2428602019949
 21
-170.0354437508939
 72
     1
 10
164.2428602019949
 20
-170.0354437508939
 11
171.4393201611332
 21
-170.4378309035711
 72
     1
 10
171.4393201611332
 20
-170.4378309035711
 11
157.4484428859851
 21
-170.4378309035711
 97
        0
 75
     2
 76
     1
 98
        0
  0
POLYLINE
  5
106
330
1F
100
AcDbEntity
  8
Ebene 1
370
     0
100
AcDb2dPolyline
 66
     1
 10
0.0
 20
0.0
 30
0.0
  0
VERTEX
  5
107
330
106
100
AcDbEntity
  8
Ebene 1
370
     0
100
AcDbVertex
100
AcDb2dVertex
 10
171.4393201611332
 20
-170.4378309035711
 30
0.0
  0
VERTEX
  5
108
330
106
100
AcDbEntity
  8
Ebene 1
370
     0
100
AcDbVertex
100
AcDb2dVertex
 10
164.2428602019949
 20
-170.0354437508939
 30
0.0
  0
VERTEX
  5
109
330
106
100
AcDbEntity
  8
Ebene 1
370
     0
100
AcDbVertex
100
AcDb2dVertex
 10
164.6449028451235
 20
-170.0354437508939
 30
0.0
  0
VERTEX
  5
10A
330
106
100
AcDbEntity
  8
Ebene 1
370
     0
100
AcDbVertex
100
AcDb2dVertex
 10
171.4393201611332
 20
-170.4378309035711
 30
0.0
  0
SEQEND
  5
10B
330
106
100
AcDbEntity
  8
Ebene 1
370
     0
  0
HATCH
  5
10C
330
1F
100
AcDbEntity
  8
Ebene 1
 62
   179
420
  1709851
100
AcDbHatch
 10
0.0
 20
0.0
 30
0.0
210
0.0
220
0.0
230
1.0
  2
SOLID
 70
     1
 71
     0
 91
        1
 92
        1
 93
        3
 72
     1
 10
171.4393201611332
 20
-170.4378309035711
 11
164.2428602019949
 21
-170.0354437508939
 72
     1
 10
164.2428602019949
 20
-170.0354437508939
 11
164.6449028451235
 21
-170.0354437508939
 72
     1
 10
164.6449028451235
 20
-170.0354437508939
 11
171.4393201611332
 21
-170.4378309035711
 97
        0
 75
     2
 76
     1
 98
        0
  0
POLYLINE
  5
10D
330
1F
100
AcDbEntity
  8
Ebene 1
370
     0
100
AcDb2dPolyline
 66
     1
 10
0.0
 20
0.0
 30
0.0
  0
VERTEX
  5
10E
330
10D
100
AcDbEntity
  8
Ebene 1
370
     0
100
AcDbVertex
100
AcDb2dVertex
 10
164.6449028451235
 20
-170.0354437508939
 30
0.0
  0
VERTEX
  5
10F
330
10D
100
AcDbEntity
  8
Ebene 1
370
     0
100
AcDbVertex
100
AcDb2dVertex
 10
164.2428602019949
 20
-170.0354437508939
 30
0.0
  0
VERTEX
  5
110
330
10D
100
AcDbEntity
  8
Ebene 1
370
     0
100
AcDbVertex
100
AcDb2dVertex
 10
164.6449028451235
 20
-160.4470539963466
 30
0.0
  0
VERTEX
  5
111
330
10D
100
AcDbEntity
  8
Ebene 1
370
     0
100
AcDbVertex
100
AcDb2dVertex
 10
164.6449028451235
 20
-170.0354437508939
 30
0.0
  0
SEQEND
  5
112
330
10D
100
AcDbEntity
  8
Ebene 1
370
     0
  0
HATCH
  5
113
330
1F
100
AcDbEntity
  8
Ebene 1
 62
   179
420
  1709851
100
AcDbHatch
 10
0.0
 20
0.0
 30
0.0
210
0.0
220
0.0
230
1.0
  2
SOLID
 70
     1
 71
     0
 91
        1
 92
        1
 93
        3
 72
     1
 10
164.6449028451235
 20
-170.0354437508939
 11
164.2428602019949
 21
-170.0354437508939
 72
     1
 10
164.2428602019949
 20
-170.0354437508939
 11
164.6449028451235
 21
-160.4470539963466
 72
     1
 10
164.6449028451235
 20
-160.4470539963466
 11
164.6449028451235
 21
-170.0354437508939
 97
        0
 75
     2
 76
     1
 98
        0
  0
POLYLINE
  5
114
330
1F
100
AcDbEntity
  8
Ebene 1
370
     0
100
AcDb2dPolyline
 66
     1
 10
0.0
 20
0.0
 30
0.0
  0
VERTEX
  5
115
330
114
100
AcDbEntity
  8
Ebene 1
370
     0
100
AcDbVertex
100
AcDb2dVertex
 10
171.4393201611332
 20
-170.4378309035711
 30
0.0
  0
VERTEX
  5
116
330
114
100
AcDbEntity
  8
Ebene 1
370
     0
100
AcDbVertex
100
AcDb2dVertex
 10
164.6449028451235
 20
-170.0354437508939
 30
0.0
  0
VERTEX
  5
117
330
114
100
AcDbEntity
  8
Ebene 1
370
     0
100
AcDbVertex
100
AcDb2dVertex
 10
171.4393201611332
 20
-170.0354437508939
 30
0.0
  0
VERTEX
  5
118
330
114
100
AcDbEntity
  8
Ebene 1
370
     0
100
AcDbVertex
100
AcDb2dVertex
 10
171.4393201611332
 20
-170.4378309035711
 30
0.0
  0
SEQEND
  5
119
330
114
100
AcDbEntity
  8
Ebene 1
370
     0
  0
HATCH
  5
11A
330
1F
100
AcDbEntity
  8
Ebene 1
 62
   179
420
  1709851
100
AcDbHatch
 10
0.0
 20
0.0
 30
0.0
210
0.0
220
0.0
230
1.0
  2
SOLID
 70
     1
 71
     0
 91
        1
 92
        1
 93
        3
 72
     1
 10
171.4393201611332
 20
-170.4378309035711
 11
164.6449028451235
 21
-170.0354437508939
 72
     1
 10
164.6449028451235
 20
-170.0354437508939
 11
171.4393201611332
 21
-170.0354437508939
 72
     1
 10
171.4393201611332
 20
-170.0354437508939
 11
171.4393201611332
 21
-170.4378309035711
 97
        0
 75
     2
 76
     1
 98
        0
  0
POLYLINE
  5
11B
330
1F
100
AcDbEntity
  8
Ebene 1
370
     0
100
AcDb2dPolyline
 66
     1
 10
0.0
 20
0.0
 30
0.0
  0
VERTEX
  5
11C
330
11B
100
AcDbEntity
  8
Ebene 1
370
     0
100
AcDbVertex
100
AcDb2dVertex
 10
188.3516384077732
 20
-172.9141655383687
 30
0.0
  0
VERTEX
  5
11D
330
11B
100
AcDbEntity
  8
Ebene 1
370
     0
100
AcDbVertex
100
AcDb2dVertex
 10
165.237803778135
 20
-171.3266655387656
 30
0.0
  0
VERTEX
  5
11E
330
11B
100
AcDbEntity
  8
Ebene 1
370
     0
100
AcDbVertex
100
AcDb2dVertex
 10
165.237803778135
 20
-172.9141655383687
 30
0.0
  0
VERTEX
  5
11F
330
11B
100
AcDbEntity
  8
Ebene 1
370
     0
100
AcDbVertex
100
AcDb2dVertex
 10
188.3516384077732
 20
-172.9141655383687
 30
0.0
  0
SEQEND
  5
120
330
11B
100
AcDbEntity
  8
Ebene 1
370
     0
  0
HATCH
  5
121
330
1F
100
AcDbEntity
  8
Ebene 1
 62
   254
420
 14803683
100
AcDbHatch
 10
0.0
 20
0.0
 30
0.0
210
0.0
220
0.0
230
1.0
  2
SOLID
 70
     1
 71
     0
 91
        1
 92
        1
 93
        3
 72
     1
 10
188.3516384077732
 20
-172.9141655383687
 11
165.237803778135
 21
-171.3266655387656
 72
     1
 10
165.237803778135
 20
-171.3266655387656
 11
165.237803778135
 21
-172.9141655383687
 72
     1
 10
165.237803778135
 20
-172.9141655383687
 11
188.3516384077732
 21
-172.9141655383687
 97
        0
 75
     2
 76
     1
 98
        0
  0
POLYLINE
  5
122
330
1F
100
AcDbEntity
  8
Ebene 1
370
     0
100
AcDb2dPolyline
 66
     1
 10
0.0
 20
0.0
 30
0.0
  0
VERTEX
  5
123
330
122
100
AcDbEntity
  8
Ebene 1
370
     0
100
AcDbVertex
100
AcDb2dVertex
 10
165.237803778135
 20
-171.3266655387656
 30
0.0
  0
VERTEX
  5
124
330
122
100
AcDbEntity
  8
Ebene 1
370
     0
100
AcDbVertex
100
AcDb2dVertex
 10
188.3519829173217
 20
-172.9141655383687
 30
0.0
  0
VERTEX
  5
125
330
122
100
AcDbEntity
  8
Ebene 1
370
     0
100
AcDbVertex
100
AcDb2dVertex
 10
188.3519829173217
 20
-171.3266655387656
 30
0.0
  0
VERTEX
  5
126
330
122
100
AcDbEntity
  8
Ebene 1
370
     0
100
AcDbVertex
100
AcDb2dVertex
 10
165.237803778135
 20
-171.3266655387656
 30
0.0
  0
SEQEND
  5
127
330
122
100
AcDbEntity
  8
Ebene 1
370
     0
  0
HATCH
  5
128
330
1F
100
AcDbEntity
  8
Ebene 1
 62
   254
420
 14803683
100
AcDbHatch
 10
0.0
 20
0.0
 30
0.0
210
0.0
220
0.0
230
1.0
  2
SOLID
 70
     1
 71
     0
 91
        1
 92
        1
 93
        3
 72
     1
 10
165.237803778135
 20
-171.3266655387656
 11
188.3519829173217
 21
-172.9141655383687
 72
     1
 10
188.3519829173217
 20
-172.9141655383687
 11
188.3519829173217
 21
-171.3266655387656
 72
     1
 10
188.3519829173217
 20
-171.3266655387656
 11
165.237803778135
 21
-171.3266655387656
 97
        0
 75
     2
 76
     1
 98
        0
  0
POLYLINE
  5
129
330
1F
100
AcDbEntity
  8
Ebene 1
370
     0
100
AcDb2dPolyline
 66
     1
 10
0.0
 20
0.0
 30
0.0
  0
VERTEX
  5
12A
330
129
100
AcDbEntity
  8
Ebene 1
370
     0
100
AcDbVertex
100
AcDb2dVertex
 10
163.6289441865233
 20
-172.9141655383687
 30
0.0
  0
VERTEX
  5
12B
330
129
100
AcDbEntity
  8
Ebene 1
370
     0
100
AcDbVertex
100
AcDb2dVertex
 10
45.24374998868907
 20
-171.3266655387656
 30
0.0
  0
VERTEX
  5
12C
330
129
100
AcDbEntity
  8
Ebene 1
370
     0
100
AcDbVertex
100
AcDb2dVertex
 10
45.24374998868907
 20
-172.9141655383687
 30
0.0
  0
VERTEX
  5
12D
330
129
100
AcDbEntity
  8
Ebene 1
370
     0
100
AcDbVertex
100
AcDb2dVertex
 10
163.6289441865233
 20
-172.9141655383687
 30
0.0
  0
SEQEND
  5
12E
330
129
100
AcDbEntity
  8
Ebene 1
370
     0
  0
HATCH
  5
12F
330
1F
100
AcDbEntity
  8
Ebene 1
 62
   254
420
 14803683
100
AcDbHatch
 10
0.0
 20
0.0
 30
0.0
210
0.0
220
0.0
230
1.0
  2
SOLID
 70
     1
 71
     0
 91
        1
 92
        1
 93
        3
 72
     1
 10
163.6289441865233
 20
-172.9141655383687
 11
45.24374998868907
 21
-171.3266655387656
 72
     1
 10
45.24374998868907
 20
-171.3266655387656
 11
45.24374998868907
 21
-172.9141655383687
 72
     1
 10
45.24374998868907
 20
-172.9141655383687
 11
163.6289441865233
 21
-172.9141655383687
 97
        0
 75
     2
 76
     1
 98
        0
  0
POLYLINE
  5
130
330
1F
100
AcDbEntity
  8
Ebene 1
370
     0
100
AcDb2dPolyline
 66
     1
 10
0.0
 20
0.0
 30
0.0
  0
VERTEX
  5
131
330
130
100
AcDbEntity
  8
Ebene 1
370
     0
100
AcDbVertex
100
AcDb2dVertex
 10
45.24374998868907
 20
-171.3266655387656
 30
0.0
  0
VERTEX
  5
132
330
130
100
AcDbEntity
  8
Ebene 1
370
     0
100
AcDbVertex
100
AcDb2dVertex
 10
163.6289441865233
 20
-172.9141655383687
 30
0.0
  0
VERTEX
  5
133
330
130
100
AcDbEntity
  8
Ebene 1
370
     0
100
AcDbVertex
100
AcDb2dVertex
 10
163.6289441865233
 20
-171.3266655387656
 30
0.0
  0
VERTEX
  5
134
330
130
100
AcDbEntity
  8
Ebene 1
370
     0
100
AcDbVertex
100
AcDb2dVertex
 10
45.24374998868907
 20
-171.3266655387656
 30
0.0
  0
SEQEND
  5
135
330
130
100
AcDbEntity
  8
Ebene 1
370
     0
  0
HATCH
  5
136
330
1F
100
AcDbEntity
  8
Ebene 1
 62
   254
420
 14803683
100
AcDbHatch
 10
0.0
 20
0.0
 30
0.0
210
0.0
220
0.0
230
1.0
  2
SOLID
 70
     1
 71
     0
 91
        1
 92
        1
 93
        3
 72
     1
 10
45.24374998868907
 20
-171.3266655387656
 11
163.6289441865233
 21
-172.9141655383687
 72
     1
 10
163.6289441865233
 20
-172.9141655383687
 11
163.6289441865233
 21
-171.3266655387656
 72
     1
 10
163.6289441865233
 20
-171.3266655387656
 11
45.24374998868907
 21
-171.3266655387656
 97
        0
 75
     2
 76
     1
 98
        0
  0
POLYLINE
  5
137
330
1F
100
AcDbEntity
  8
Ebene 1
370
     0
100
AcDb2dPolyline
 66
     1
 10
0.0
 20
0.0
 30
0.0
  0
VERTEX
  5
138
330
137
100
AcDbEntity
  8
Ebene 1
370
     0
100
AcDbVertex
100
AcDb2dVertex
 10
20.35190157911341
 20
-172.9141655383687
 30
0.0
  0
VERTEX
  5
139
330
137
100
AcDbEntity
  8
Ebene 1
370
     0
100
AcDbVertex
100
AcDb2dVertex
 10
43.6564222438602
 20
-172.9141655383687
 30
0.0
  0
VERTEX
  5
13A
330
137
100
AcDbEntity
  8
Ebene 1
370
     0
100
AcDbVertex
100
AcDb2dVertex
 10
20.35190157911341
 20
-171.3266655387656
 30
0.0
  0
VERTEX
  5
13B
330
137
100
AcDbEntity
  8
Ebene 1
370
     0
100
AcDbVertex
100
AcDb2dVertex
 10
20.35190157911341
 20
-172.9141655383687
 30
0.0
  0
SEQEND
  5
13C
330
137
100
AcDbEntity
  8
Ebene 1
370
     0
  0
HATCH
  5
13D
330
1F
100
AcDbEntity
  8
Ebene 1
 62
   254
420
 14803683
100
AcDbHatch
 10
0.0
 20
0.0
 30
0.0
210
0.0
220
0.0
230
1.0
  2
SOLID
 70
     1
 71
     0
 91
        1
 92
        1
 93
        3
 72
     1
 10
20.35190157911341
 20
-172.9141655383687
 11
43.6564222438602
 21
-172.9141655383687
 72
     1
 10
43.6564222438602
 20
-172.9141655383687
 11
20.35190157911341
 21
-171.3266655387656
 72
     1
 10
20.35190157911341
 20
-171.3266655387656
 11
20.35190157911341
 21
-172.9141655383687
 97
        0
 75
     2
 76
     1
 98
        0
  0
POLYLINE
  5
13E
330
1F
100
AcDbEntity
  8
Ebene 1
370
     0
100
AcDb2dPolyline
 66
     1
 10
0.0
 20
0.0
 30
0.0
  0
VERTEX
  5
13F
330
13E
100
AcDbEntity
  8
Ebene 1
370
     0
100
AcDbVertex
100
AcDb2dVertex
 10
20.35190157911341
 20
-171.3266655387656
 30
0.0
  0
VERTEX
  5
140
330
13E
100
AcDbEntity
  8
Ebene 1
370
     0
100
AcDbVertex
100
AcDb2dVertex
 10
43.6564222438602
 20
-172.9141655383687
 30
0.0
  0
VERTEX
  5
141
330
13E
100
AcDbEntity
  8
Ebene 1
370
     0
100
AcDbVertex
100
AcDb2dVertex
 10
43.6564222438602
 20
-171.3266655387656
 30
0.0
  0
VERTEX
  5
142
330
13E
100
AcDbEntity
  8
Ebene 1
370
     0
100
AcDbVertex
100
AcDb2dVertex
 10
20.35190157911341
 20
-171.3266655387656
 30
0.0
  0
SEQEND
  5
143
330
13E
100
AcDbEntity
  8
Ebene 1
370
     0
  0
HATCH
  5
144
330
1F
100
AcDbEntity
  8
Ebene 1
 62
   254
420
 14803683
100
AcDbHatch
 10
0.0
 20
0.0
 30
0.0
210
0.0
220
0.0
230
1.0
  2
SOLID
 70
     1
 71
     0
 91
        1
 92
        1
 93
        3
 72
     1
 10
20.35190157911341
 20
-171.3266655387656
 11
43.6564222438602
 21
-172.9141655383687
 72
     1
 10
43.6564222438602
 20
-172.9141655383687
 11
43.6564222438602
 21
-171.3266655387656
 72
     1
 10
43.6564222438602
 20
-171.3266655387656
 11
20.35190157911341
 21
-171.3266655387656
 97
        0
 75
     2
 76
     1
 98
        0
  0
INSERT
  5
146
330
1F
100
AcDbEntity
  8
Ebene 1
100
AcDbBlockReference
  2
block 3
 10
0.0
 20
0.0
 30
0.0
  0
POLYLINE
  5
294
330
1F
100
AcDbEntity
  8
Ebene 1
 62
   179
420
  1709851
370
    25
100
AcDb2dPolyline
 66
     1
 10
0.0
 20
0.0
 30
0.0
  0
VERTEX
  5
295
330
294
100
AcDbEntity
  8
Ebene 1
 62
   179
420
  1709851
370
    25
100
AcDbVertex
100
AcDb2dVertex
 10
164.2428602019949
 20
-170.0354437508939
 30
0.0
  0
VERTEX
  5
296
330
294
100
AcDbEntity
  8
Ebene 1
 62
   179
420
  1709851
370
    25
100
AcDbVertex
100
AcDb2dVertex
 10
164.2428602019949
 20
-165.9288899324761
 30
0.0
  0
SEQEND
  5
297
330
294
100
AcDbEntity
  8
Ebene 1
370
    25
  0
INSERT
  5
299
330
1F
100
AcDbEntity
  8
Ebene 1
100
AcDbBlockReference
  2
block 4
 10
0.0
 20
0.0
 30
0.0
  0
POLYLINE
  5
2A7
330
1F
100
AcDbEntity
  8
Ebene 1
 62
   179
420
  1709851
370
    35
100
AcDb2dPolyline
 66
     1
 10
0.0
 20
0.0
 30
0.0
  0
VERTEX
  5
2A8
330
2A7
100
AcDbEntity
  8
Ebene 1
 62
   179
420
  1709851
370
    35
100
AcDbVertex
100
AcDb2dVertex
 10
40.9046522250169
 20
-134.6238240223336
 30
0.0
  0
VERTEX
  5
2A9
330
2A7
100
AcDbEntity
  8
Ebene 1
 62
   179
420
  1709851
370
    35
100
AcDbVertex
100
AcDb2dVertex
 10
40.9046522250169
 20
-127.617533333981
 30
0.0
  0
SEQEND
  5
2AA
330
2A7
100
AcDbEntity
  8
Ebene 1
370
    35
  0
POLYLINE
  5
2AB
330
1F
100
AcDbEntity
  8
Ebene 1
 62
   179
420
  1709851
370
    35
100
AcDb2dPolyline
 66
     1
 10
0.0
 20
0.0
 30
0.0
  0
VERTEX
  5
2AC
330
2AB
100
AcDbEntity
  8
Ebene 1
 62
   179
420
  1709851
370
    35
100
AcDbVertex
100
AcDb2dVertex
 10
40.9046522250169
 20
-136.6133666650654
 30
0.0
  0
VERTEX
  5
2AD
330
2AB
100
AcDbEntity
  8
Ebene 1
 62
   179
420
  1709851
370
    35
100
AcDbVertex
100
AcDb2dVertex
 10
40.9046522250169
 20
-135.6184230889253
 30
0.0
  0
SEQEND
  5
2AE
330
2AB
100
AcDbEntity
  8
Ebene 1
370
    35
  0
POLYLINE
  5
2AF
330
1F
100
AcDbEntity
  8
Ebene 1
 62
   179
420
  1709851
370
    35
100
AcDb2dPolyline
 66
     1
 10
0.0
 20
0.0
 30
0.0
  0
VERTEX
  5
2B0
330
2AF
100
AcDbEntity
  8
Ebene 1
 62
   179
420
  1709851
370
    35
100
AcDbVertex
100
AcDb2dVertex
 10
40.9046522250169
 20
-144.6142564200096
 30
0.0
  0
VERTEX
  5
2B1
330
2AF
100
AcDbEntity
  8
Ebene 1
 62
   179
420
  1709851
370
    35
100
AcDbVertex
100
AcDb2dVertex
 10
40.9046522250169
 20
-137.6083102412056
 30
0.0
  0
SEQEND
  5
2B2
330
2AF
100
AcDbEntity
  8
Ebene 1
370
    35
  0
POLYLINE
  5
2B3
330
1F
100
AcDbEntity
  8
Ebene 1
 62
   179
420
  1709851
370
    35
100
AcDb2dPolyline
 66
     1
 10
0.0
 20
0.0
 30
0.0
  0
VERTEX
  5
2B4
330
2B3
100
AcDbEntity
  8
Ebene 1
 62
   179
420
  1709851
370
    35
100
AcDbVertex
100
AcDb2dVertex
 10
40.9046522250169
 20
-146.60414357229
 30
0.0
  0
VERTEX
  5
2B5
330
2B3
100
AcDbEntity
  8
Ebene 1
 62
   179
420
  1709851
370
    35
100
AcDbVertex
100
AcDb2dVertex
 10
40.9046522250169
 20
-145.6091999961498
 30
0.0
  0
SEQEND
  5
2B6
330
2B3
100
AcDbEntity
  8
Ebene 1
370
    35
  0
POLYLINE
  5
2B7
330
1F
100
AcDbEntity
  8
Ebene 1
 62
   179
420
  1709851
370
    35
100
AcDb2dPolyline
 66
     1
 10
0.0
 20
0.0
 30
0.0
  0
VERTEX
  5
2B8
330
2B7
100
AcDbEntity
  8
Ebene 1
 62
   179
420
  1709851
370
    35
100
AcDbVertex
100
AcDb2dVertex
 10
40.9046522250169
 20
-150.5196668460507
 30
0.0
  0
VERTEX
  5
2B9
330
2B7
100
AcDbEntity
  8
Ebene 1
 62
   179
420
  1709851
370
    35
100
AcDbVertex
100
AcDb2dVertex
 10
40.9046522250169
 20
-147.6201022308901
 30
0.0
  0
SEQEND
  5
2BA
330
2B7
100
AcDbEntity
  8
Ebene 1
370
    35
  0
POLYLINE
  5
2BB
330
1F
100
AcDbEntity
  8
Ebene 1
 62
   179
420
  1709851
370
    18
100
AcDb2dPolyline
 66
     1
 10
0.0
 20
0.0
 30
0.0
  0
VERTEX
  5
2BC
330
2BB
100
AcDbEntity
  8
Ebene 1
 62
   179
420
  1709851
370
    18
100
AcDbVertex
100
AcDb2dVertex
 10
44.24897866732317
 20
-170.0354437508939
 30
0.0
  0
VERTEX
  5
2BD
330
2BB
100
AcDbEntity
  8
Ebene 1
 62
   179
420
  1709851
370
    18
100
AcDbVertex
100
AcDb2dVertex
 10
37.45456135131344
 20
-170.0354437508939
 30
0.0
  0
VERTEX
  5
2BE
330
2BB
100
AcDbEntity
  8
Ebene 1
 62
   179
420
  1709851
370
    18
100
AcDbVertex
100
AcDb2dVertex
 10
37.45456135131344
 20
-170.4378309035711
 30
0.0
  0
SEQEND
  5
2BF
330
2BB
100
AcDbEntity
  8
Ebene 1
370
    18
  0
POLYLINE
  5
2C0
330
1F
100
AcDbEntity
  8
Ebene 1
 62
   179
420
  1709851
370
    18
100
AcDb2dPolyline
 66
     1
 10
0.0
 20
0.0
 30
0.0
  0
VERTEX
  5
2C1
330
2C0
100
AcDbEntity
  8
Ebene 1
 62
   179
420
  1709851
370
    18
100
AcDbVertex
100
AcDb2dVertex
 10
44.65119356522609
 20
-160.4470539963466
 30
0.0
  0
VERTEX
  5
2C2
330
2C0
100
AcDbEntity
  8
Ebene 1
 62
   179
420
  1709851
370
    18
100
AcDbVertex
100
AcDb2dVertex
 10
44.24897866732317
 20
-160.4470539963466
 30
0.0
  0
SEQEND
  5
2C3
330
2C0
100
AcDbEntity
  8
Ebene 1
370
    18
  0
POLYLINE
  5
2C4
330
1F
100
AcDbEntity
  8
Ebene 1
 62
   179
420
  1709851
370
    18
100
AcDb2dPolyline
 66
     1
 10
0.0
 20
0.0
 30
0.0
  0
VERTEX
  5
2C5
330
2C4
100
AcDbEntity
  8
Ebene 1
 62
   179
420
  1709851
370
    18
100
AcDbVertex
100
AcDb2dVertex
 10
44.24897866732317
 20
-160.4470539963466
 30
0.0
  0
VERTEX
  5
2C6
330
2C4
100
AcDbEntity
  8
Ebene 1
 62
   179
420
  1709851
370
    18
100
AcDbVertex
100
AcDb2dVertex
 10
44.24897866732317
 20
-170.0354437508939
 30
0.0
  0
SEQEND
  5
2C7
330
2C4
100
AcDbEntity
  8
Ebene 1
370
    18
  0
POLYLINE
  5
2C8
330
1F
100
AcDbEntity
  8
Ebene 1
 62
   179
420
  1709851
370
    18
100
AcDb2dPolyline
 66
     1
 10
0.0
 20
0.0
 30
0.0
  0
VERTEX
  5
2C9
330
2C8
100
AcDbEntity
  8
Ebene 1
 62
   179
420
  1709851
370
    18
100
AcDbVertex
100
AcDb2dVertex
 10
37.45456135131344
 20
-170.4378309035711
 30
0.0
  0
VERTEX
  5
2CA
330
2C8
100
AcDbEntity
  8
Ebene 1
 62
   179
420
  1709851
370
    18
100
AcDbVertex
100
AcDb2dVertex
 10
51.44561088123582
 20
-170.4378309035711
 30
0.0
  0
VERTEX
  5
2CB
330
2C8
100
AcDbEntity
  8
Ebene 1
 62
   179
420
  1709851
370
    18
100
AcDbVertex
100
AcDb2dVertex
 10
51.44561088123582
 20
-170.0354437508939
 30
0.0
  0
VERTEX
  5
2CC
330
2C8
100
AcDbEntity
  8
Ebene 1
 62
   179
420
  1709851
370
    18
100
AcDbVertex
100
AcDb2dVertex
 10
44.65119356522609
 20
-170.0354437508939
 30
0.0
  0
VERTEX
  5
2CD
330
2C8
100
AcDbEntity
  8
Ebene 1
 62
   179
420
  1709851
370
    18
100
AcDbVertex
100
AcDb2dVertex
 10
44.65119356522609
 20
-165.9295789515732
 30
0.0
  0
SEQEND
  5
2CE
330
2C8
100
AcDbEntity
  8
Ebene 1
370
    18
  0
POLYLINE
  5
2CF
330
1F
100
AcDbEntity
  8
Ebene 1
 62
   179
420
  1709851
370
    18
100
AcDb2dPolyline
 66
     1
 10
0.0
 20
0.0
 30
0.0
  0
VERTEX
  5
2D0
330
2CF
100
AcDbEntity
  8
Ebene 1
 62
   179
420
  1709851
370
    18
100
AcDbVertex
100
AcDb2dVertex
 10
37.1581108848077
 20
-147.9163804426216
 30
0.0
  0
VERTEX
  5
2D1
330
2CF
100
AcDbEntity
  8
Ebene 1
 62
   179
420
  1709851
370
    18
100
AcDbVertex
100
AcDb2dVertex
 10
37.1581108848077
 20
-148.5302964580931
 30
0.0
  0
SEQEND
  5
2D2
330
2CF
100
AcDbEntity
  8
Ebene 1
370
    18
  0
POLYLINE
  5
2D3
330
1F
100
AcDbEntity
  8
Ebene 1
 62
   179
420
  1709851
370
    18
100
AcDb2dPolyline
 66
     1
 10
0.0
 20
0.0
 30
0.0
  0
VERTEX
  5
2D4
330
2D3
100
AcDbEntity
  8
Ebene 1
 62
   179
420
  1709851
370
    18
100
AcDbVertex
100
AcDb2dVertex
 10
45.15917289452618
 20
-147.9163804426216
 30
0.0
  0
VERTEX
  5
2D5
330
2D3
100
AcDbEntity
  8
Ebene 1
 62
   179
420
  1709851
370
    18
100
AcDbVertex
100
AcDb2dVertex
 10
45.15917289452618
 20
-146.9214368664815
 30
0.0
  0
SEQEND
  5
2D6
330
2D3
100
AcDbEntity
  8
Ebene 1
370
    18
  0
POLYLINE
  5
2D7
330
1F
100
AcDbEntity
  8
Ebene 1
 62
   179
420
  1709851
370
    18
100
AcDb2dPolyline
 66
     1
 10
0.0
 20
0.0
 30
0.0
  0
VERTEX
  5
2D8
330
2D7
100
AcDbEntity
  8
Ebene 1
 62
   179
420
  1709851
370
    18
100
AcDbVertex
100
AcDb2dVertex
 10
37.1581108848077
 20
-147.9163804426216
 30
0.0
  0
VERTEX
  5
2D9
330
2D7
100
AcDbEntity
  8
Ebene 1
 62
   179
420
  1709851
370
    18
100
AcDbVertex
100
AcDb2dVertex
 10
37.1581108848077
 20
-146.9214368664815
 30
0.0
  0
SEQEND
  5
2DA
330
2D7
100
AcDbEntity
  8
Ebene 1
370
    18
  0
POLYLINE
  5
2DB
330
1F
100
AcDbEntity
  8
Ebene 1
 62
   179
420
  1709851
370
    18
100
AcDb2dPolyline
 66
     1
 10
0.0
 20
0.0
 30
0.0
  0
VERTEX
  5
2DC
330
2DB
100
AcDbEntity
  8
Ebene 1
 62
   179
420
  1709851
370
    18
100
AcDbVertex
100
AcDb2dVertex
 10
37.1581108848077
 20
-147.9163804426216
 30
0.0
  0
VERTEX
  5
2DD
330
2DB
100
AcDbEntity
  8
Ebene 1
 62
   179
420
  1709851
370
    18
100
AcDbVertex
100
AcDb2dVertex
 10
45.15917289452618
 20
-147.9163804426216
 30
0.0
  0
SEQEND
  5
2DE
330
2DB
100
AcDbEntity
  8
Ebene 1
370
    18
  0
POLYLINE
  5
2DF
330
1F
100
AcDbEntity
  8
Ebene 1
 62
   179
420
  1709851
370
    18
100
AcDb2dPolyline
 66
     1
 10
0.0
 20
0.0
 30
0.0
  0
VERTEX
  5
2E0
330
2DF
100
AcDbEntity
  8
Ebene 1
 62
   179
420
  1709851
370
    18
100
AcDbVertex
100
AcDb2dVertex
 10
37.1581108848077
 20
-148.5302964580931
 30
0.0
  0
VERTEX
  5
2E1
330
2DF
100
AcDbEntity
  8
Ebene 1
 62
   179
420
  1709851
370
    18
100
AcDbVertex
100
AcDb2dVertex
 10
44.65119356522609
 20
-148.5302964580931
 30
0.0
  0
SEQEND
  5
2E2
330
2DF
100
AcDbEntity
  8
Ebene 1
370
    18
  0
POLYLINE
  5
2E3
330
1F
100
AcDbEntity
  8
Ebene 1
 62
   179
420
  1709851
370
    18
100
AcDb2dPolyline
 66
     1
 10
0.0
 20
0.0
 30
0.0
  0
VERTEX
  5
2E4
330
2E3
100
AcDbEntity
  8
Ebene 1
 62
   179
420
  1709851
370
    18
100
AcDbVertex
100
AcDb2dVertex
 10
44.65119356522609
 20
-148.5302964580931
 30
0.0
  0
VERTEX
  5
2E5
330
2E3
100
AcDbEntity
  8
Ebene 1
 62
   179
420
  1709851
370
    18
100
AcDbVertex
100
AcDb2dVertex
 10
44.65119356522609
 20
-165.9295789515732
 30
0.0
  0
SEQEND
  5
2E6
330
2E3
100
AcDbEntity
  8
Ebene 1
370
    18
  0
POLYLINE
  5
2E7
330
1F
100
AcDbEntity
  8
Ebene 1
 62
   179
420
  1709851
370
    18
100
AcDb2dPolyline
 66
     1
 10
0.0
 20
0.0
 30
0.0
  0
VERTEX
  5
2E8
330
2E7
100
AcDbEntity
  8
Ebene 1
 62
   179
420
  1709851
370
    18
100
AcDbVertex
100
AcDb2dVertex
 10
44.65119356522609
 20
-165.9295789515732
 30
0.0
  0
VERTEX
  5
2E9
330
2E7
100
AcDbEntity
  8
Ebene 1
 62
   179
420
  1709851
370
    18
100
AcDbVertex
100
AcDb2dVertex
 10
45.15917289452618
 20
-165.9295789515732
 30
0.0
  0
SEQEND
  5
2EA
330
2E7
100
AcDbEntity
  8
Ebene 1
370
    18
  0
POLYLINE
  5
2EB
330
1F
100
AcDbEntity
  8
Ebene 1
 62
   179
420
  1709851
370
    18
100
AcDb2dPolyline
 66
     1
 10
0.0
 20
0.0
 30
0.0
  0
VERTEX
  5
2EC
330
2EB
100
AcDbEntity
  8
Ebene 1
 62
   179
420
  1709851
370
    18
100
AcDbVertex
100
AcDb2dVertex
 10
45.15917289452618
 20
-165.9295789515732
 30
0.0
  0
VERTEX
  5
2ED
330
2EB
100
AcDbEntity
  8
Ebene 1
 62
   179
420
  1709851
370
    18
100
AcDbVertex
100
AcDb2dVertex
 10
45.15917289452618
 20
-147.9163804426216
 30
0.0
  0
SEQEND
  5
2EE
330
2EB
100
AcDbEntity
  8
Ebene 1
370
    18
  0
POLYLINE
  5
2EF
330
1F
100
AcDbEntity
  8
Ebene 1
 62
   179
420
  1709851
370
    18
100
AcDb2dPolyline
 66
     1
 10
0.0
 20
0.0
 30
0.0
  0
VERTEX
  5
2F0
330
2EF
100
AcDbEntity
  8
Ebene 1
 62
   179
420
  1709851
370
    18
100
AcDbVertex
100
AcDb2dVertex
 10
46.15394421589207
 20
-163.3257757838213
 30
0.0
  0
VERTEX
  5
2F1
330
2EF
100
AcDbEntity
  8
Ebene 1
 62
   179
420
  1709851
370
    18
100
AcDbVertex
100
AcDb2dVertex
 10
43.25420734595728
 20
-163.3257757838213
 30
0.0
  0
SEQEND
  5
2F2
330
2EF
100
AcDbEntity
  8
Ebene 1
370
    18
  0
POLYLINE
  5
2F3
330
1F
100
AcDbEntity
  8
Ebene 1
 62
   179
420
  1709851
370
    18
100
AcDb2dPolyline
 66
     1
 10
0.0
 20
0.0
 30
0.0
  0
VERTEX
  5
2F4
330
2F3
100
AcDbEntity
  8
Ebene 1
 62
   179
420
  1709851
370
    18
100
AcDbVertex
100
AcDb2dVertex
 10
42.85199244805437
 20
-171.3266655387656
 30
0.0
  0
VERTEX
  5
2F5
330
2F3
100
AcDbEntity
  8
Ebene 1
 62
   179
420
  1709851
370
    18
100
AcDbVertex
100
AcDb2dVertex
 10
42.85199244805437
 20
-169.0405001747538
 30
0.0
  0
SEQEND
  5
2F6
330
2F3
100
AcDbEntity
  8
Ebene 1
370
    18
  0
POLYLINE
  5
2F7
330
1F
100
AcDbEntity
  8
Ebene 1
 62
   179
420
  1709851
370
    18
100
AcDb2dPolyline
 66
     1
 10
0.0
 20
0.0
 30
0.0
  0
VERTEX
  5
2F8
330
2F7
100
AcDbEntity
  8
Ebene 1
 62
   179
420
  1709851
370
    18
100
AcDbVertex
100
AcDb2dVertex
 10
46.0481797844949
 20
-169.0405001747538
 30
0.0
  0
VERTEX
  5
2F9
330
2F7
100
AcDbEntity
  8
Ebene 1
 62
   179
420
  1709851
370
    18
100
AcDbVertex
100
AcDb2dVertex
 10
46.0481797844949
 20
-171.3266655387656
 30
0.0
  0
SEQEND
  5
2FA
330
2F7
100
AcDbEntity
  8
Ebene 1
370
    18
  0
POLYLINE
  5
2FB
330
1F
100
AcDbEntity
  8
Ebene 1
 62
   179
420
  1709851
370
    35
100
AcDb2dPolyline
 66
     1
 10
0.0
 20
0.0
 30
0.0
  0
VERTEX
  5
2FC
330
2FB
100
AcDbEntity
  8
Ebene 1
 62
   179
420
  1709851
370
    35
100
AcDbVertex
100
AcDb2dVertex
 10
160.8983615049143
 20
-134.6238240223336
 30
0.0
  0
VERTEX
  5
2FD
330
2FB
100
AcDbEntity
  8
Ebene 1
 62
   179
420
  1709851
370
    35
100
AcDbVertex
100
AcDb2dVertex
 10
160.8983615049143
 20
-127.617533333981
 30
0.0
  0
SEQEND
  5
2FE
330
2FB
100
AcDbEntity
  8
Ebene 1
370
    35
  0
POLYLINE
  5
2FF
330
1F
100
AcDbEntity
  8
Ebene 1
 62
   179
420
  1709851
370
    35
100
AcDb2dPolyline
 66
     1
 10
0.0
 20
0.0
 30
0.0
  0
VERTEX
  5
300
330
2FF
100
AcDbEntity
  8
Ebene 1
 62
   179
420
  1709851
370
    35
100
AcDbVertex
100
AcDb2dVertex
 10
160.8983615049143
 20
-136.6133666650654
 30
0.0
  0
VERTEX
  5
301
330
2FF
100
AcDbEntity
  8
Ebene 1
 62
   179
420
  1709851
370
    35
100
AcDbVertex
100
AcDb2dVertex
 10
160.8983615049143
 20
-135.6184230889253
 30
0.0
  0
SEQEND
  5
302
330
2FF
100
AcDbEntity
  8
Ebene 1
370
    35
  0
POLYLINE
  5
303
330
1F
100
AcDbEntity
  8
Ebene 1
 62
   179
420
  1709851
370
    35
100
AcDb2dPolyline
 66
     1
 10
0.0
 20
0.0
 30
0.0
  0
VERTEX
  5
304
330
303
100
AcDbEntity
  8
Ebene 1
 62
   179
420
  1709851
370
    35
100
AcDbVertex
100
AcDb2dVertex
 10
160.8983615049143
 20
-144.6142564200096
 30
0.0
  0
VERTEX
  5
305
330
303
100
AcDbEntity
  8
Ebene 1
 62
   179
420
  1709851
370
    35
100
AcDbVertex
100
AcDb2dVertex
 10
160.8983615049143
 20
-137.6083102412056
 30
0.0
  0
SEQEND
  5
306
330
303
100
AcDbEntity
  8
Ebene 1
370
    35
  0
POLYLINE
  5
307
330
1F
100
AcDbEntity
  8
Ebene 1
 62
   179
420
  1709851
370
    35
100
AcDb2dPolyline
 66
     1
 10
0.0
 20
0.0
 30
0.0
  0
VERTEX
  5
308
330
307
100
AcDbEntity
  8
Ebene 1
 62
   179
420
  1709851
370
    35
100
AcDbVertex
100
AcDb2dVertex
 10
160.8983615049143
 20
-146.60414357229
 30
0.0
  0
VERTEX
  5
309
330
307
100
AcDbEntity
  8
Ebene 1
 62
   179
420
  1709851
370
    35
100
AcDbVertex
100
AcDb2dVertex
 10
160.8983615049143
 20
-145.6091999961498
 30
0.0
  0
SEQEND
  5
30A
330
307
100
AcDbEntity
  8
Ebene 1
370
    35
  0
POLYLINE
  5
30B
330
1F
100
AcDbEntity
  8
Ebene 1
 62
   179
420
  1709851
370
    35
100
AcDb2dPolyline
 66
     1
 10
0.0
 20
0.0
 30
0.0
  0
VERTEX
  5
30C
330
30B
100
AcDbEntity
  8
Ebene 1
 62
   179
420
  1709851
370
    35
100
AcDbVertex
100
AcDb2dVertex
 10
160.8983615049143
 20
-150.5196668460507
 30
0.0
  0
VERTEX
  5
30D
330
30B
100
AcDbEntity
  8
Ebene 1
 62
   179
420
  1709851
370
    35
100
AcDbVertex
100
AcDb2dVertex
 10
160.8983615049143
 20
-147.6201022308901
 30
0.0
  0
SEQEND
  5
30E
330
30B
100
AcDbEntity
  8
Ebene 1
370
    35
  0
INSERT
  5
310
330
1F
100
AcDbEntity
  8
Ebene 1
100
AcDbBlockReference
  2
block 5
 10
0.0
 20
0.0
 30
0.0
  0
ENDSEC
  0
SECTION
  2
OBJECTS
  0
DICTIONARY
  5
C
330
0
100
AcDbDictionary
281
     1
  3
ACAD_GROUP
350
D
  3
ACAD_LAYOUT
350
1A
  3
ACAD_MLINESTYLE
350
17
  3
ACAD_PLOTSETTINGS
350
19
  3
ACAD_PLOTSTYLENAME
350
E
  3
ACAD_TABLESTYLE
350
5E4
  3
ACAD_VISUALSTYLE
350
2A
  0
DICTIONARY
  5
D
102
{ACAD_REACTORS
330
C
102
}
330
C
100
AcDbDictionary
281
     1
  0
DICTIONARY
  5
1A
102
{ACAD_REACTORS
330
C
102
}
330
C
100
AcDbDictionary
281
     1
  3
Layout1
350
1E
  3
Layout2
350
26
  3
Model
350
22
  0
DICTIONARY
  5
17
102
{ACAD_REACTORS
330
C
102
}
330
C
100
AcDbDictionary
281
     1
  3
Standard
350
18
  0
DICTIONARY
  5
19
102
{ACAD_REACTORS
330
C
102
}
330
C
100
AcDbDictionary
281
     1
  0
ACDBDICTIONARYWDFLT
  5
E
102
{ACAD_REACTORS
330
C
102
}
330
C
100
AcDbDictionary
281
     1
  3
Normal
350
F
100
AcDbDictionaryWithDefault
340
F
  0
DICTIONARY
  5
5E4
102
{ACAD_REACTORS
330
C
102
}
330
C
100
AcDbDictionary
281
     1
  0
DICTIONARY
  5
2A
102
{ACAD_REACTORS
330
C
102
}
330
C
100
AcDbDictionary
281
     1
  3
2dWireframe
350
2F
  3
3D Hidden
350
31
  3
3dWireframe
350
30
  3
Basic
350
32
  3
Brighten
350
36
  3
ColorChange
350
3A
  3
Conceptual
350
34
  3
Dim
350
35
  3
Facepattern
350
39
  3
Flat
350
2B
  3
FlatWithEdges
350
2C
  3
Gouraud
350
2D
  3
GouraudWithEdges
350
2E
  3
Linepattern
350
38
  3
Realistic
350
33
  3
Thicken
350
37
  0
LAYOUT
  5
1E
102
{ACAD_REACTORS
330
1A
102
}
330
1A
100
AcDbPlotSettings
  1

  2
none_device
  4

  6

 40
0.0
 41
0.0
 42
0.0
 43
0.0
 44
0.0
 45
0.0
 46
0.0
 47
0.0
 48
0.0
 49
0.0
140
0.0
141
0.0
142
1.0
143
1.0
 70
   688
 72
     0
 73
     0
 74
     5
  7

 75
    16
 76
     0
 77
     2
 78
   300
147
1.0
148
0.0
149
0.0
100
AcDbLayout
  1
Layout1
 70
     1
 71
     1
 10
0.0
 20
0.0
 11
12.0
 21
9.0
 12
0.0
 22
0.0
 32
0.0
 14
1.000000000000000E+20
 24
1.000000000000000E+20
 34
1.000000000000000E+20
 15
-1.000000000000000E+20
 25
-1.000000000000000E+20
 35
-1.000000000000000E+20
146
0.0
 13
0.0
 23
0.0
 33
0.0
 16
1.0
 26
0.0
 36
0.0
 17
0.0
 27
1.0
 37
0.0
 76
     0
330
1B
  0
LAYOUT
  5
26
102
{ACAD_REACTORS
330
1A
102
}
330
1A
100
AcDbPlotSettings
  1

  2
none_device
  4

  6

 40
0.0
 41
0.0
 42
0.0
 43
0.0
 44
0.0
 45
0.0
 46
0.0
 47
0.0
 48
0.0
 49
0.0
140
0.0
141
0.0
142
1.0
143
1.0
 70
   688
 72
     0
 73
     0
 74
     5
  7

 75
    16
 76
     0
 77
     2
 78
   300
147
1.0
148
0.0
149
0.0
100
AcDbLayout
  1
Layout2
 70
     1
 71
     2
 10
0.0
 20
0.0
 11
0.0
 21
0.0
 12
0.0
 22
0.0
 32
0.0
 14
0.0
 24
0.0
 34
0.0
 15
0.0
 25
0.0
 35
0.0
146
0.0
 13
0.0
 23
0.0
 33
0.0
 16
1.0
 26
0.0
 36
0.0
 17
0.0
 27
1.0
 37
0.0
 76
     0
330
23
  0
LAYOUT
  5
22
102
{ACAD_REACTORS
330
1A
102
}
330
1A
100
AcDbPlotSettings
  1

  2
none_device
  4

  6

 40
0.0
 41
0.0
 42
0.0
 43
0.0
 44
0.0
 45
0.0
 46
0.0
 47
0.0
 48
0.0
 49
0.0
140
0.0
141
0.0
142
1.0
143
1.0
 70
  1712
 72
     0
 73
     0
 74
     0
  7

 75
     0
 76
     0
 77
     2
 78
   300
147
1.0
148
0.0
149
0.0
100
AcDbLayout
  1
Model
 70
     1
 71
     0
 10
0.0
 20
0.0
 11
12.0
 21
9.0
 12
0.0
 22
0.0
 32
0.0
 14
1.000000000000000E+20
 24
1.000000000000000E+20
 34
1.000000000000000E+20
 15
-1.000000000000000E+20
 25
-1.000000000000000E+20
 35
-1.000000000000000E+20
146
0.0
 13
0.0
 23
0.0
 33
0.0
 16
1.0
 26
0.0
 36
0.0
 17
0.0
 27
1.0
 37
0.0
 76
     0
330
1F
331
29
  0
MLINESTYLE
  5
18
102
{ACAD_REACTORS
330
17
102
}
330
17
100
AcDbMlineStyle
  2
Standard
 70
     0
  3

 62
   256
 51
90.0
 52
90.0
 71
     2
 49
0.5
 62
   256
  6
BYLAYER
 49
-0.5
 62
   256
  6
BYLAYER
  0
ACDBPLACEHOLDER
  5
F
102
{ACAD_REACTORS
330
E
102
}
330
E
  0
VISUALSTYLE
  5
2F
102
{ACAD_REACTORS
330
2A
102
}
330
2A
100
AcDbVisualStyle
  2
2dWireframe
 70
     4
 71
     0
 72
     2
 73
     0
 90
        0
 40
-0.6
 41
-30.0
 62
     5
 63
     7
421
 16777215
 74
     1
 91
        4
 64
     7
 65
   257
 75
     1
175
     1
 42
1.0
 92
        0
 66
   257
 43
1.0
 76
     1
 77
     6
 78
     2
 67
     7
 79
     5
170
     0
171
     0
290
     0
174
     0
 93
        1
 44
0.0
173
     0
291
     0
 45
0.0
1001
ACAD
1000
AcDbSavedByObjectVersion
1070
     0
  0
VISUALSTYLE
  5
31
102
{ACAD_REACTORS
330
2A
102
}
330
2A
100
AcDbVisualStyle
  2
3D Hidden
 70
     6
 71
     1
 72
     2
 73
     2
 90
        0
 40
-0.6
 41
-30.0
 62
     5
 63
     7
421
 16777215
 74
     2
 91
        2
 64
     7
 65
   257
 75
     2
175
     1
 42
40.0
 92
        0
 66
   257
 43
1.0
 76
     1
 77
     6
 78
     2
 67
     7
 79
     3
170
     0
171
     0
290
     0
174
     0
 93
        1
 44
0.0
173
     0
291
     0
 45
0.0
1001
ACAD
1000
AcDbSavedByObjectVersion
1070
     0
  0
VISUALSTYLE
  5
30
102
{ACAD_REACTORS
330
2A
102
}
330
2A
100
AcDbVisualStyle
  2
3dWireframe
 70
     5
 71
     0
 72
     2
 73
     0
 90
        0
 40
-0.6
 41
-30.0
 62
     5
 63
     7
421
 16777215
 74
     1
 91
        4
 64
     7
 65
   257
 75
     1
175
     1
 42
1.0
 92
        0
 66
   257
 43
1.0
 76
     1
 77
     6
 78
     2
 67
     7
 79
     5
170
     0
171
     0
290
     0
174
     0
 93
        1
 44
0.0
173
     0
291
     0
 45
0.0
1001
ACAD
1000
AcDbSavedByObjectVersion
1070
     0
  0
VISUALSTYLE
  5
32
102
{ACAD_REACTORS
330
2A
102
}
330
2A
100
AcDbVisualStyle
  2
Basic
 70
     7
 71
     1
 72
     0
 73
     1
 90
        0
 40
-0.6
 41
-30.0
 62
     5
 63
     7
421
 16777215
 74
     0
 91
        4
 64
     7
 65
   257
 75
     1
175
     1
 42
1.0
 92
        8
 66
     7
 43
1.0
 76
     1
 77
     6
 78
     2
 67
     7
 79
     5
170
     0
171
     0
290
     0
174
     0
 93
        1
 44
0.0
173
     0
291
     1
 45
0.0
1001
ACAD
1000
AcDbSavedByObjectVersion
1070
     0
  0
VISUALSTYLE
  5
36
102
{ACAD_REACTORS
330
2A
102
}
330
2A
100
AcDbVisualStyle
  2
Brighten
 70
    12
 71
     2
 72
     2
 73
     0
 90
        0
 40
-0.6
 41
-30.0
 62
     5
 63
     7
421
 16777215
 74
     1
 91
        4
 64
     7
 65
   257
 75
     1
175
     1
 42
1.0
 92
        8
 66
     7
 43
1.0
 76
     1
 77
     6
 78
     2
 67
     7
 79
     5
170
     0
171
     0
290
     0
174
     0
 93
        1
 44
50.0
173
     0
291
     1
 45
0.0
1001
ACAD
1000
AcDbSavedByObjectVersion
1070
     0
  0
VISUALSTYLE
  5
3A
102
{ACAD_REACTORS
330
2A
102
}
330
2A
100
AcDbVisualStyle
  2
ColorChange
 70
    16
 71
     2
 72
     2
 73
     3
 90
        0
 40
-0.6
 41
-30.0
 62
     5
 63
     8
421
  8421504
 74
     1
 91
        4
 64
     7
 65
   257
 75
     1
175
     1
 42
1.0
 92
        8
 66
     8
424
  8421504
 43
1.0
 76
     1
 77
     6
 78
     2
 67
     7
 79
     5
170
     0
171
     0
290
     0
174
     0
 93
        1
 44
0.0
173
     0
291
     1
 45
0.0
1001
ACAD
1000
AcDbSavedByObjectVersion
1070
     0
  0
VISUALSTYLE
  5
34
102
{ACAD_REACTORS
330
2A
102
}
330
2A
100
AcDbVisualStyle
  2
Conceptual
 70
     9
 71
     3
 72
     2
 73
     0
 90
        0
 40
-0.6
 41
-30.0
 62
     5
 63
     7
421
 16777215
 74
     2
 91
        2
 64
     7
 65
   257
 75
     1
175
     1
 42
40.0
 92
        8
 66
     7
 43
1.0
 76
     1
 77
     6
 78
     2
 67
     7
 79
     3
170
     0
171
     0
290
     0
174
     0
 93
        1
 44
0.0
173
     0
291
     0
 45
0.0
1001
ACAD
1000
AcDbSavedByObjectVersion
1070
     0
  0
VISUALSTYLE
  5
35
102
{ACAD_REACTORS
330
2A
102
}
330
2A
100
AcDbVisualStyle
  2
Dim
 70
    11
 71
     2
 72
     2
 73
     0
 90
        0
 40
-0.6
 41
-30.0
 62
     5
 63
     7
421
 16777215
 74
     1
 91
        4
 64
     7
 65
   257
 75
     1
175
     1
 42
1.0
 92
        8
 66
     7
 43
1.0
 76
     1
 77
     6
 78
     2
 67
     7
 79
     5
170
     0
171
     0
290
     0
174
     0
 93
        1
 44
-50.0
173
     0
291
     1
 45
0.0
1001
ACAD
1000
AcDbSavedByObjectVersion
1070
     0
  0
VISUALSTYLE
  5
39
102
{ACAD_REACTORS
330
2A
102
}
330
2A
100
AcDbVisualStyle
  2
Facepattern
 70
    15
 71
     2
 72
     2
 73
     0
 90
        0
 40
-0.6
 41
-30.0
 62
     5
 63
     7
421
 16777215
 74
     1
 91
        4
 64
     7
 65
   257
 75
     1
175
     1
 42
1.0
 92
        8
 66
     7
 43
1.0
 76
     1
 77
     6
 78
     2
 67
     7
 79
     5
170
     0
171
     0
290
     0
174
     0
 93
        1
 44
0.0
173
     0
291
     1
 45
0.0
1001
ACAD
1000
AcDbSavedByObjectVersion
1070
     0
  0
VISUALSTYLE
  5
2B
102
{ACAD_REACTORS
330
2A
102
}
330
2A
100
AcDbVisualStyle
  2
Flat
 70
     0
 71
     2
 72
     1
 73
     1
 90
        2
 40
-0.6
 41
30.0
 62
     5
 63
     7
421
 16777215
 74
     0
 91
        4
 64
     7
 65
   257
 75
     1
175
     1
 42
1.0
 92
        8
 66
     7
 43
1.0
 76
     1
 77
     6
 78
     2
 67
     7
 79
     5
170
     0
171
     0
290
     0
174
     0
 93
       13
 44
0.0
173
     0
291
     1
 45
0.0
1001
ACAD
1000
AcDbSavedByObjectVersion
1070
     0
  0
VISUALSTYLE
  5
2C
102
{ACAD_REACTORS
330
2A
102
}
330
2A
100
AcDbVisualStyle
  2
FlatWithEdges
 70
     1
 71
     2
 72
     1
 73
     1
 90
        2
 40
-0.6
 41
30.0
 62
     5
 63
     7
421
 16777215
 74
     1
 91
        4
 64
     7
 65
   257
 75
     1
175
     1
 42
1.0
 92
        0
 66
   257
 43
1.0
 76
     1
 77
     6
 78
     2
 67
     7
 79
     5
170
     0
171
     0
290
     0
174
     0
 93
       13
 44
0.0
173
     0
291
     1
 45
0.0
1001
ACAD
1000
AcDbSavedByObjectVersion
1070
     0
  0
VISUALSTYLE
  5
2D
102
{ACAD_REACTORS
330
2A
102
}
330
2A
100
AcDbVisualStyle
  2
Gouraud
 70
     2
 71
     2
 72
     2
 73
     1
 90
        2
 40
-0.6
 41
30.0
 62
     5
 63
     7
421
 16777215
 74
     0
 91
        4
 64
     7
 65
   257
 75
     1
175
     1
 42
1.0
 92
        0
 66
     7
 43
1.0
 76
     1
 77
     6
 78
     2
 67
     7
 79
     5
170
     0
171
     0
290
     0
174
     0
 93
       13
 44
0.0
173
     0
291
     1
 45
0.0
1001
ACAD
1000
AcDbSavedByObjectVersion
1070
     0
  0
VISUALSTYLE
  5
2E
102
{ACAD_REACTORS
330
2A
102
}
330
2A
100
AcDbVisualStyle
  2
GouraudWithEdges
 70
     3
 71
     2
 72
     2
 73
     1
 90
        2
 40
-0.6
 41
30.0
 62
     5
 63
     7
421
 16777215
 74
     1
 91
        4
 64
     7
 65
   257
 75
     1
175
     1
 42
1.0
 92
        0
 66
   257
 43
1.0
 76
     1
 77
     6
 78
     2
 67
     7
 79
     5
170
     0
171
     0
290
     0
174
     0
 93
       13
 44
0.0
173
     0
291
     1
 45
0.0
1001
ACAD
1000
AcDbSavedByObjectVersion
1070
     0
  0
VISUALSTYLE
  5
38
102
{ACAD_REACTORS
330
2A
102
}
330
2A
100
AcDbVisualStyle
  2
Linepattern
 70
    14
 71
     2
 72
     2
 73
     0
 90
        0
 40
-0.6
 41
-30.0
 62
     5
 63
     7
421
 16777215
 74
     1
 91
        4
 64
     7
 65
   257
 75
     7
175
     7
 42
1.0
 92
        8
 66
     7
 43
1.0
 76
     1
 77
     6
 78
     2
 67
     7
 79
     5
170
     0
171
     0
290
     0
174
     0
 93
        1
 44
0.0
173
     0
291
     1
 45
0.0
1001
ACAD
1000
AcDbSavedByObjectVersion
1070
     0
  0
VISUALSTYLE
  5
33
102
{ACAD_REACTORS
330
2A
102
}
330
2A
100
AcDbVisualStyle
  2
Realistic
 70
     8
 71
     2
 72
     2
 73
     0
 90
        0
 40
-0.6
 41
-30.0
 62
     5
 63
     7
421
 16777215
 74
     1
 91
        0
 64
     7
 65
   257
 75
     1
175
     1
 42
1.0
 92
        8
 66
     8
424
  7895160
 43
1.0
 76
     1
 77
     6
 78
     2
 67
     7
 79
     5
170
     0
171
     0
290
     0
174
     0
 93
       13
 44
0.0
173
     0
291
     0
 45
0.0
1001
ACAD
1000
AcDbSavedByObjectVersion
1070
     0
  0
VISUALSTYLE
  5
37
102
{ACAD_REACTORS
330
2A
102
}
330
2A
100
AcDbVisualStyle
  2
Thicken
 70
    13
 71
     2
 72
     2
 73
     0
 90
        0
 40
-0.6
 41
-30.0
 62
     5
 63
     7
421
 16777215
 74
     1
 91
        4
 64
     7
 65
   257
 75
     1
175
     1
 42
1.0
 92
       12
 66
     7
 43
1.0
 76
     1
 77
     6
 78
     2
 67
     7
 79
     5
170
     0
171
     0
290
     0
174
     0
 93
        1
 44
0.0
173
     0
291
     1
 45
0.0
1001
ACAD
1000
AcDbSavedByObjectVersion
1070
     0
  0
ENDSEC
  0
EOF
