  0
SECTION
  2
HEADER
  9
$ACADVER
  1
AC1018
  9
$ACADMAINTVER
 70
     0
  9
$DWGCODEPAGE
  3
ANSI_1252
  9
$INSBASE
 10
0.0
 20
0.0
 30
0.0
  9
$EXTMIN
 10
-4.306485992394366
 20
-0.31259700103286
 30
-4.306485992394366
  9
$EXTMAX
 10
-3.256496492394366
 20
1.17238814896714
 30
-3.256496492394366
  9
$LIMMIN
 10
-4.306485992394366
 20
-0.31259700103286
  9
$LIMMAX
 10
-3.256496492394366
 20
1.17238814896714
  9
$ORTHOMODE
 70
     0
  9
$REGENMODE
 70
     1
  9
$FILLMODE
 70
     1
  9
$QTEXTMODE
 70
     0
  9
$MIRRTEXT
 70
     1
  9
$LTSCALE
 40
1.0
  9
$ATTMODE
 70
     1
  9
$TEXTSIZE
 40
0.2
  9
$TRACEWID
 40
0.05
  9
$TEXTSTYLE
  7
Standard
  9
$CLAYER
  8
0
  9
$CELTYPE
  6
ByLayer
  9
$CECOLOR
 62
   256
  9
$CELTSCALE
 40
1.0
  9
$DISPSILH
 70
     0
  9
$DIMSCALE
 40
1.0
  9
$DIMASZ
 40
0.18
  9
$DIMEXO
 40
0.0625
  9
$DIMDLI
 40
0.38
  9
$DIMRND
 40
0.0
  9
$DIMDLE
 40
0.0
  9
$DIMEXE
 40
0.18
  9
$DIMTP
 40
0.0
  9
$DIMTM
 40
0.0
  9
$DIMTXT
 40
0.18
  9
$DIMCEN
 40
0.09
  9
$DIMTSZ
 40
0.0
  9
$DIMTOL
 70
     0
  9
$DIMLIM
 70
     0
  9
$DIMTIH
 70
     1
  9
$DIMTOH
 70
     1
  9
$DIMSE1
 70
     0
  9
$DIMSE2
 70
     0
  9
$DIMTAD
 70
     0
  9
$DIMZIN
 70
     0
  9
$DIMBLK
  1

  9
$DIMASO
 70
     1
  9
$DIMSHO
 70
     1
  9
$DIMPOST
  1

  9
$DIMAPOST
  1

  9
$DIMALT
 70
     0
  9
$DIMALTD
 70
     2
  9
$DIMALTF
 40
25.4
  9
$DIMLFAC
 40
1.0
  9
$DIMTOFL
 70
     0
  9
$DIMTVP
 40
0.0
  9
$DIMTIX
 70
     0
  9
$DIMSOXD
 70
     0
  9
$DIMSAH
 70
     0
  9
$DIMBLK1
  1

  9
$DIMBLK2
  1

  9
$DIMSTYLE
  2
Standard
  9
$DIMCLRD
 70
     0
  9
$DIMCLRE
 70
     0
  9
$DIMCLRT
 70
     0
  9
$DIMTFAC
 40
1.0
  9
$DIMGAP
 40
0.09
  9
$DIMJUST
 70
     0
  9
$DIMSD1
 70
     0
  9
$DIMSD2
 70
     0
  9
$DIMTOLJ
 70
     1
  9
$DIMTZIN
 70
     0
  9
$DIMALTZ
 70
     0
  9
$DIMALTTZ
 70
     0
  9
$DIMUPT
 70
     0
  9
$DIMDEC
 70
     4
  9
$DIMTDEC
 70
     4
  9
$DIMALTU
 70
     2
  9
$DIMALTTD
 70
     2
  9
$DIMTXSTY
  7
Standard
  9
$DIMAUNIT
 70
     0
  9
$DIMADEC
 70
     0
  9
$DIMALTRND
 40
0.0
  9
$DIMAZIN
 70
     0
  9
$DIMDSEP
 70
    46
  9
$DIMATFIT
 70
     3
  9
$DIMFRAC
 70
     0
  9
$DIMLDRBLK
  1

  9
$DIMLUNIT
 70
     2
  9
$DIMLWD
 70
    -2
  9
$DIMLWE
 70
    -2
  9
$DIMTMOVE
 70
     0
  9
$LUNITS
 70
     2
  9
$LUPREC
 70
     4
  9
$SKETCHINC
 40
0.1
  9
$FILLETRAD
 40
0.5
  9
$AUNITS
 70
     0
  9
$AUPREC
 70
     0
  9
$MENU
  1
.
  9
$ELEVATION
 40
0.0
  9
$PELEVATION
 40
0.0
  9
$THICKNESS
 40
0.0
  9
$LIMCHECK
 70
     0
  9
$CHAMFERA
 40
0.5
  9
$CHAMFERB
 40
0.5
  9
$CHAMFERC
 40
1.0
  9
$CHAMFERD
 40
0.0
  9
$SKPOLY
 70
     0
  9
$TDCREATE
 40
2456756.396300208
  9
$TDUCREATE
 40
2456756.312966875
  9
$TDUPDATE
 40
2456756.39630022
  9
$TDUUPDATE
 40
2456756.312966886
  9
$TDINDWG
 40
0.0000000116
  9
$TDUSRTIMER
 40
0.0000000116
  9
$USRTIMER
 70
     1
  9
$ANGBASE
 50
0.0
  9
$ANGDIR
 70
     0
  9
$PDMODE
 70
    65
  9
$PDSIZE
 40
0.0
  9
$PLINEWID
 40
0.0
  9
$SPLFRAME
 70
     0
  9
$SPLINETYPE
 70
     6
  9
$SPLINESEGS
 70
     8
  9
$HANDSEED
  5
116
  9
$SURFTAB1
 70
     6
  9
$SURFTAB2
 70
     6
  9
$SURFTYPE
 70
     6
  9
$SURFU
 70
     6
  9
$SURFV
 70
     6
  9
$UCSBASE
  2

  9
$UCSNAME
  2

  9
$UCSORG
 10
0.0
 20
0.0
 30
0.0
  9
$UCSXDIR
 10
1.0
 20
0.0
 30
0.0
  9
$UCSYDIR
 10
0.0
 20
1.0
 30
0.0
  9
$UCSORTHOREF
  2

  9
$UCSORTHOVIEW
 70
     0
  9
$UCSORGTOP
 10
0.0
 20
0.0
 30
0.0
  9
$UCSORGBOTTOM
 10
0.0
 20
0.0
 30
0.0
  9
$UCSORGLEFT
 10
0.0
 20
0.0
 30
0.0
  9
$UCSORGRIGHT
 10
0.0
 20
0.0
 30
0.0
  9
$UCSORGFRONT
 10
0.0
 20
0.0
 30
0.0
  9
$UCSORGBACK
 10
0.0
 20
0.0
 30
0.0
  9
$PUCSBASE
  2

  9
$PUCSNAME
  2

  9
$PUCSORG
 10
0.0
 20
0.0
 30
0.0
  9
$PUCSXDIR
 10
1.0
 20
0.0
 30
0.0
  9
$PUCSYDIR
 10
0.0
 20
1.0
 30
0.0
  9
$PUCSORTHOREF
  2

  9
$PUCSORTHOVIEW
 70
     0
  9
$PUCSORGTOP
 10
0.0
 20
0.0
 30
0.0
  9
$PUCSORGBOTTOM
 10
0.0
 20
0.0
 30
0.0
  9
$PUCSORGLEFT
 10
0.0
 20
0.0
 30
0.0
  9
$PUCSORGRIGHT
 10
0.0
 20
0.0
 30
0.0
  9
$PUCSORGFRONT
 10
0.0
 20
0.0
 30
0.0
  9
$PUCSORGBACK
 10
0.0
 20
0.0
 30
0.0
  9
$USERI1
 70
     0
  9
$USERI2
 70
     0
  9
$USERI3
 70
     0
  9
$USERI4
 70
     0
  9
$USERI5
 70
     0
  9
$USERR1
 40
0.0
  9
$USERR2
 40
0.0
  9
$USERR3
 40
0.0
  9
$USERR4
 40
0.0
  9
$USERR5
 40
0.0
  9
$WORLDVIEW
 70
     1
  9
$SHADEDGE
 70
     3
  9
$SHADEDIF
 70
    70
  9
$TILEMODE
 70
     1
  9
$MAXACTVP
 70
    64
  9
$PINSBASE
 10
0.0
 20
0.0
 30
0.0
  9
$PLIMCHECK
 70
     0
  9
$PEXTMIN
 10
1.000000000000000E+20
 20
1.000000000000000E+20
 30
1.000000000000000E+20
  9
$PEXTMAX
 10
-1.000000000000000E+20
 20
-1.000000000000000E+20
 30
-1.000000000000000E+20
  9
$PLIMMIN
 10
0.0
 20
0.0
  9
$PLIMMAX
 10
12.0
 20
9.0
  9
$UNITMODE
 70
     0
  9
$VISRETAIN
 70
     1
  9
$PLINEGEN
 70
     0
  9
$PSLTSCALE
 70
     1
  9
$TREEDEPTH
 70
  3020
  9
$CMLSTYLE
  2
Standard
  9
$CMLJUST
 70
     0
  9
$CMLSCALE
 40
1.0
  9
$PROXYGRAPHICS
 70
     1
  9
$MEASUREMENT
 70
     1
  9
$CELWEIGHT
370
    -1
  9
$ENDCAPS
280
     0
  9
$JOINSTYLE
280
     0
  9
$LWDISPLAY
290
     0
  9
$INSUNITS
 70
     6
  9
$HYPERLINKBASE
  1

  9
$STYLESHEET
  1

  9
$XEDIT
290
     1
  9
$CEPSNTYPE
380
     0
  9
$PSTYLEMODE
290
     1
  9
$FINGERPRINTGUID
  2
{17DAEAA1-0A31-4E06-83B4-A3499A65E15B}
  9
$VERSIONGUID
  2
{FAEB1C32-E019-11D5-929B-00C0DF256EC4}
  9
$EXTNAMES
290
     1
  9
$PSVPSCALE
 40
0.0
  9
$OLESTARTUP
290
     0
  9
$SORTENTS
280
   127
  9
$INDEXCTL
280
     0
  9
$HIDETEXT
280
     1
  9
$XCLIPFRAME
290
     0
  9
$HALOGAP
280
     0
  9
$OBSCOLOR
 70
   257
  9
$OBSLTYPE
280
     0
  9
$INTERSECTIONDISPLAY
280
     0
  9
$INTERSECTIONCOLOR
 70
   257
  9
$DIMASSOC
280
     2
  9
$PROJECTNAME
  1

  0
ENDSEC
  0
SECTION
  2
CLASSES
  0
CLASS
  1
ACDBDICTIONARYWDFLT
  2
AcDbDictionaryWithDefault
  3
ObjectDBX Classes
 90
        0
 91
       11
280
     0
281
     0
  0
CLASS
  1
SORTENTSTABLE
  2
AcDbSortentsTable
  3
ObjectDBX Classes
 90
        0
 91
       10
280
     0
281
     0
  0
ENDSEC
  0
SECTION
  2
TABLES
  0
TABLE
  2
VPORT
  5
8
330
0
100
AcDbSymbolTable
 70
     1
  0
VPORT
  5
29
330
8
100
AcDbSymbolTableRecord
100
AcDbViewportTableRecord
  2
*Active
 70
     0
 10
0.0
 20
0.0
 11
1.0
 21
1.0
 12
-3.781491242394366
 22
0.4298955739671401
 13
0.0
 23
0.0
 14
0.5
 24
0.5
 15
0.5
 25
0.5
 16
0.0
 26
0.0
 36
1.0
 17
0.0
 27
0.0
 37
0.0
 40
1.78198218
 41
0.8484848484848482
 42
50.0
 43
0.0
 44
0.0
 50
0.0
 51
0.0
 71
     0
 72
   100
 73
     1
 74
     3
 75
     0
 76
     0
 77
     0
 78
     0
281
     0
 65
     1
110
0.0
120
0.0
130
0.0
111
1.0
121
0.0
131
0.0
112
0.0
122
1.0
132
0.0
 79
     0
146
0.0
  0
ENDTAB
  0
TABLE
  2
LTYPE
  5
5
330
0
100
AcDbSymbolTable
 70
     4
  0
LTYPE
  5
14
330
5
100
AcDbSymbolTableRecord
100
AcDbLinetypeTableRecord
  2
ByBlock
 70
     0
  3

 72
    65
 73
     0
 40
0.0
  0
LTYPE
  5
15
330
5
100
AcDbSymbolTableRecord
100
AcDbLinetypeTableRecord
  2
ByLayer
 70
     0
  3

 72
    65
 73
     0
 40
0.0
  0
LTYPE
  5
16
330
5
100
AcDbSymbolTableRecord
100
AcDbLinetypeTableRecord
  2
Continuous
 70
     0
  3
Solid line
 72
    65
 73
     0
 40
0.0
  0
LTYPE
  5
2A
330
5
100
AcDbSymbolTableRecord
100
AcDbLinetypeTableRecord
  2
AUSGEZOGEN
 70
     0
  3
durchgezogene Linie
 72
    65
 73
     0
 40
0.0
  0
LTYPE
  5
2B
330
5
100
AcDbSymbolTableRecord
100
AcDbLinetypeTableRecord
  2
STRICHPUNKT
 70
     0
  3
Strichpunktiert ___ . ___ . ___ . ___ . ___ . _
 72
    65
 73
     4
 40
25.4
 49
12.7
 74
     0
 49
-6.35
 74
     0
 49
0.0
 74
     0
 49
-6.35
 74
     0
  0
LTYPE
  5
2C
330
5
100
AcDbSymbolTableRecord
100
AcDbLinetypeTableRecord
  2
VERDECKT
 70
     0
  3
Kurzgestrichelt __ __ __ __ __ __ __ __ __ __ _
 72
    65
 73
     2
 40
9.524999999999999
 49
6.35
 74
     0
 49
-3.175
 74
     0
  0
ENDTAB
  0
TABLE
  2
LAYER
  5
2
330
0
100
AcDbSymbolTable
 70
     2
  0
LAYER
  5
10
330
2
100
AcDbSymbolTableRecord
100
AcDbLayerTableRecord
  2
0
 70
     0
 62
     7
  6
Continuous
370
    -3
390
F
  0
LAYER
  5
2E
330
2
100
AcDbSymbolTableRecord
100
AcDbLayerTableRecord
  2
STANDARD
 70
     0
 62
     7
  6
AUSGEZOGEN
370
    18
390
F
1001
AcAecLayerStandard
1000

1000
STANDARD
  0
ENDTAB
  0
TABLE
  2
STYLE
  5
3
330
0
100
AcDbSymbolTable
 70
     2
  0
STYLE
  5
11
330
3
100
AcDbSymbolTableRecord
100
AcDbTextStyleTableRecord
  2
Standard
 70
     0
 40
0.0
 41
1.0
 50
0.0
 71
     0
 42
0.2
  3
txt
  4

  0
STYLE
  5
2D
330
3
100
AcDbSymbolTableRecord
100
AcDbTextStyleTableRecord
  2
ARIAL
 70
     0
 40
0.0
 41
1.0
 50
0.0
 71
     0
 42
0.0
  3
ARIAL.TTF
  4

1001
ACAD
1000
Arial
1071
       34
  0
ENDTAB
  0
TABLE
  2
VIEW
  5
6
330
0
100
AcDbSymbolTable
 70
     0
  0
ENDTAB
  0
TABLE
  2
UCS
  5
7
330
0
100
AcDbSymbolTable
 70
     0
  0
ENDTAB
  0
TABLE
  2
APPID
  5
9
330
0
100
AcDbSymbolTable
 70
     3
  0
APPID
  5
12
330
9
100
AcDbSymbolTableRecord
100
AcDbRegAppTableRecord
  2
ACAD
 70
     0
  0
APPID
  5
2F
330
9
100
AcDbSymbolTableRecord
100
AcDbRegAppTableRecord
  2
AcAecLayerStandard
 70
     0
  0
APPID
  5
4E
330
9
100
AcDbSymbolTableRecord
100
AcDbRegAppTableRecord
  2
NEM_ODX
 70
     0
  0
ENDTAB
  0
TABLE
  2
DIMSTYLE
  5
A
330
0
100
AcDbSymbolTable
 70
     1
100
AcDbDimStyleTable
  0
DIMSTYLE
105
27
330
A
100
AcDbSymbolTableRecord
100
AcDbDimStyleTableRecord
  2
Standard
 70
     0
340
11
  0
ENDTAB
  0
TABLE
  2
BLOCK_RECORD
  5
1
330
0
100
AcDbSymbolTable
 70
     1
  0
BLOCK_RECORD
  5
1F
102
{ACAD_XDICTIONARY
360
114
102
}
330
1
100
AcDbSymbolTableRecord
100
AcDbBlockTableRecord
  2
*Model_Space
340
22
  0
BLOCK_RECORD
  5
1B
330
1
100
AcDbSymbolTableRecord
100
AcDbBlockTableRecord
  2
*Paper_Space
340
1E
  0
BLOCK_RECORD
  5
23
330
1
100
AcDbSymbolTableRecord
100
AcDbBlockTableRecord
  2
*Paper_Space0
340
26
  0
ENDTAB
  0
ENDSEC
  0
SECTION
  2
BLOCKS
  0
BLOCK
  5
20
330
1F
100
AcDbEntity
  8
0
100
AcDbBlockBegin
  2
*Model_Space
 70
     0
 71
     0
 10
0.0
 20
0.0
 30
0.0
  3
*Model_Space
  1

  0
ENDBLK
  5
21
330
1F
100
AcDbEntity
  8
0
100
AcDbBlockEnd
  0
BLOCK
  5
1C
330
1B
100
AcDbEntity
 67
     1
  8
0
100
AcDbBlockBegin
  2
*Paper_Space
 70
     0
 71
     0
 10
0.0
 20
0.0
 30
0.0
  3
*Paper_Space
  1

  0
ENDBLK
  5
1D
330
1B
100
AcDbEntity
 67
     1
  8
0
100
AcDbBlockEnd
  0
BLOCK
  5
24
330
23
100
AcDbEntity
  8
0
100
AcDbBlockBegin
  2
*Paper_Space0
 70
     0
 71
     0
 10
0.0
 20
0.0
 30
0.0
  3
*Paper_Space0
  1

  0
ENDBLK
  5
25
330
23
100
AcDbEntity
  8
0
100
AcDbBlockEnd
  0
ENDSEC
  0
SECTION
  2
ENTITIES
  0
LINE
  5
30
330
1F
100
AcDbEntity
  8
STANDARD
  6
AUSGEZOGEN
 62
   240
370
    70
100
AcDbLine
 10
-4.306475492394367
 20
-0.31259700103286
 30
0.0
 11
-4.306475492394367
 21
1.17238814896714
 31
0.0
  0
MTEXT
  5
31
330
1F
100
AcDbEntity
  8
STANDARD
  6
AUSGEZOGEN
 62
     7
370
    18
100
AcDbMText
 10
-4.188319954658517
 20
1.09375041336267
 30
0.0
 40
0.025
 41
0.2712729890620463
 71
     7
 72
     5
  1
\W1.00;FENSTERBANK
  7
ARIAL
 73
     1
 44
1.0
  0
MTEXT
  5
32
330
1F
100
AcDbEntity
  8
STANDARD
  6
AUSGEZOGEN
 62
     7
370
    18
100
AcDbMText
 10
-4.188319954658517
 20
1.05873930225156
 30
0.0
 40
0.0175
 41
0.17325
 71
     7
 72
     5
  1
\W1.00;WINDOW\~SILL
  7
ARIAL
 73
     1
 44
1.0
  0
MTEXT
  5
33
330
1F
100
AcDbEntity
  8
STANDARD
  6
AUSGEZOGEN
 62
     7
370
    18
100
AcDbMText
 10
-4.188319954658517
 20
1.03248930225156
 30
0.0
 40
0.0175
 41
0.2441354213190413
 71
     7
 72
     5
  1
\W1.00;APPUI\~DE\~FENETRE
  7
ARIAL
 73
     1
 44
1.0
  0
LINE
  5
34
330
1F
100
AcDbEntity
  8
STANDARD
  6
AUSGEZOGEN
 62
     7
370
    18
100
AcDbLine
 10
-3.757080853547007
 20
0.62361329156237
 30
0.0
 11
-3.757080848235327
 21
0.63861329156237
 31
0.0
  0
LINE
  5
35
330
1F
100
AcDbEntity
  8
STANDARD
  6
AUSGEZOGEN
 62
     7
370
    18
100
AcDbLine
 10
-3.760080848235327
 20
0.63861329262471
 30
0.0
 11
-3.757080848235327
 21
0.63861329156237
 31
0.0
  0
LINE
  5
36
330
1F
100
AcDbEntity
  8
STANDARD
  6
AUSGEZOGEN
 62
     7
370
    18
100
AcDbLine
 10
-3.760080852573557
 20
0.62636228614676
 30
0.0
 11
-3.760080848235327
 21
0.63861329262471
 31
0.0
  0
LINE
  5
37
330
1F
100
AcDbEntity
  8
STANDARD
  6
AUSGEZOGEN
 62
     7
370
    18
100
AcDbLine
 10
-3.756323494055067
 20
0.6560482987896301
 30
0.0
 11
-3.746323494055066
 21
0.65604829524851
 31
0.0
  0
LINE
  5
38
330
1F
100
AcDbEntity
  8
STANDARD
  6
AUSGEZOGEN
 62
     7
370
    18
100
AcDbLine
 10
-3.756323494055067
 20
0.6560482987896301
 30
0.0
 11
-3.777536705002506
 21
0.63483510286587
 31
0.0
  0
LINE
  5
39
330
1F
100
AcDbEntity
  8
STANDARD
  6
AUSGEZOGEN
 62
     7
370
    18
100
AcDbLine
 10
-3.755080854430286
 20
0.65304829834959
 30
0.0
 11
-3.774536705442536
 21
0.6335924611164201
 31
0.0
  0
LINE
  5
3A
330
1F
100
AcDbEntity
  8
STANDARD
  6
AUSGEZOGEN
 62
     7
370
    18
100
AcDbLine
 10
-3.755080854430286
 20
0.65304829834959
 30
0.0
 11
-3.746323495117406
 21
0.65304829524851
 31
0.0
  0
LINE
  5
3B
330
1F
100
AcDbEntity
  8
STANDARD
  6
AUSGEZOGEN
 62
     7
370
    18
100
AcDbLine
 10
-3.746323495117406
 20
0.65304829524851
 30
0.0
 11
-3.746323494055066
 21
0.65604829524851
 31
0.0
  0
LINE
  5
3C
330
1F
100
AcDbEntity
  8
STANDARD
  6
AUSGEZOGEN
 62
     7
370
    18
100
AcDbLine
 10
-3.859080864120167
 20
0.5895939881924501
 30
0.0
 11
-3.859080855944497
 21
0.61268184445594
 31
0.0
  0
LINE
  5
3D
330
1F
100
AcDbEntity
  8
STANDARD
  6
AUSGEZOGEN
 62
    22
370
    50
100
AcDbLine
 10
-3.559080852541577
 20
0.58959388195895
 30
0.0
 11
-3.859080864120167
 21
0.5895939881924501
 31
0.0
  0
LINE
  5
3E
330
1F
100
AcDbEntity
  8
STANDARD
  6
AUSGEZOGEN
 62
   100
370
    25
100
AcDbLine
 10
-3.755080852337166
 20
0.65304830044271
 30
0.0
 11
-3.755080864120177
 21
0.58959395136484
 31
0.0
  0
LINE
  5
3F
330
1F
100
AcDbEntity
  8
STANDARD
  6
AUSGEZOGEN
 62
   100
370
    25
100
AcDbLine
 10
-3.695080845027507
 20
0.68334280712063
 30
0.0
 11
-3.755080845027506
 21
0.68334281826219
 31
0.0
  0
LINE
  5
40
330
1F
100
AcDbEntity
  8
STANDARD
  6
AUSGEZOGEN
 62
   100
370
    25
100
AcDbLine
 10
-3.695080849669826
 20
0.6583428071206301
 30
0.0
 11
-3.680080849669826
 21
0.65834280433524
 31
0.0
  0
LINE
  5
41
330
1F
100
AcDbEntity
  8
STANDARD
  6
AUSGEZOGEN
 62
   100
370
    25
100
AcDbLine
 10
-3.680080834814407
 20
0.73834280433524
 30
0.0
 11
-3.740080834814406
 21
0.7383428154768
 31
0.0
  0
LINE
  5
42
330
1F
100
AcDbEntity
  8
STANDARD
  6
AUSGEZOGEN
 62
   100
370
    25
100
AcDbLine
 10
-3.740080845027506
 20
0.6833428154768001
 30
0.0
 11
-3.740080834814406
 21
0.7383428154768
 31
0.0
  0
LINE
  5
43
330
1F
100
AcDbEntity
  8
STANDARD
  6
AUSGEZOGEN
 62
   100
370
    25
100
AcDbLine
 10
-3.680080849669826
 20
0.65834280433524
 30
0.0
 11
-3.680080834814407
 21
0.73834280433524
 31
0.0
  0
LINE
  5
44
330
1F
100
AcDbEntity
  8
STANDARD
  6
AUSGEZOGEN
 62
     7
370
    18
100
AcDbLine
 10
-3.680080810501616
 20
0.87834280433523
 30
0.0
 11
-3.680080834814407
 21
0.73834280433524
 31
0.0
  0
LINE
  5
45
330
1F
100
AcDbEntity
  8
STANDARD
  6
AUSGEZOGEN
 62
     7
370
    18
100
AcDbLine
 10
-3.740080810501617
 20
0.8783428154768
 30
0.0
 11
-3.740080834814406
 21
0.7383428154768
 31
0.0
  0
LINE
  5
46
330
1F
100
AcDbEntity
  8
STANDARD
  6
AUSGEZOGEN
 62
     7
370
    18
100
AcDbLine
 10
-3.755080810501617
 20
0.8783428182621901
 30
0.0
 11
-3.755080845027506
 21
0.68334281826219
 31
0.0
  0
LINE
  5
47
330
1F
100
AcDbEntity
  8
STANDARD
  6
AUSGEZOGEN
 62
   100
370
    25
100
AcDbLine
 10
-3.755080845027506
 20
0.68334281826219
 30
0.0
 11
-3.755080851780086
 21
0.65604829834959
 31
0.0
  0
LINE
  5
48
330
1F
100
AcDbEntity
  8
STANDARD
  6
AUSGEZOGEN
 62
   100
370
    25
100
AcDbLine
 10
-3.695080845027507
 20
0.68334280712063
 30
0.0
 11
-3.695080864120177
 21
0.5895939301181401
 31
0.0
  0
LINE
  5
49
330
1F
100
AcDbEntity
  8
STANDARD
  6
AUSGEZOGEN
 62
   100
370
    25
100
AcDbLine
 10
-3.695080866465097
 20
0.6195939004764001
 30
0.0
 11
-3.519080853496837
 21
0.6195938677944801
 31
0.0
  0
LINE
  5
4A
330
1F
100
AcDbEntity
  8
STANDARD
  6
AUSGEZOGEN
 62
     7
370
    18
100
AcDbLine
 10
-3.559080800901746
 20
0.8783427818664201
 30
0.0
 11
-3.559080847265336
 21
0.61959387522219
 31
0.0
  0
LINE
  5
4B
330
1F
100
AcDbEntity
  8
STANDARD
  6
AUSGEZOGEN
 62
   100
370
    25
100
AcDbLine
 10
-3.519080859736966
 20
0.59959389743622
 30
0.0
 11
-3.519080858808517
 21
0.6045938677944801
 31
0.0
  0
LINE
  5
4C
330
1F
100
AcDbEntity
  8
STANDARD
  6
AUSGEZOGEN
 62
   100
370
    25
100
AcDbLine
 10
-3.755080862263247
 20
0.5995939412597
 30
0.0
 11
-3.519080860579056
 21
0.59959389743622
 31
0.0
  0
LINE
  5
4D
330
1F
100
AcDbEntity
  8
STANDARD
  6
AUSGEZOGEN
 62
   100
370
    25
100
AcDbLine
 10
-3.519080860579056
 20
0.59959389743622
 30
0.0
 11
-3.519080853496837
 21
0.6195938677944801
 31
0.0
  0
HATCH
  5
4F
330
1F
100
AcDbEntity
  8
STANDARD
  6
AUSGEZOGEN
 62
     7
370
    18
100
AcDbHatch
 10
0.0
 20
0.0
 30
0.0
210
0.0
220
0.0
230
1.0
  2
SCHRAFFUR_28
 70
     0
 71
     0
 91
        1
 92
        0
 93
        4
 72
     1
 10
-3.519080862263257
 20
0.59959389743622
 11
-3.519080855181047
 21
0.61959383815275
 72
     1
 10
-3.519080855181047
 20
0.61959383815275
 11
-3.695080866465097
 21
0.6195939004764001
 72
     1
 10
-3.695080866465097
 20
0.6195939004764001
 11
-3.695080873547306
 21
0.5995939597598801
 72
     1
 10
-3.695080873547306
 20
0.5995939597598801
 11
-3.519080862263257
 21
0.59959389743622
 97
        0
 75
     0
 76
     2
 52
45.00000000000001
 41
0.005
 77
     0
 78
     2
 53
135.0
 43
0.0
 44
0.0
 45
-0.0106066017177982
 46
-0.0106066017177982
 79
     0
 53
135.0
 43
-0.0053033008588991
 44
-0.0053033008588991
 45
-0.0106066017177982
 46
-0.0106066017177982
 79
     0
 98
        0
1001
ACAD
1010
0.0
1020
0.0
1030
0.0
1001
NEM_ODX
1002
{
1000
BZM_DEPEND
1070
     1
1000
BZM_SCALE
1040
5.0
1000
SCHRAFFUR_28
1002
}
  0
LINE
  5
50
330
1F
100
AcDbEntity
  8
STANDARD
  6
AUSGEZOGEN
 62
    22
370
    50
100
AcDbLine
 10
-3.859080864120167
 20
0.5895939881924501
 30
0.0
 11
-3.859080975303466
 21
-0.00915489513094
 31
0.0
  0
HATCH
  5
51
330
1F
100
AcDbEntity
  8
STANDARD
  6
STRICHPUNKT
 62
     7
370
    18
100
AcDbHatch
 10
0.0
 20
0.0
 30
0.0
210
0.0
220
0.0
230
1.0
  2
SCHRAFFUR_35
 70
     0
 71
     0
 91
        1
 92
        0
 93
        4
 72
     1
 10
-3.559080975303476
 20
-0.00915495083875
 11
-3.559080763279536
 21
0.58959388195892
 72
     1
 10
-3.559080763279536
 20
0.58959388195892
 11
-3.859080864120167
 21
0.5895939881924501
 72
     1
 10
-3.859080864120167
 20
0.5895939881924501
 11
-3.859081076144106
 21
-0.00915484460522
 72
     1
 10
-3.859081076144106
 20
-0.00915484460522
 11
-3.559080975303476
 21
-0.00915495083875
 97
        0
 75
     0
 76
     2
 52
-45.00000000000001
 41
0.005
 77
     0
 78
     2
 53
44.99999999999999
 43
0.0
 44
0.0
 45
-0.0353553390593274
 46
0.0353553390593274
 79
     0
 53
44.99999999999999
 43
-0.0176776695296637
 44
0.0176776695296637
 45
-0.0353553390593274
 46
0.0353553390593274
 79
     0
 98
        0
1001
ACAD
1010
0.0
1020
0.0
1030
0.0
1001
NEM_ODX
1002
{
1000
BZM_DEPEND
1070
     1
1000
BZM_SCALE
1040
5.0
1000
SCHRAFFUR_35
1002
}
  0
LINE
  5
52
330
1F
100
AcDbEntity
  8
STANDARD
  6
AUSGEZOGEN
 62
     7
370
    18
100
AcDbLine
 10
-3.559080761422597
 20
0.59959390486391
 30
0.0
 11
-3.559080763279536
 21
0.58959388195892
 31
0.0
  0
LINE
  5
53
330
1F
100
AcDbEntity
  8
STANDARD
  6
AUSGEZOGEN
 62
     7
370
    18
100
AcDbLine
 10
-3.777536705002506
 20
0.63483510286587
 30
0.0
 11
-3.777536707481287
 21
0.62783510286587
 31
0.0
  0
LINE
  5
54
330
1F
100
AcDbEntity
  8
STANDARD
  6
AUSGEZOGEN
 62
     7
370
    18
100
AcDbLine
 10
-3.774536705442536
 20
0.6335924611164201
 30
0.0
 11
-3.774536707388346
 21
0.62809756779412
 31
0.0
  0
HATCH
  5
55
330
1F
100
AcDbEntity
  8
STANDARD
  6
AUSGEZOGEN
 62
     0
370
    18
100
AcDbHatch
 10
0.0
 20
0.0
 30
0.0
210
0.0
220
0.0
230
1.0
  2
SOLID
 70
     1
 71
     0
 91
        1
 92
        3
 72
     0
 73
     1
 93
        8
 10
-3.746323495117406
 20
0.65304829524851
 10
-3.746323494055066
 20
0.65604829524851
 10
-3.756323494055067
 20
0.6560482987896301
 10
-3.777536705002506
 20
0.63483510286587
 10
-3.777536707481287
 20
0.62783510286587
 10
-3.774536707388346
 20
0.62809756779412
 10
-3.774536705442536
 20
0.6335924611164201
 10
-3.755080852337166
 20
0.65304830044271
 97
        0
 75
     0
 76
     1
 98
        0
  0
LINE
  5
56
330
1F
100
AcDbEntity
  8
STANDARD
  6
AUSGEZOGEN
 62
     7
370
    18
100
AcDbLine
 10
-3.774536707388346
 20
0.62809756779412
 30
0.0
 11
-3.777536707481287
 21
0.62783510286587
 31
0.0
  0
LINE
  5
57
330
1F
100
AcDbEntity
  8
STANDARD
  6
AUSGEZOGEN
 62
     7
370
    18
100
AcDbLine
 10
-3.998603764103997
 20
0.8783442570319101
 30
0.0
 11
-3.998603815034397
 21
0.60407175042622
 31
0.0
  0
LINE
  5
58
330
1F
100
AcDbEntity
  8
STANDARD
  6
STRICHPUNKT
 62
     7
370
    18
100
AcDbLine
 10
-4.018603764103997
 20
0.8783442641141401
 30
0.0
 11
-3.539080810501627
 21
0.8783427781525601
 31
0.0
  0
LINE
  5
59
330
1F
100
AcDbEntity
  8
STANDARD
  6
AUSGEZOGEN
 62
    52
370
    18
100
AcDbLine
 10
-3.706080834814407
 20
0.73834280916325
 30
0.0
 11
-3.706080810501617
 21
0.87834280916325
 31
0.0
  0
LINE
  5
5A
330
1F
100
AcDbEntity
  8
STANDARD
  6
AUSGEZOGEN
 62
    52
370
    18
100
AcDbLine
 10
-3.714080834814407
 20
0.7383428106487899
 30
0.0
 11
-3.714080810501617
 21
0.8783428106487899
 31
0.0
  0
LINE
  5
5B
330
1F
100
AcDbEntity
  8
STANDARD
  6
AUSGEZOGEN
 62
   240
370
    70
100
AcDbLine
 10
-4.306485992394366
 20
-0.31259700103286
 30
0.0
 11
-3.256496492394366
 21
-0.31259700103286
 31
0.0
  0
LINE
  5
5C
330
1F
100
AcDbEntity
  8
STANDARD
  6
AUSGEZOGEN
 62
   240
370
    70
100
AcDbLine
 10
-3.256496492394366
 20
-0.31259700103286
 30
0.0
 11
-3.256496492394366
 21
1.17238814896714
 31
0.0
  0
LINE
  5
5D
330
1F
100
AcDbEntity
  8
STANDARD
  6
AUSGEZOGEN
 62
   240
370
    70
100
AcDbLine
 10
-4.306485992394366
 20
1.17238814896714
 30
0.0
 11
-4.306485992394366
 21
-0.31259700103286
 31
0.0
  0
LINE
  5
5E
330
1F
100
AcDbEntity
  8
STANDARD
  6
AUSGEZOGEN
 62
    52
370
    13
100
AcDbLine
 10
-3.859080966018827
 20
0.04084510486906
 30
0.0
 11
-3.939080957166037
 21
0.06584513319799
 31
0.0
  0
LINE
  5
5F
330
1F
100
AcDbEntity
  8
STANDARD
  6
AUSGEZOGEN
 62
    52
370
    13
100
AcDbLine
 10
-3.939080957166037
 20
0.06584513319799
 30
0.0
 11
-3.859080948313246
 21
0.09084510486905
 31
0.0
  0
LINE
  5
60
330
1F
100
AcDbEntity
  8
STANDARD
  6
AUSGEZOGEN
 62
    52
370
    13
100
AcDbLine
 10
-3.859080948313246
 20
0.09084510486905
 30
0.0
 11
-3.939080939460457
 21
0.11584513319799
 31
0.0
  0
LINE
  5
61
330
1F
100
AcDbEntity
  8
STANDARD
  6
AUSGEZOGEN
 62
    52
370
    13
100
AcDbLine
 10
-3.939080939460457
 20
0.11584513319799
 30
0.0
 11
-3.859080930607666
 21
0.14084510486905
 31
0.0
  0
LINE
  5
62
330
1F
100
AcDbEntity
  8
STANDARD
  6
AUSGEZOGEN
 62
    52
370
    13
100
AcDbLine
 10
-3.859080930607666
 20
0.14084510486905
 30
0.0
 11
-3.939080921754867
 21
0.16584513319798
 31
0.0
  0
LINE
  5
63
330
1F
100
AcDbEntity
  8
STANDARD
  6
AUSGEZOGEN
 62
    52
370
    13
100
AcDbLine
 10
-3.939080921754867
 20
0.16584513319798
 30
0.0
 11
-3.859080912902086
 21
0.19084510486905
 31
0.0
  0
LINE
  5
64
330
1F
100
AcDbEntity
  8
STANDARD
  6
AUSGEZOGEN
 62
    52
370
    13
100
AcDbLine
 10
-3.859080912902086
 20
0.19084510486905
 30
0.0
 11
-3.939080904049287
 21
0.21584513319798
 31
0.0
  0
LINE
  5
65
330
1F
100
AcDbEntity
  8
STANDARD
  6
AUSGEZOGEN
 62
    52
370
    13
100
AcDbLine
 10
-3.939080886883507
 20
-0.00915488027554
 30
0.0
 11
-3.939080836978806
 21
0.25959401652135
 31
0.0
  0
LINE
  5
66
330
1F
100
AcDbEntity
  8
STANDARD
  6
AUSGEZOGEN
 62
    52
370
    13
100
AcDbLine
 10
-3.859080983724417
 20
-0.00915489513094
 30
0.0
 11
-3.939080974871616
 21
0.01584513319799
 31
0.0
  0
LINE
  5
67
330
1F
100
AcDbEntity
  8
STANDARD
  6
AUSGEZOGEN
 62
    52
370
    13
100
AcDbLine
 10
-3.939080974871616
 20
0.01584513319799
 30
0.0
 11
-3.859080966018827
 21
0.04084510486906
 31
0.0
  0
LINE
  5
68
330
1F
100
AcDbEntity
  8
STANDARD
  6
AUSGEZOGEN
 62
    52
370
    13
100
AcDbLine
 10
-3.859080824374167
 20
0.4408451048690301
 30
0.0
 11
-3.939080815521376
 21
0.4658451331979601
 31
0.0
  0
LINE
  5
69
330
1F
100
AcDbEntity
  8
STANDARD
  6
AUSGEZOGEN
 62
    52
370
    13
100
AcDbLine
 10
-3.939080780110206
 20
0.5658451331979599
 30
0.0
 11
-3.863084347223246
 21
0.58959398893587
 31
0.0
  0
LINE
  5
6A
330
1F
100
AcDbEntity
  8
STANDARD
  6
AUSGEZOGEN
 62
    52
370
    13
100
AcDbLine
 10
-3.761080864120177
 20
0.58959395348951
 30
0.0
 11
-3.768080852414317
 21
0.6226509202877301
 31
0.0
  0
LINE
  5
6B
330
1F
100
AcDbEntity
  8
STANDARD
  6
AUSGEZOGEN
 62
    52
370
    13
100
AcDbLine
 10
-3.768080852414317
 20
0.6226509202877301
 30
0.0
 11
-3.775080864120177
 21
0.58959395844707
 31
0.0
  0
LINE
  5
6C
330
1F
100
AcDbEntity
  8
STANDARD
  6
AUSGEZOGEN
 62
    52
370
    13
100
AcDbLine
 10
-3.775080864120177
 20
0.58959395844707
 30
0.0
 11
-3.782080852848047
 21
0.62142608395593
 31
0.0
  0
LINE
  5
6D
330
1F
100
AcDbEntity
  8
STANDARD
  6
AUSGEZOGEN
 62
    52
370
    13
100
AcDbLine
 10
-3.782080852848047
 20
0.62142608395593
 30
0.0
 11
-3.789080864120177
 21
0.58959396340463
 31
0.0
  0
LINE
  5
6E
330
1F
100
AcDbEntity
  8
STANDARD
  6
AUSGEZOGEN
 62
    52
370
    13
100
AcDbLine
 10
-3.789080864120177
 20
0.58959396340463
 30
0.0
 11
-3.796080853281777
 21
0.62020124762413
 31
0.0
  0
LINE
  5
6F
330
1F
100
AcDbEntity
  8
STANDARD
  6
AUSGEZOGEN
 62
    52
370
    13
100
AcDbLine
 10
-3.796080853281777
 20
0.62020124762413
 30
0.0
 11
-3.803080864120177
 21
0.5895939683622
 31
0.0
  0
LINE
  5
70
330
1F
100
AcDbEntity
  8
STANDARD
  6
AUSGEZOGEN
 62
    52
370
    13
100
AcDbLine
 10
-3.803080864120177
 20
0.5895939683622
 30
0.0
 11
-3.810080853715506
 21
0.61897641129233
 31
0.0
  0
LINE
  5
71
330
1F
100
AcDbEntity
  8
STANDARD
  6
AUSGEZOGEN
 62
    52
370
    13
100
AcDbLine
 10
-3.810080853715506
 20
0.61897641129233
 30
0.0
 11
-3.817080864120177
 21
0.58959397331976
 31
0.0
  0
LINE
  5
72
330
1F
100
AcDbEntity
  8
STANDARD
  6
AUSGEZOGEN
 62
    52
370
    13
100
AcDbLine
 10
-3.817080864120177
 20
0.58959397331976
 30
0.0
 11
-3.824080854149236
 21
0.61775157496053
 31
0.0
  0
LINE
  5
73
330
1F
100
AcDbEntity
  8
STANDARD
  6
AUSGEZOGEN
 62
    52
370
    13
100
AcDbLine
 10
-3.824080854149236
 20
0.61775157496053
 30
0.0
 11
-3.831080864120177
 21
0.5895939782773201
 31
0.0
  0
LINE
  5
74
330
1F
100
AcDbEntity
  8
STANDARD
  6
AUSGEZOGEN
 62
    52
370
    13
100
AcDbLine
 10
-3.831080864120177
 20
0.5895939782773201
 30
0.0
 11
-3.838080854582967
 21
0.6165267386287301
 31
0.0
  0
LINE
  5
75
330
1F
100
AcDbEntity
  8
STANDARD
  6
AUSGEZOGEN
 62
    52
370
    13
100
AcDbLine
 10
-3.838080854582967
 20
0.6165267386287301
 30
0.0
 11
-3.845080864120167
 21
0.5895939832348801
 31
0.0
  0
LINE
  5
76
330
1F
100
AcDbEntity
  8
STANDARD
  6
AUSGEZOGEN
 62
    52
370
    13
100
AcDbLine
 10
-3.845080864120167
 20
0.5895939832348801
 30
0.0
 11
-3.852080855016697
 21
0.61530190229693
 31
0.0
  0
LINE
  5
77
330
1F
100
AcDbEntity
  8
STANDARD
  6
AUSGEZOGEN
 62
    52
370
    13
100
AcDbLine
 10
-3.852080855016697
 20
0.61530190229693
 30
0.0
 11
-3.859080864120167
 21
0.5895939881924501
 31
0.0
  0
LINE
  5
78
330
1F
100
AcDbEntity
  8
STANDARD
  6
AUSGEZOGEN
 62
    52
370
    13
100
AcDbLine
 10
-3.755263840517106
 20
0.62377225895562
 30
0.0
 11
-3.761080864120177
 21
0.58959395348951
 31
0.0
  0
LINE
  5
79
330
1F
100
AcDbEntity
  8
STANDARD
  6
AUSGEZOGEN
 62
    52
370
    13
100
AcDbLine
 10
-3.866215652537946
 20
0.6090461737639701
 30
0.0
 11
-3.873080864120167
 21
0.5895939931500099
 31
0.0
  0
LINE
  5
7A
330
1F
100
AcDbEntity
  8
STANDARD
  6
AUSGEZOGEN
 62
    52
370
    13
100
AcDbLine
 10
-3.873080864120167
 20
0.5895939931500099
 30
0.0
 11
-3.880087909102926
 21
0.60783251352694
 31
0.0
  0
LINE
  5
7B
330
1F
100
AcDbEntity
  8
STANDARD
  6
AUSGEZOGEN
 62
    52
370
    13
100
AcDbLine
 10
-3.880087909102926
 20
0.60783251352694
 30
0.0
 11
-3.887080864120167
 21
0.58959399810757
 31
0.0
  0
LINE
  5
7C
330
1F
100
AcDbEntity
  8
STANDARD
  6
AUSGEZOGEN
 62
    52
370
    13
100
AcDbLine
 10
-3.887080864120167
 20
0.58959399810757
 30
0.0
 11
-3.894085667890557
 21
0.6066078733129601
 31
0.0
  0
LINE
  5
7D
330
1F
100
AcDbEntity
  8
STANDARD
  6
AUSGEZOGEN
 62
    52
370
    13
100
AcDbLine
 10
-3.894085667890557
 20
0.6066078733129601
 30
0.0
 11
-3.901080864120166
 21
0.58959400306514
 31
0.0
  0
LINE
  5
7E
330
1F
100
AcDbEntity
  8
STANDARD
  6
AUSGEZOGEN
 62
    52
370
    13
100
AcDbLine
 10
-3.901080864120166
 20
0.58959400306514
 30
0.0
 11
-3.908056678135346
 21
0.6053855732837101
 31
0.0
  0
LINE
  5
7F
330
1F
100
AcDbEntity
  8
STANDARD
  6
AUSGEZOGEN
 62
    52
370
    13
100
AcDbLine
 10
-3.908056678135346
 20
0.6053855732837101
 30
0.0
 11
-3.915080864120167
 21
0.5895940080227
 31
0.0
  0
LINE
  5
80
330
1F
100
AcDbEntity
  8
STANDARD
  6
AUSGEZOGEN
 62
    52
370
    13
100
AcDbLine
 10
-3.917280675135487
 20
0.5895939989997301
 30
0.0
 11
-3.924252252393716
 21
0.6039686499157401
 31
0.0
  0
LINE
  5
81
330
1F
100
AcDbEntity
  8
STANDARD
  6
AUSGEZOGEN
 62
    52
370
    13
100
AcDbLine
 10
-3.924252252393716
 20
0.6039686499157401
 30
0.0
 11
-3.931280675135487
 21
0.5895940039572901
 31
0.0
  0
LINE
  5
82
330
1F
100
AcDbEntity
  8
STANDARD
  6
AUSGEZOGEN
 62
    52
370
    13
100
AcDbLine
 10
-3.931280675135487
 20
0.5895940039572901
 30
0.0
 11
-3.939080773271857
 21
0.60267132773319
 31
0.0
  0
LINE
  5
83
330
1F
100
AcDbEntity
  8
STANDARD
  6
AUSGEZOGEN
 62
    52
370
    13
100
AcDbLine
 10
-3.862080861223837
 20
0.5977731375879901
 30
0.0
 11
-3.866215652537946
 21
0.6090461737639701
 31
0.0
  0
LINE
  5
84
330
1F
100
AcDbEntity
  8
STANDARD
  6
AUSGEZOGEN
 62
    22
370
    18
100
AcDbLine
 10
-3.559080864120187
 20
0.58959388195895
 30
0.0
 11
-3.559080975303476
 21
-0.00915495083875
 31
0.0
  0
MTEXT
  5
85
330
1F
100
AcDbEntity
  8
STANDARD
  6
AUSGEZOGEN
 62
     7
370
    18
100
AcDbMText
 10
-4.188657976709076
 20
-0.24501985310236
 30
0.0
 40
0.009
 41
0.8964604604692507
 71
     7
 72
     5
  1
\W0.85;THESE\~ARE\~NOT\~BINDING\~CONSTRUCTION\~PROPOSALS\~WHICH\~HAVE\~TO\~BE\~VERIFIED\~FOR\~EACH\~INDIVIDUAL\~PROJECT\~AS\~REGARDS\~APPLICABILITY\~AND\~CORRECTNESS.
  7
ARIAL
 73
     1
 44
1.0
  0
MTEXT
  5
86
330
1F
100
AcDbEntity
  8
STANDARD
  6
AUSGEZOGEN
 62
     7
370
    18
100
AcDbMText
 10
-4.188657976709076
 20
-0.22702003310236
 30
0.0
 40
0.009
 41
0.8975001858667647
 71
     7
 72
     5
  1
\W0.91;DIES\~SIND\~UNVERBINDLICHE\~KONSTRUKTIONSVORSCHLÄGE,\~DIE\~FÜR\~JEDES\~PROJEKT\~AUF\~ANWENDBARKEIT\~UND\~RICHTIGKEIT\~GEPRÜFT\~WERDEN\~MÜSSEN.
  7
ARIAL
 73
     1
 44
1.0
  0
MTEXT
  5
87
330
1F
100
AcDbEntity
  8
STANDARD
  6
AUSGEZOGEN
 62
     7
370
    18
100
AcDbMText
 10
-4.188657976709076
 20
-0.26301967310236
 30
0.0
 40
0.009
 41
0.8958042950981262
 71
     7
 72
     5
  1
\W0.80;IL\~S'\~AGIT\~DE\~PROPOSITIONS\~DE\~CONSTRUCTION\~SANS\~ENGAGEMENT\~DE\~NOTRE\~PART\~QUI\~DOIVENT\~ETRE\~VERIFIEES\~POUR\~CHAQUE\~PROJET\~A\~LEUR\~EXACTITUDE\~ET\~FAISABILITE.
  7
ARIAL
 73
     1
 44
1.0
  0
LINE
  5
88
330
1F
100
AcDbEntity
  8
STANDARD
  6
AUSGEZOGEN
 62
   240
370
    70
100
AcDbLine
 10
-3.256506992394367
 20
1.17238814896714
 30
0.0
 11
-3.256506992394367
 21
-0.31259700103286
 31
0.0
  0
MTEXT
  5
89
330
1F
100
AcDbEntity
  8
STANDARD
  6
AUSGEZOGEN
 62
     7
370
    18
100
AcDbMText
 10
-4.188165578461587
 20
0.9843192133696802
 30
0.0
 40
0.0225
 41
0.2355245098039216
 71
     7
 72
     5
  1
\W1.00;KeraTwin\~\~\~K20\~
  7
ARIAL
 73
     1
 44
1.0
  0
MTEXT
  5
8A
330
1F
100
AcDbEntity
  8
STANDARD
  6
AUSGEZOGEN
 62
     7
370
    18
100
AcDbMText
 10
-4.055106859275536
 20
0.9934365396144
 30
0.0
 40
0.01
 41
0.024254406130268
 71
     7
 72
     5
  1
{\fArial|i0|b0;\H0.017500;\W0.911111;\C7;®}\P
  7
ARIAL
 73
     1
 44
1.0
  0
LINE
  5
8B
330
1F
100
AcDbEntity
  8
STANDARD
  6
AUSGEZOGEN
 62
    52
370
    13
100
AcDbLine
 10
-3.939080925646676
 20
0.41584510431684
 30
0.0
 11
-3.859080824374167
 21
0.4408451048690301
 31
0.0
  0
LINE
  5
8C
330
1F
100
AcDbEntity
  8
STANDARD
  6
AUSGEZOGEN
 62
    52
370
    13
100
AcDbLine
 10
-3.859080934499477
 20
0.39084507598791
 30
0.0
 11
-3.939080925646676
 21
0.41584510431684
 31
0.0
  0
LINE
  5
8D
330
1F
100
AcDbEntity
  8
STANDARD
  6
AUSGEZOGEN
 62
    52
370
    13
100
AcDbLine
 10
-3.939081035771987
 20
0.36584507543571
 30
0.0
 11
-3.859080934499477
 21
0.39084507598791
 31
0.0
  0
LINE
  5
8E
330
1F
100
AcDbEntity
  8
STANDARD
  6
AUSGEZOGEN
 62
    52
370
    13
100
AcDbLine
 10
-3.859081044624786
 20
0.34084504710678
 30
0.0
 11
-3.939081035771987
 21
0.36584507543571
 31
0.0
  0
LINE
  5
8F
330
1F
100
AcDbEntity
  8
STANDARD
  6
AUSGEZOGEN
 62
    52
370
    13
100
AcDbLine
 10
-3.939081145897297
 20
0.31584504655459
 30
0.0
 11
-3.859081044624786
 21
0.34084504710678
 31
0.0
  0
LINE
  5
90
330
1F
100
AcDbEntity
  8
STANDARD
  6
AUSGEZOGEN
 62
    52
370
    13
100
AcDbLine
 10
-3.859081154750096
 20
0.29084501822566
 30
0.0
 11
-3.939081145897297
 21
0.31584504655459
 31
0.0
  0
LINE
  5
91
330
1F
100
AcDbEntity
  8
STANDARD
  6
AUSGEZOGEN
 62
    52
370
    13
100
AcDbLine
 10
-3.939081256022607
 20
0.26584501767346
 30
0.0
 11
-3.859081154750096
 21
0.29084501822566
 31
0.0
  0
LINE
  5
92
330
1F
100
AcDbEntity
  8
STANDARD
  6
AUSGEZOGEN
 62
    52
370
    13
100
AcDbLine
 10
-3.859081264875396
 20
0.24084498934453
 30
0.0
 11
-3.939081256022607
 21
0.26584501767346
 31
0.0
  0
LINE
  5
93
330
1F
100
AcDbEntity
  8
STANDARD
  6
AUSGEZOGEN
 62
    52
370
    13
100
AcDbLine
 10
-3.939081366147916
 20
0.21584498879234
 30
0.0
 11
-3.859081264875396
 21
0.24084498934453
 31
0.0
  0
LINE
  5
94
330
1F
100
AcDbEntity
  8
STANDARD
  6
AUSGEZOGEN
 62
     7
370
    13
100
AcDbLine
 10
-3.939080864120167
 20
0.58959400304786
 30
0.0
 11
-3.939080864120167
 21
0.6026713197850301
 31
0.0
  0
LINE
  5
95
330
1F
100
AcDbEntity
  8
STANDARD
  6
AUSGEZOGEN
 62
   240
370
    70
100
AcDbLine
 10
-3.256496492394366
 20
1.17238814896714
 30
0.0
 11
-4.306485992394366
 21
1.17238814896714
 31
0.0
  0
LINE
  5
96
330
1F
100
AcDbEntity
  8
STANDARD
  6
AUSGEZOGEN
 62
     7
370
    18
100
AcDbLine
 10
-3.760080852573557
 20
0.62636228614676
 30
0.0
 11
-4.039787709694717
 21
0.60189120684378
 31
0.0
  0
LINE
  5
97
330
1F
100
AcDbEntity
  8
STANDARD
  6
AUSGEZOGEN
 62
     7
370
    18
100
AcDbLine
 10
-4.039787709694717
 20
0.60189120684378
 30
0.0
 11
-4.039787731498537
 21
0.54031791676453
 31
0.0
  0
LINE
  5
98
330
1F
100
AcDbEntity
  8
STANDARD
  6
AUSGEZOGEN
 62
     7
370
    18
100
AcDbLine
 10
-4.039787731498537
 20
0.54031791676453
 30
0.0
 11
-4.023524269772167
 21
0.5565813669727401
 31
0.0
  0
LINE
  5
99
330
1F
100
AcDbEntity
  8
STANDARD
  6
AUSGEZOGEN
 62
     7
370
    18
100
AcDbLine
 10
-4.036787728933838
 20
0.54756055638931
 30
0.0
 11
-4.025645589364548
 21
0.55870268806748
 31
0.0
  0
LINE
  5
9A
330
1F
100
AcDbEntity
  8
STANDARD
  6
AUSGEZOGEN
 62
     7
370
    18
100
AcDbLine
 10
-4.036787710668167
 20
0.5991422122594
 30
0.0
 11
-4.036787728933838
 21
0.54756055638931
 31
0.0
  0
LINE
  5
9B
330
1F
100
AcDbEntity
  8
STANDARD
  6
AUSGEZOGEN
 62
     7
370
    18
100
AcDbLine
 10
-4.023524269772167
 20
0.5565813669727401
 30
0.0
 11
-4.025645589364548
 21
0.55870268806748
 31
0.0
  0
HATCH
  5
9C
330
1F
100
AcDbEntity
  8
STANDARD
  6
AUSGEZOGEN
 62
     0
370
    18
100
AcDbHatch
 10
0.0
 20
0.0
 30
0.0
210
0.0
220
0.0
230
1.0
  2
SOLID
 70
     1
 71
     0
 91
        1
 92
        3
 72
     0
 73
     1
 93
       10
 10
-4.036787710668167
 20
0.5991422122594
 10
-3.757080853547007
 20
0.62361329156237
 10
-3.757080848235327
 20
0.63861329156237
 10
-3.760080848235327
 20
0.63861329262471
 10
-3.760080852573557
 20
0.62636228614676
 10
-4.039787709694717
 20
0.60189120684378
 10
-4.039787731498537
 20
0.54031791676453
 10
-4.023524269772167
 20
0.5565813669727401
 10
-4.025645589364548
 20
0.55870268806748
 10
-4.036787728933838
 20
0.54756055638931
 97
        0
 75
     0
 76
     1
 98
        0
  0
LINE
  5
9D
330
1F
100
AcDbEntity
  8
STANDARD
  6
AUSGEZOGEN
 62
     7
370
    18
100
AcDbLine
 10
-4.031787712290588
 20
0.5945605546187501
 30
0.0
 11
-4.031787725392717
 21
0.5575605546187501
 31
0.0
  0
LINE
  5
9E
330
1F
100
AcDbEntity
  8
STANDARD
  6
AUSGEZOGEN
 62
     7
370
    18
100
AcDbLine
 10
-4.034787711317137
 20
0.5973095492031401
 30
0.0
 11
-4.034787725392717
 21
0.5575605556810901
 31
0.0
  0
LINE
  5
9F
330
1F
100
AcDbEntity
  8
STANDARD
  6
AUSGEZOGEN
 62
     7
370
    18
100
AcDbLine
 10
-4.031787725392717
 20
0.5575605546187501
 30
0.0
 11
-4.034787725392717
 21
0.5575605556810901
 31
0.0
  0
LINE
  5
A0
330
1F
100
AcDbEntity
  8
STANDARD
  6
AUSGEZOGEN
 62
     7
370
    18
100
AcDbLine
 10
-3.859080855944497
 20
0.61268184445594
 30
0.0
 11
-4.034787711317137
 21
0.5973095492031401
 31
0.0
  0
LINE
  5
A1
330
1F
100
AcDbEntity
  8
STANDARD
  6
AUSGEZOGEN
 62
     7
370
    18
100
AcDbLine
 10
-3.862080857103826
 20
0.6094079200150699
 30
0.0
 11
-4.031787712290588
 21
0.5945605546187501
 31
0.0
  0
LINE
  5
A2
330
1F
100
AcDbEntity
  8
STANDARD
  6
AUSGEZOGEN
 62
     7
370
    18
100
AcDbLine
 10
-3.755080857770537
 20
0.6237882678062701
 30
0.0
 11
-4.036787710668167
 21
0.5991422122594
 31
0.0
  0
LWPOLYLINE
  5
A3
330
1F
100
AcDbEntity
  8
STANDARD
  6
AUSGEZOGEN
 62
     7
370
    18
100
AcDbPolyline
 90
        2
 70
     1
 43
0.0
 10
-4.039787709694717
 20
0.60189120684378
 10
-4.039787709694717
 20
0.60189120684378
  0
LINE
  5
A4
330
1F
100
AcDbEntity
  8
STANDARD
  6
STRICHPUNKT
 62
   220
370
    35
100
AcDbLine
 10
-3.877080892449098
 20
0.5095939940612101
 30
0.0
 11
-3.779080892449106
 21
0.5095939598635201
 31
0.0
  0
LINE
  5
A5
330
1F
100
AcDbEntity
  8
STANDARD
  6
AUSGEZOGEN
 62
     7
370
    18
100
AcDbLine
 10
-3.859080886403291
 20
0.46959398869771
 30
0.0
 11
-3.862080906613565
 21
0.46959398925479
 31
0.0
  0
LINE
  5
A6
330
1F
100
AcDbEntity
  8
STANDARD
  6
AUSGEZOGEN
 62
   100
370
    18
100
AcDbLine
 10
-3.864080864120166
 20
0.25959398819245
 30
0.0
 11
-3.864080864120166
 21
0.41959398819245
 31
0.0
  0
LINE
  5
A7
330
1F
100
AcDbEntity
  8
STANDARD
  6
STRICHPUNKT
 62
   220
370
    35
100
AcDbLine
 10
-3.877080864120167
 20
0.28909398819245
 30
0.0
 11
-3.759080864120167
 21
0.28909398819245
 31
0.0
  0
LINE
  5
A8
330
1F
100
AcDbEntity
  8
STANDARD
  6
STRICHPUNKT
 62
   220
370
    35
100
AcDbLine
 10
-3.877080864120167
 20
0.39009398819245
 30
0.0
 11
-3.759080864120167
 21
0.39009398819245
 31
0.0
  0
LINE
  5
A9
330
1F
100
AcDbEntity
  8
STANDARD
  6
VERDECKT
 62
     7
370
    18
100
AcDbLine
 10
-3.867080864120167
 20
0.25959398819245
 30
0.0
 11
-3.867080864120167
 21
0.41959398819245
 31
0.0
  0
ARC
  5
AA
330
1F
100
AcDbEntity
  8
STANDARD
  6
VERDECKT
 62
     7
370
    18
100
AcDbCircle
 10
-3.931080864120167
 20
0.39159398819245
 30
0.0
 40
0.0025
100
AcDbArc
 50
0.0
 51
180.0
  0
ARC
  5
AB
330
1F
100
AcDbEntity
  8
STANDARD
  6
VERDECKT
 62
     7
370
    18
100
AcDbCircle
 10
-3.931080864120167
 20
0.37159398819245
 30
0.0
 40
0.0025
100
AcDbArc
 50
180.0
 51
0.0
  0
ARC
  5
AC
330
1F
100
AcDbEntity
  8
STANDARD
  6
VERDECKT
 62
     7
370
    18
100
AcDbCircle
 10
-3.931080864120167
 20
0.34959398819245
 30
0.0
 40
0.0025
100
AcDbArc
 50
0.0
 51
180.0
  0
ARC
  5
AD
330
1F
100
AcDbEntity
  8
STANDARD
  6
VERDECKT
 62
     7
370
    18
100
AcDbCircle
 10
-3.931080864120167
 20
0.32959398819245
 30
0.0
 40
0.0025
100
AcDbArc
 50
180.0
 51
0.0
  0
ARC
  5
AE
330
1F
100
AcDbEntity
  8
STANDARD
  6
VERDECKT
 62
     7
370
    18
100
AcDbCircle
 10
-3.931080864120167
 20
0.30759398819245
 30
0.0
 40
0.0025
100
AcDbArc
 50
0.0
 51
180.0
  0
ARC
  5
AF
330
1F
100
AcDbEntity
  8
STANDARD
  6
VERDECKT
 62
     7
370
    18
100
AcDbCircle
 10
-3.931080864120167
 20
0.28759398819245
 30
0.0
 40
0.0025
100
AcDbArc
 50
180.0
 51
0.0
  0
LINE
  5
B0
330
1F
100
AcDbEntity
  8
STANDARD
  6
VERDECKT
 62
     7
370
    18
100
AcDbLine
 10
-3.928580864120167
 20
0.28759398819245
 30
0.0
 11
-3.928580864120167
 21
0.30759398819245
 31
0.0
  0
LINE
  5
B1
330
1F
100
AcDbEntity
  8
STANDARD
  6
VERDECKT
 62
     7
370
    18
100
AcDbLine
 10
-3.933580864120167
 20
0.30759398819245
 30
0.0
 11
-3.933580864120167
 21
0.28759398819245
 31
0.0
  0
LINE
  5
B2
330
1F
100
AcDbEntity
  8
STANDARD
  6
VERDECKT
 62
     7
370
    18
100
AcDbLine
 10
-3.933580864120167
 20
0.32959398819245
 30
0.0
 11
-3.933580864120167
 21
0.34959398819245
 31
0.0
  0
LINE
  5
B3
330
1F
100
AcDbEntity
  8
STANDARD
  6
VERDECKT
 62
     7
370
    18
100
AcDbLine
 10
-3.928580864120167
 20
0.34959398819245
 30
0.0
 11
-3.928580864120167
 21
0.32959398819245
 31
0.0
  0
LINE
  5
B4
330
1F
100
AcDbEntity
  8
STANDARD
  6
VERDECKT
 62
     7
370
    18
100
AcDbLine
 10
-3.928580864120167
 20
0.37159398819245
 30
0.0
 11
-3.928580864120167
 21
0.39159398819245
 31
0.0
  0
LINE
  5
B5
330
1F
100
AcDbEntity
  8
STANDARD
  6
VERDECKT
 62
     7
370
    18
100
AcDbLine
 10
-3.933580864120167
 20
0.39159398819245
 30
0.0
 11
-3.933580864120167
 21
0.37159398819245
 31
0.0
  0
LINE
  5
B6
330
1F
100
AcDbEntity
  8
STANDARD
  6
VERDECKT
 62
   100
370
    18
100
AcDbLine
 10
-3.944080864120167
 20
0.41959398819245
 30
0.0
 11
-3.944080864120167
 21
0.25959398819245
 31
0.0
  0
LINE
  5
B7
330
1F
100
AcDbEntity
  8
STANDARD
  6
AUSGEZOGEN
 62
   100
370
    18
100
AcDbLine
 10
-3.911336345981216
 20
0.25959398819245
 30
0.0
 11
-3.859080864120167
 21
0.25959398819245
 31
0.0
  0
LINE
  5
B8
330
1F
100
AcDbEntity
  8
STANDARD
  6
VERDECKT
 62
     7
370
    18
100
AcDbLine
 10
-3.911336345981216
 20
0.25959398819245
 30
0.0
 11
-3.944080864120167
 21
0.25959398819245
 31
0.0
  0
LINE
  5
B9
330
1F
100
AcDbEntity
  8
STANDARD
  6
AUSGEZOGEN
 62
    52
370
    18
100
AcDbLine
 10
-3.939080775700217
 20
0.58959400304785
 30
0.0
 11
-3.862080864120167
 21
0.5895939887495301
 31
0.0
  0
LINE
  5
BA
330
1F
100
AcDbEntity
  8
STANDARD
  6
AUSGEZOGEN
 62
    52
370
    13
100
AcDbLine
 10
-3.939081016730056
 20
0.15862856173909
 30
0.0
 11
-3.939080855895172
 21
0.58959400304786
 31
0.0
  0
LINE
  5
BB
330
1F
100
AcDbEntity
  8
STANDARD
  6
AUSGEZOGEN
 62
    52
370
    13
100
AcDbLine
 10
-3.862080877743877
 20
0.49178262824616
 30
0.0
 11
-3.939080797815786
 21
0.51584513319796
 31
0.0
  0
LINE
  5
BC
330
1F
100
AcDbEntity
  8
STANDARD
  6
AUSGEZOGEN
 62
    52
370
    13
100
AcDbLine
 10
-3.939080815521376
 20
0.4658451331979601
 30
0.0
 11
-3.862080878072897
 21
0.48990758372129
 31
0.0
  0
LINE
  5
BD
330
1F
100
AcDbEntity
  8
STANDARD
  6
AUSGEZOGEN
 62
    52
370
    13
100
AcDbLine
 10
-3.862080868970232
 20
0.5417826310374001
 30
0.0
 11
-3.939080780110206
 21
0.5658451331979599
 31
0.0
  0
LINE
  5
BE
330
1F
100
AcDbEntity
  8
STANDARD
  6
AUSGEZOGEN
 62
     7
370
    18
100
AcDbLine
 10
-3.862080881637382
 20
0.46959398925478
 30
0.0
 11
-3.862080857103826
 21
0.6094079200150699
 31
0.0
  0
LINE
  5
BF
330
1F
100
AcDbEntity
  8
STANDARD
  6
AUSGEZOGEN
 62
    52
370
    13
100
AcDbLine
 10
-3.939080797815786
 20
0.51584513319796
 30
0.0
 11
-3.862080869299252
 21
0.5399075809300601
 31
0.0
  0
LINE
  5
C0
330
1F
100
AcDbEntity
  8
STANDARD
  6
AUSGEZOGEN
 62
     7
370
    18
100
AcDbLine
 10
-3.961336346481198
 20
0.5687166147589799
 30
0.0
 11
-3.961336346481198
 21
0.48871661475898
 31
0.0
  0
LINE
  5
C1
330
1F
100
AcDbEntity
  8
STANDARD
  6
AUSGEZOGEN
 62
     7
370
    18
100
AcDbLine
 10
-3.961336345981216
 20
-0.00915487930452
 30
0.0
 11
-3.961336345981216
 21
0.58076021044209
 31
0.0
  0
LINE
  5
C2
330
1F
100
AcDbEntity
  8
STANDARD
  6
VERDECKT
 62
     7
370
    18
100
AcDbLine
 10
-3.959336345981217
 20
0.58076021044209
 30
0.0
 11
-3.959336345981217
 21
-0.00915487966106
 31
0.0
  0
LINE
  5
C3
330
1F
100
AcDbEntity
  8
STANDARD
  6
AUSGEZOGEN
 62
     7
370
    18
100
AcDbLine
 10
-3.961336345981216
 20
0.58076021044209
 30
0.0
 11
-3.939080866097784
 21
0.58076021044209
 31
0.0
  0
LINE
  5
C4
330
1F
100
AcDbEntity
  8
STANDARD
  6
VERDECKT
 62
     7
370
    18
100
AcDbLine
 10
-3.911336345981216
 20
0.25959398819245
 30
0.0
 11
-3.911336345981216
 21
-0.00915488819107
 31
0.0
  0
LINE
  5
C5
330
1F
100
AcDbEntity
  8
STANDARD
  6
VERDECKT
 62
     7
370
    18
100
AcDbLine
 10
-3.911336345981216
 20
0.41959398819245
 30
0.0
 11
-3.944080864120167
 21
0.41959398819245
 31
0.0
  0
LINE
  5
C6
330
1F
100
AcDbEntity
  8
STANDARD
  6
AUSGEZOGEN
 62
     7
370
    18
100
AcDbLine
 10
-3.911336345981216
 20
0.41959398819245
 30
0.0
 11
-3.911336345981216
 21
0.25959398819245
 31
0.0
  0
LINE
  5
C7
330
1F
100
AcDbEntity
  8
STANDARD
  6
AUSGEZOGEN
 62
   100
370
    18
100
AcDbLine
 10
-3.859080864120167
 20
0.41959398819245
 30
0.0
 11
-3.911336345981216
 21
0.41959398819245
 31
0.0
  0
LINE
  5
C8
330
1F
100
AcDbEntity
  8
STANDARD
  6
VERDECKT
 62
     7
370
    18
100
AcDbLine
 10
-3.911336345981216
 20
0.41959398819245
 30
0.0
 11
-3.911336345981216
 21
0.58076021044209
 31
0.0
  0
LINE
  5
C9
330
1F
100
AcDbEntity
  8
STANDARD
  6
VERDECKT
 62
     7
370
    18
100
AcDbLine
 10
-3.911336345981216
 20
0.58076021044209
 30
0.0
 11
-3.939080866097784
 21
0.58076021044209
 31
0.0
  0
CIRCLE
  5
CA
330
1F
100
AcDbEntity
  8
STANDARD
  6
AUSGEZOGEN
 62
     7
370
    18
100
AcDbCircle
 10
-3.931080864120167
 20
0.40659398819245
 30
0.0
 40
0.005
  0
CIRCLE
  5
CB
330
1F
100
AcDbEntity
  8
STANDARD
  6
AUSGEZOGEN
 62
     7
370
    18
100
AcDbCircle
 10
-3.931080864120167
 20
0.40659398819245
 30
0.0
 40
0.0015
  0
CIRCLE
  5
CC
330
1F
100
AcDbEntity
  8
STANDARD
  6
AUSGEZOGEN
 62
     7
370
    18
100
AcDbCircle
 10
-3.931080864120167
 20
0.27259398819245
 30
0.0
 40
0.0015
  0
CIRCLE
  5
CD
330
1F
100
AcDbEntity
  8
STANDARD
  6
AUSGEZOGEN
 62
     7
370
    18
100
AcDbCircle
 10
-3.931080864120167
 20
0.27259398819245
 30
0.0
 40
0.005
  0
LINE
  5
CE
330
1F
100
AcDbEntity
  8
STANDARD
  6
STRICHPUNKT
 62
     7
370
    18
100
AcDbLine
 10
-4.032340983724406
 20
-0.00915486537183
 30
0.0
 11
-3.539080983724417
 21
-0.0091549545526
 31
0.0
  0
LINE
  5
CF
330
1F
100
AcDbEntity
  8
STANDARD
  6
AUSGEZOGEN
 62
     7
370
    25
100
AcDbLine
 10
-4.003080864120165
 20
0.5587166147589699
 30
0.0
 11
-3.983080864120236
 21
0.5587166147589699
 31
0.0
  0
LINE
  5
D0
330
1F
100
AcDbEntity
  8
STANDARD
  6
VERDECKT
 62
     7
370
    13
100
AcDbLine
 10
-3.997080864120226
 20
0.5587166147589699
 30
0.0
 11
-3.997080864120226
 21
-0.00915487194739
 31
0.0
  0
LINE
  5
D1
330
1F
100
AcDbEntity
  8
STANDARD
  6
AUSGEZOGEN
 62
     7
370
    25
100
AcDbLine
 10
-4.003080864120165
 20
0.5587166147589699
 30
0.0
 11
-4.003080864120165
 21
-0.00915487083324
 31
0.0
  0
LINE
  5
D2
330
1F
100
AcDbEntity
  8
STANDARD
  6
AUSGEZOGEN
 62
     7
370
    25
100
AcDbLine
 10
-3.983080864120236
 20
0.5587166147589699
 30
0.0
 11
-3.983080864120236
 21
-0.00915487454709
 31
0.0
  0
LINE
  5
D3
330
1F
100
AcDbEntity
  8
STANDARD
  6
VERDECKT
 62
     7
370
    13
100
AcDbLine
 10
-3.989086345981205
 20
0.5587166147589699
 30
0.0
 11
-3.989086345981205
 21
-0.00915487343192
 31
0.0
  0
LINE
  5
D4
330
1F
100
AcDbEntity
  8
STANDARD
  6
AUSGEZOGEN
 62
     7
370
    18
100
AcDbLine
 10
-3.976336346481196
 20
0.5637166147589799
 30
0.0
 11
-3.976336346481197
 21
0.5657166147589799
 31
0.0
  0
LINE
  5
D5
330
1F
100
AcDbEntity
  8
STANDARD
  6
AUSGEZOGEN
 62
     7
370
    18
100
AcDbLine
 10
-3.979336346481197
 20
0.5657166147589799
 30
0.0
 11
-3.979336346481197
 21
0.5637166147589799
 31
0.0
  0
LINE
  5
D6
330
1F
100
AcDbEntity
  8
STANDARD
  6
AUSGEZOGEN
 62
     7
370
    18
100
AcDbLine
 10
-3.979336346481197
 20
0.5657166147589799
 30
0.0
 11
-3.976336346481197
 21
0.5657166147589799
 31
0.0
  0
LINE
  5
D7
330
1F
100
AcDbEntity
  8
STANDARD
  6
AUSGEZOGEN
 62
     7
370
    18
100
AcDbLine
 10
-3.976336346481181
 20
0.51221661475898
 30
0.0
 11
-3.976336346481181
 21
0.51421661475898
 31
0.0
  0
LINE
  5
D8
330
1F
100
AcDbEntity
  8
STANDARD
  6
AUSGEZOGEN
 62
     7
370
    18
100
AcDbLine
 10
-3.979336346481181
 20
0.51421661475898
 30
0.0
 11
-3.979336346481181
 21
0.51221661475898
 31
0.0
  0
LINE
  5
D9
330
1F
100
AcDbEntity
  8
STANDARD
  6
AUSGEZOGEN
 62
     7
370
    18
100
AcDbLine
 10
-3.976336346481181
 20
0.51221661475898
 30
0.0
 11
-3.979336346481181
 21
0.51221661475898
 31
0.0
  0
LINE
  5
DA
330
1F
100
AcDbEntity
  8
STANDARD
  6
AUSGEZOGEN
 62
     7
370
    18
100
AcDbLine
 10
-3.976336346481196
 20
0.5637166147589799
 30
0.0
 11
-3.976336346481181
 21
0.51421661475898
 31
0.0
  0
LINE
  5
DB
330
1F
100
AcDbEntity
  8
STANDARD
  6
AUSGEZOGEN
 62
     7
370
    18
100
AcDbLine
 10
-3.979336346481181
 20
0.51421661475898
 30
0.0
 11
-3.979336346481197
 21
0.5637166147589799
 31
0.0
  0
ARC
  5
DC
330
1F
100
AcDbEntity
  8
STANDARD
  6
AUSGEZOGEN
 62
     7
370
    18
100
AcDbCircle
 10
-3.978836346481199
 20
0.55565999043195
 30
0.0
 40
0.0015
100
AcDbArc
 50
180.0
 51
240.0000000000181
  0
LINE
  5
DD
330
1F
100
AcDbEntity
  8
STANDARD
  6
AUSGEZOGEN
 62
     7
370
    18
100
AcDbLine
 10
-3.980336346481199
 20
0.56221661475898
 30
0.0
 11
-3.980336346481199
 21
0.55565999043195
 31
0.0
  0
LINE
  5
DE
330
1F
100
AcDbEntity
  8
STANDARD
  6
AUSGEZOGEN
 62
     7
370
    18
100
AcDbLine
 10
-3.980336346481199
 20
0.562273239086
 30
0.0
 11
-3.980336346481199
 21
0.56221661475898
 31
0.0
  0
ARC
  5
DF
330
1F
100
AcDbEntity
  8
STANDARD
  6
AUSGEZOGEN
 62
     7
370
    18
100
AcDbCircle
 10
-3.978836346481199
 20
0.562273239086
 30
0.0
 40
0.0015
100
AcDbArc
 50
120.0000000000198
 51
180.0
  0
LINE
  5
E0
330
1F
100
AcDbEntity
  8
STANDARD
  6
AUSGEZOGEN
 62
     7
370
    18
100
AcDbLine
 10
-3.979336346481199
 20
0.55421661475898
 30
0.0
 11
-3.979586346481199
 21
0.55436095232627
 31
0.0
  0
LINE
  5
E1
330
1F
100
AcDbEntity
  8
STANDARD
  6
AUSGEZOGEN
 62
     7
370
    18
100
AcDbLine
 10
-3.979586346481201
 20
0.56357227719168
 30
0.0
 11
-3.979336346481201
 21
0.5637166147589799
 31
0.0
  0
LINE
  5
E2
330
1F
100
AcDbEntity
  8
STANDARD
  6
AUSGEZOGEN
 62
     7
370
    18
100
AcDbLine
 10
-3.982336346481212
 20
0.5657166147589799
 30
0.0
 11
-3.979336346481212
 21
0.5657166147589799
 31
0.0
  0
ARC
  5
E3
330
1F
100
AcDbEntity
  8
STANDARD
  6
AUSGEZOGEN
 62
     7
370
    18
100
AcDbCircle
 10
-3.987086346481212
 20
0.56221661475897
 30
0.0
 40
0.0015
100
AcDbArc
 50
270.0
 51
90.0
  0
LINE
  5
E4
330
1F
100
AcDbEntity
  8
STANDARD
  6
AUSGEZOGEN
 62
     7
370
    18
100
AcDbLine
 10
-3.980211287907518
 20
0.5425828570342001
 30
0.0
 11
-3.982119236475308
 21
0.53963108141927
 31
0.0
  0
ARC
  5
E5
330
1F
100
AcDbEntity
  8
STANDARD
  6
AUSGEZOGEN
 62
     7
370
    18
100
AcDbCircle
 10
-3.977080240306506
 20
0.5363740094810401
 30
0.0
 40
0.003
100
AcDbArc
 50
176.1196137784912
 51
192.122456821004
  0
ARC
  5
E6
330
1F
100
AcDbEntity
  8
STANDARD
  6
AUSGEZOGEN
 62
     7
370
    18
100
AcDbCircle
 10
-3.977080240306506
 20
0.5363740094810401
 30
0.0
 40
0.003
100
AcDbArc
 50
147.1224568210018
 51
176.1196137784912
  0
ARC
  5
E7
330
1F
100
AcDbEntity
  8
STANDARD
  6
AUSGEZOGEN
 62
     7
370
    18
100
AcDbCircle
 10
-3.977080240306506
 20
0.5363740094810401
 30
0.0
 40
0.006
100
AcDbArc
 50
147.1224568210032
 51
176.1196137784907
  0
ARC
  5
E8
330
1F
100
AcDbEntity
  8
STANDARD
  6
AUSGEZOGEN
 62
     7
370
    18
100
AcDbCircle
 10
-3.977080240306506
 20
0.5363740094810401
 30
0.0
 40
0.0059999999999999
100
AcDbArc
 50
176.1196137784907
 51
192.1224568210029
  0
LINE
  5
E9
330
1F
100
AcDbEntity
  8
STANDARD
  6
AUSGEZOGEN
 62
     7
370
    18
100
AcDbLine
 10
-3.982946446322174
 20
0.5351139987740401
 30
0.0
 11
-3.979405405565183
 21
0.51862804792058
 31
0.0
  0
ARC
  5
EA
330
1F
100
AcDbEntity
  8
STANDARD
  6
AUSGEZOGEN
 62
     7
370
    18
100
AcDbCircle
 10
-3.982338508573017
 20
0.51799804256708
 30
0.0
 40
0.0030000000000001
100
AcDbArc
 50
356.1196137784918
 51
12.12245682100192
  0
LINE
  5
EB
330
1F
100
AcDbEntity
  8
STANDARD
  6
AUSGEZOGEN
 62
     7
370
    18
100
AcDbLine
 10
-3.979336346481186
 20
0.5325921238513001
 30
0.0
 11
-3.98001334331434
 21
0.5357440041275401
 31
0.0
  0
LINE
  5
EC
330
1F
100
AcDbEntity
  8
STANDARD
  6
AUSGEZOGEN
 62
     7
370
    18
100
AcDbLine
 10
-3.979599738390907
 20
0.53800254545015
 30
0.0
 11
-3.979336346481188
 21
0.5384100374703301
 31
0.0
  0
LINE
  5
ED
330
1F
100
AcDbEntity
  8
STANDARD
  6
AUSGEZOGEN
 62
     7
370
    18
100
AcDbLine
 10
-3.97933634648119
 20
0.54393647358883
 30
0.0
 11
-3.980211287907518
 21
0.5425828570342001
 31
0.0
  0
LINE
  5
EE
330
1F
100
AcDbEntity
  8
STANDARD
  6
VERDECKT
 62
     7
370
    13
100
AcDbLine
 10
-3.994586346481207
 20
0.54946661475897
 30
0.0
 11
-3.990086346481208
 21
0.54946661475897
 31
0.0
  0
ARC
  5
EF
330
1F
100
AcDbEntity
  8
STANDARD
  6
VERDECKT
 62
     7
370
    13
100
AcDbCircle
 10
-3.989586346481207
 20
0.55087206324361
 30
0.0
 40
0.0004999999999999
100
AcDbArc
 50
0.0
 51
21.41671403304937
  0
LINE
  5
F0
330
1F
100
AcDbEntity
  8
STANDARD
  6
VERDECKT
 62
     7
370
    13
100
AcDbLine
 10
-3.989086346481207
 20
0.55046661475897
 30
0.0
 11
-3.989086346481207
 21
0.55087206324361
 31
0.0
  0
ARC
  5
F1
330
1F
100
AcDbEntity
  8
STANDARD
  6
VERDECKT
 62
     7
370
    13
100
AcDbCircle
 10
-3.990086346481208
 20
0.55046661475897
 30
0.0
 40
0.001
100
AcDbArc
 50
270.0
 51
0.0
  0
LINE
  5
F2
330
1F
100
AcDbEntity
  8
STANDARD
  6
VERDECKT
 62
     7
370
    13
100
AcDbLine
 10
-3.990051821149335
 20
0.5534281018453
 30
0.0
 11
-3.989120871813082
 21
0.55105463742944
 31
0.0
  0
ARC
  5
F3
330
1F
100
AcDbEntity
  8
STANDARD
  6
VERDECKT
 62
     7
370
    13
100
AcDbCircle
 10
-3.989586346481208
 20
0.55361067603113
 30
0.0
 40
0.0004999999999999
100
AcDbArc
 50
180.0
 51
201.4167140330612
  0
LINE
  5
F4
330
1F
100
AcDbEntity
  8
STANDARD
  6
VERDECKT
 62
     7
370
    13
100
AcDbLine
 10
-3.99008634648121
 20
0.5587166147589699
 30
0.0
 11
-3.990086346481208
 21
0.55361067603113
 31
0.0
  0
ARC
  5
F5
330
1F
100
AcDbEntity
  8
STANDARD
  6
VERDECKT
 62
     7
370
    13
100
AcDbCircle
 10
-3.994586346481207
 20
0.55146661475897
 30
0.0
 40
0.002
100
AcDbArc
 50
180.0
 51
270.0
  0
LINE
  5
F6
330
1F
100
AcDbEntity
  8
STANDARD
  6
AUSGEZOGEN
 62
     7
370
    18
100
AcDbLine
 10
-3.983080864120236
 20
0.5587166147589699
 30
0.0
 11
-3.980336346481199
 21
0.5587166147589699
 31
0.0
  0
LINE
  5
F7
330
1F
100
AcDbEntity
  8
STANDARD
  6
VERDECKT
 62
     7
370
    13
100
AcDbLine
 10
-3.993080864120164
 20
0.56571661475897
 30
0.0
 11
-3.994586346481212
 21
0.56571661475897
 31
0.0
  0
HATCH
  5
F8
330
1F
100
AcDbEntity
  8
STANDARD
  6
AUSGEZOGEN
 62
     9
420
 13092807
370
    18
100
AcDbHatch
 10
0.0
 20
0.0
 30
0.0
210
0.0
220
0.0
230
1.0
  2
SOLID
 70
     1
 71
     0
 91
        1
 92
        3
 72
     0
 73
     1
 93
        4
 10
-4.003080864120165
 20
0.5587166147589699
 10
-4.003080864120165
 20
-0.00915487454709
 10
-3.983080864120236
 20
-0.00915487454709
 10
-3.983080864120236
 20
0.5587166147589699
 97
        0
 75
     0
 76
     1
 98
        0
  0
MTEXT
  5
F9
330
1F
100
AcDbEntity
  8
STANDARD
  6
AUSGEZOGEN
 62
     7
370
    18
100
AcDbMText
 10
-3.405205465782334
 20
-0.2079145031447065
 30
0.0
 40
0.009
 41
0.1106855434615973
 71
     7
 72
     5
  1
\W0.91;STAND:\~MÄRZ\~2013
  7
ARIAL
 73
     1
 44
1.0
  0
LINE
  5
FA
330
1F
100
AcDbEntity
  8
STANDARD
  6
AUSGEZOGEN
 62
     7
370
    18
100
AcDbLine
 10
-3.994586346481214
 20
0.5657166147589686
 30
0.0
 11
-3.982336346481212
 21
0.5657166147589799
 31
0.0
  0
LINE
  5
FB
330
1F
100
AcDbEntity
  8
STANDARD
  6
VERDECKT
 62
     7
370
    13
100
AcDbLine
 10
-3.99658634648121
 20
0.5587166147589699
 30
0.0
 11
-3.996586346481207
 21
0.55146661475897
 31
0.0
  0
LINE
  5
FC
330
1F
100
AcDbEntity
  8
STANDARD
  6
AUSGEZOGEN
 62
     7
370
    18
100
AcDbLine
 10
-3.996586346481212
 20
0.56371661475897
 30
0.0
 11
-3.996586346481212
 21
0.5587166147589699
 31
0.0
  0
LINE
  5
FD
330
1F
100
AcDbEntity
  8
STANDARD
  6
AUSGEZOGEN
 62
     7
370
    18
100
AcDbLine
 10
-3.987086346481212
 20
0.56371661475897
 30
0.0
 11
-3.992086346481212
 21
0.56371661475897
 31
0.0
  0
LINE
  5
FE
330
1F
100
AcDbEntity
  8
STANDARD
  6
AUSGEZOGEN
 62
     7
370
    18
100
AcDbLine
 10
-3.99208634648121
 20
0.56071661475897
 30
0.0
 11
-3.98708634648121
 21
0.56071661475897
 31
0.0
  0
ARC
  5
FF
330
1F
100
AcDbEntity
  8
STANDARD
  6
AUSGEZOGEN
 62
     7
370
    18
100
AcDbCircle
 10
-3.992086346481212
 20
0.56221661475897
 30
0.0
 40
0.0015
100
AcDbArc
 50
90.0
 51
270.0
  0
ARC
  5
100
330
1F
100
AcDbEntity
  8
STANDARD
  6
VERDECKT
 62
     7
370
    18
100
AcDbCircle
 10
-3.994586346481212
 20
0.56371661475897
 30
0.0
 40
0.002
100
AcDbArc
 50
90.0
 51
180.0
  0
LINE
  5
101
330
1F
100
AcDbEntity
  8
STANDARD
  6
AUSGEZOGEN
 62
     7
370
    18
100
AcDbLine
 10
-3.976336346481196
 20
0.5587166147589799
 30
0.0
 11
-3.976336346481197
 21
0.57571661475898
 31
0.0
  0
LINE
  5
102
330
1F
100
AcDbEntity
  8
STANDARD
  6
AUSGEZOGEN
 62
     7
370
    18
100
AcDbLine
 10
-3.976336346481196
 20
0.5587166147589838
 30
0.0
 11
-3.976336346481198
 21
0.5757166147589836
 31
0.0
  0
LINE
  5
103
330
1F
100
AcDbEntity
  8
STANDARD
  6
AUSGEZOGEN
 62
     7
370
    18
100
AcDbLine
 10
-3.976336346481196
 20
0.4667166147589836
 30
0.0
 11
-3.976336346481198
 21
0.4647166147589836
 31
0.0
  0
LINE
  5
104
330
1F
100
AcDbEntity
  8
STANDARD
  6
AUSGEZOGEN
 62
     7
370
    18
100
AcDbLine
 10
-3.963336346481198
 20
0.4897166147589836
 30
0.0
 11
-3.963336346481198
 21
0.5457166147589836
 31
0.0
  0
LINE
  5
105
330
1F
100
AcDbEntity
  8
STANDARD
  6
AUSGEZOGEN
 62
     7
370
    18
100
AcDbLine
 10
-3.961336346481198
 20
0.5477166147589836
 30
0.0
 11
-3.974336346481198
 21
0.5477166147589836
 31
0.0
  0
LINE
  5
106
330
1F
100
AcDbEntity
  8
STANDARD
  6
AUSGEZOGEN
 62
     7
370
    18
100
AcDbLine
 10
-3.963336346481198
 20
0.5457166147589836
 30
0.0
 11
-3.976336346481198
 21
0.5457166147589836
 31
0.0
  0
LINE
  5
107
330
1F
100
AcDbEntity
  8
STANDARD
  6
AUSGEZOGEN
 62
     7
370
    18
100
AcDbLine
 10
-3.961336346481198
 20
0.4877166147589836
 30
0.0
 11
-3.974336346481198
 21
0.4877166147589836
 31
0.0
  0
LINE
  5
108
330
1F
100
AcDbEntity
  8
STANDARD
  6
AUSGEZOGEN
 62
     7
370
    18
100
AcDbLine
 10
-3.976336346481198
 20
0.4897166147589836
 30
0.0
 11
-3.963336346481198
 21
0.4897166147589836
 31
0.0
  0
LINE
  5
109
330
1F
100
AcDbEntity
  8
STANDARD
  6
AUSGEZOGEN
 62
     7
370
    18
100
AcDbLine
 10
-3.974336346481198
 20
0.5477166147589836
 30
0.0
 11
-3.974336346481198
 21
0.5757166147589836
 31
0.0
  0
LINE
  5
10A
330
1F
100
AcDbEntity
  8
STANDARD
  6
AUSGEZOGEN
 62
     7
370
    18
100
AcDbLine
 10
-3.974336346481198
 20
0.5757166147589836
 30
0.0
 11
-3.976336346481198
 21
0.5757166147589836
 31
0.0
  0
LINE
  5
10B
330
1F
100
AcDbEntity
  8
STANDARD
  6
AUSGEZOGEN
 62
     7
370
    18
100
AcDbLine
 10
-3.976336346481198
 20
0.5757166147589836
 30
0.0
 11
-3.976336346481198
 21
0.5457166147589836
 31
0.0
  0
LINE
  5
10C
330
1F
100
AcDbEntity
  8
STANDARD
  6
AUSGEZOGEN
 62
     7
370
    18
100
AcDbLine
 10
-3.974336346481198
 20
0.4877166147589836
 30
0.0
 11
-3.974336346481198
 21
0.4597166147589836
 31
0.0
  0
LINE
  5
10D
330
1F
100
AcDbEntity
  8
STANDARD
  6
AUSGEZOGEN
 62
     7
370
    18
100
AcDbLine
 10
-3.974336346481198
 20
0.4597166147589836
 30
0.0
 11
-3.976336346481198
 21
0.4597166147589836
 31
0.0
  0
LINE
  5
10E
330
1F
100
AcDbEntity
  8
STANDARD
  6
AUSGEZOGEN
 62
     7
370
    18
100
AcDbLine
 10
-3.976336346481198
 20
0.4597166147589836
 30
0.0
 11
-3.976336346481198
 21
0.4897166147589836
 31
0.0
  0
LWPOLYLINE
  5
10F
330
1F
100
AcDbEntity
  8
STANDARD
  6
AUSGEZOGEN
 62
     7
370
    18
100
AcDbPolyline
 90
        2
 70
     1
 43
0.0
 10
-3.976336346481198
 20
0.5757166147589836
 10
-3.976336346481198
 20
0.5757166147589836
  0
LINE
  5
110
330
1F
100
AcDbEntity
  8
STANDARD
  6
AUSGEZOGEN
 62
     7
370
    18
100
AcDbLine
 10
-3.955836346481199
 20
0.5177166147589837
 30
0.0
 11
-3.970836346481198
 21
0.5177166147589837
 31
0.0
  0
LWPOLYLINE
  5
111
330
1F
100
AcDbEntity
  8
STANDARD
  6
AUSGEZOGEN
 62
     7
370
    18
100
AcDbPolyline
 90
        2
 70
     1
 43
0.0
 10
-3.961336346481198
 20
0.5477166147589836
 10
-3.961336346481198
 20
0.5477166147589836
  0
HATCH
  5
112
330
1F
100
AcDbEntity
  8
STANDARD
  6
AUSGEZOGEN
 62
     0
370
    18
100
AcDbHatch
 10
0.0
 20
0.0
 30
0.0
210
0.0
220
0.0
230
1.0
  2
SOLID
 70
     1
 71
     0
 91
        1
 92
        3
 72
     0
 73
     1
 93
       12
 10
-3.974336346481198
 20
0.5757166147589836
 10
-3.976336346481198
 20
0.5757166147589836
 10
-3.976336346481198
 20
0.5457166147589836
 10
-3.963336346481198
 20
0.5457166147589836
 10
-3.963336346481198
 20
0.4897166147589836
 10
-3.976336346481198
 20
0.4897166147589836
 10
-3.976336346481198
 20
0.4597166147589836
 10
-3.974336346481198
 20
0.4597166147589836
 10
-3.974336346481198
 20
0.4877166147589836
 10
-3.961336346481198
 20
0.4877166147589836
 10
-3.961336346481198
 20
0.5477166147589836
 10
-3.974336346481198
 20
0.5477166147589836
 97
        0
 75
     0
 76
     1
 98
        0
  0
LINE
  5
113
330
1F
100
AcDbEntity
  8
STANDARD
  6
AUSGEZOGEN
 62
     7
370
    18
100
AcDbLine
 10
-3.971586346481211
 20
0.562273239086
 30
0.0
 11
-3.985086346481211
 21
0.562273239086
 31
0.0
  0
ENDSEC
  0
SECTION
  2
OBJECTS
  0
DICTIONARY
  5
C
330
0
100
AcDbDictionary
281
     1
  3
ACAD_GROUP
350
D
  3
ACAD_LAYOUT
350
1A
  3
ACAD_MLINESTYLE
350
17
  3
ACAD_PLOTSETTINGS
350
19
  3
ACAD_PLOTSTYLENAME
350
E
  0
DICTIONARY
  5
114
330
1F
100
AcDbDictionary
280
     1
281
     1
  3
ACAD_SORTENTS
360
115
  0
DICTIONARY
  5
D
102
{ACAD_REACTORS
330
C
102
}
330
C
100
AcDbDictionary
281
     1
  0
DICTIONARY
  5
1A
102
{ACAD_REACTORS
330
C
102
}
330
C
100
AcDbDictionary
281
     1
  3
Layout1
350
1E
  3
Layout2
350
26
  3
Model
350
22
  0
DICTIONARY
  5
17
102
{ACAD_REACTORS
330
C
102
}
330
C
100
AcDbDictionary
281
     1
  3
Standard
350
18
  0
DICTIONARY
  5
19
102
{ACAD_REACTORS
330
C
102
}
330
C
100
AcDbDictionary
281
     1
  0
ACDBDICTIONARYWDFLT
  5
E
102
{ACAD_REACTORS
330
C
102
}
330
C
100
AcDbDictionary
281
     1
  3
Normal
350
F
100
AcDbDictionaryWithDefault
340
F
  0
SORTENTSTABLE
  5
115
102
{ACAD_REACTORS
330
114
102
}
330
114
100
AcDbSortentsTable
330
1F
331
30
  5
34
331
31
  5
35
331
32
  5
36
331
33
  5
37
331
34
  5
38
331
35
  5
39
331
36
  5
3A
331
37
  5
3B
331
38
  5
3C
331
39
  5
3D
331
3A
  5
3E
331
3B
  5
3F
331
3C
  5
40
331
3D
  5
41
331
3E
  5
42
331
3F
  5
43
331
40
  5
44
331
41
  5
45
331
42
  5
46
331
43
  5
47
331
44
  5
48
331
45
  5
49
331
46
  5
4A
331
47
  5
4B
331
48
  5
4C
331
49
  5
4D
331
4A
  5
4F
331
4B
  5
50
331
4C
  5
51
331
4D
  5
52
331
4F
  5
53
331
50
  5
54
331
51
  5
55
331
52
  5
56
331
53
  5
57
331
54
  5
58
331
55
  5
30
331
56
  5
59
331
57
  5
5A
331
58
  5
5B
331
59
  5
5C
331
5A
  5
5D
331
5B
  5
5E
331
5C
  5
5F
331
5D
  5
60
331
5E
  5
61
331
5F
  5
62
331
60
  5
63
331
61
  5
64
331
62
  5
65
331
63
  5
66
331
64
  5
67
331
65
  5
68
331
66
  5
69
331
67
  5
6A
331
68
  5
6B
331
69
  5
6C
331
6A
  5
6D
331
6B
  5
6E
331
6C
  5
6F
331
6D
  5
70
331
6E
  5
71
331
6F
  5
72
331
70
  5
73
331
71
  5
74
331
72
  5
75
331
73
  5
76
331
74
  5
77
331
75
  5
78
331
76
  5
79
331
77
  5
7A
331
78
  5
7B
331
79
  5
7C
331
7A
  5
7D
331
7B
  5
7E
331
7C
  5
7F
331
7D
  5
80
331
7E
  5
81
331
7F
  5
82
331
80
  5
83
331
81
  5
84
331
82
  5
85
331
83
  5
86
331
84
  5
87
331
85
  5
88
331
86
  5
89
331
87
  5
8A
331
88
  5
8B
331
89
  5
8C
331
8A
  5
8D
331
8B
  5
8E
331
8C
  5
8F
331
8D
  5
90
331
8E
  5
91
331
8F
  5
92
331
90
  5
93
331
91
  5
94
331
92
  5
95
331
93
  5
96
331
94
  5
97
331
95
  5
98
331
96
  5
99
331
97
  5
9A
331
98
  5
9B
331
99
  5
9C
331
9A
  5
9D
331
9B
  5
9E
331
9C
  5
31
331
9D
  5
9F
331
9E
  5
A0
331
9F
  5
A1
331
A0
  5
A2
331
A1
  5
A3
331
A2
  5
A4
331
A3
  5
A5
331
A4
  5
A6
331
A5
  5
A7
331
A6
  5
A8
331
A7
  5
A9
331
A8
  5
AA
331
A9
  5
AB
331
AA
  5
AC
331
AB
  5
AD
331
AC
  5
AE
331
AD
  5
AF
331
AE
  5
B0
331
AF
  5
B1
331
B0
  5
B2
331
B1
  5
B3
331
B2
  5
B4
331
B3
  5
B5
331
B4
  5
B6
331
B5
  5
B7
331
B6
  5
B8
331
B7
  5
B9
331
B8
  5
BA
331
B9
  5
BB
331
BA
  5
BC
331
BB
  5
BD
331
BC
  5
BE
331
BD
  5
BF
331
BE
  5
C0
331
BF
  5
C1
331
C0
  5
C2
331
C1
  5
C3
331
C2
  5
C4
331
C3
  5
C5
331
C4
  5
C6
331
C5
  5
C7
331
C6
  5
C8
331
C7
  5
C9
331
C8
  5
CA
331
C9
  5
CB
331
CA
  5
CC
331
CB
  5
CD
331
CC
  5
CE
331
CD
  5
CF
331
CE
  5
D0
331
CF
  5
D1
331
D0
  5
D2
331
D1
  5
D3
331
D2
  5
D4
331
D3
  5
D5
331
D4
  5
D6
331
D5
  5
D7
331
D6
  5
D8
331
D7
  5
D9
331
D8
  5
DA
331
D9
  5
DB
331
DA
  5
DC
331
DB
  5
DD
331
DC
  5
DE
331
DD
  5
DF
331
DE
  5
E0
331
DF
  5
E1
331
E0
  5
E2
331
E1
  5
E3
331
E2
  5
E4
331
E3
  5
E5
331
E4
  5
E6
331
E5
  5
E7
331
E6
  5
E8
331
E7
  5
E9
331
E8
  5
EA
331
E9
  5
EB
331
EA
  5
EC
331
EB
  5
ED
331
EC
  5
EE
331
ED
  5
EF
331
EE
  5
F0
331
EF
  5
F1
331
F0
  5
F2
331
F1
  5
F3
331
F2
  5
F4
331
F3
  5
F5
331
F4
  5
F6
331
F5
  5
F7
331
F6
  5
F8
331
F7
  5
F9
331
F8
  5
32
331
F9
  5
FA
331
FA
  5
FB
331
FB
  5
FC
331
FC
  5
FD
331
FD
  5
FE
331
FE
  5
FF
331
FF
  5
100
331
100
  5
101
331
101
  5
102
331
102
  5
103
331
103
  5
104
331
104
  5
105
331
105
  5
106
331
106
  5
107
331
107
  5
108
331
108
  5
109
331
109
  5
10A
331
10A
  5
10B
331
10B
  5
10C
331
10C
  5
10D
331
10D
  5
10E
331
10E
  5
10F
331
10F
  5
110
331
110
  5
111
331
111
  5
112
331
112
  5
33
  0
LAYOUT
  5
1E
102
{ACAD_REACTORS
330
1A
102
}
330
1A
100
AcDbPlotSettings
  1

  2
none_device
  4

  6

 40
7.5
 41
7.5
 42
7.5
 43
7.5
 44
1485.00015
 45
1050.0045
 46
-4306.478492394366
 47
-312.58950103286
 48
0.0
 49
0.0
140
0.0
141
0.0
142
1.0
143
1.0
 70
   688
 72
     1
 73
     0
 74
     5
  7

 75
    16
 76
     0
 77
     2
 78
   300
147
1000.0
148
0.0
149
0.0
100
AcDbLayout
  1
Layout1
 70
     1
 71
     1
 10
0.0
 20
0.0
 11
12.0
 21
9.0
 12
0.0
 22
0.0
 32
0.0
 14
1.000000000000000E+20
 24
1.000000000000000E+20
 34
1.000000000000000E+20
 15
-1.000000000000000E+20
 25
-1.000000000000000E+20
 35
-1.000000000000000E+20
146
0.0
 13
0.0
 23
0.0
 33
0.0
 16
1.0
 26
0.0
 36
0.0
 17
0.0
 27
1.0
 37
0.0
 76
     0
330
1B
  0
LAYOUT
  5
26
102
{ACAD_REACTORS
330
1A
102
}
330
1A
100
AcDbPlotSettings
  1

  2

  4

  6

 40
0.0
 41
0.0
 42
0.0
 43
0.0
 44
0.0
 45
0.0
 46
0.0
 47
0.0
 48
0.0
 49
0.0
140
0.0
141
0.0
142
1.0
143
1.0
 70
   688
 72
     0
 73
     0
 74
     5
  7

 75
    16
 76
     0
 77
     2
 78
   300
147
1.0
148
0.0
149
0.0
100
AcDbLayout
  1
Layout2
 70
     1
 71
     2
 10
0.0
 20
0.0
 11
0.0
 21
0.0
 12
0.0
 22
0.0
 32
0.0
 14
0.0
 24
0.0
 34
0.0
 15
0.0
 25
0.0
 35
0.0
146
0.0
 13
0.0
 23
0.0
 33
0.0
 16
1.0
 26
0.0
 36
0.0
 17
0.0
 27
1.0
 37
0.0
 76
     0
330
23
  0
LAYOUT
  5
22
102
{ACAD_REACTORS
330
1A
102
}
330
1A
100
AcDbPlotSettings
  1

  2

  4

  6

 40
0.0
 41
0.0
 42
0.0
 43
0.0
 44
0.0
 45
0.0
 46
0.0
 47
0.0
 48
0.0
 49
0.0
140
0.0
141
0.0
142
1.0
143
1.0
 70
  1712
 72
     0
 73
     0
 74
     0
  7

 75
     0
 76
     0
 77
     2
 78
   300
147
1.0
148
0.0
149
0.0
100
AcDbLayout
  1
Model
 70
     1
 71
     0
 10
-4.306485992394366
 20
-0.31259700103286
 11
-3.256496492394366
 21
1.17238814896714
 12
0.0
 22
0.0
 32
0.0
 14
-4.306485992394366
 24
-0.31259700103286
 34
-4.306485992394366
 15
-3.256496492394366
 25
1.17238814896714
 35
-3.256496492394366
146
0.0
 13
0.0
 23
0.0
 33
0.0
 16
1.0
 26
0.0
 36
0.0
 17
0.0
 27
1.0
 37
0.0
 76
     0
330
1F
  0
MLINESTYLE
  5
18
102
{ACAD_REACTORS
330
17
102
}
330
17
100
AcDbMlineStyle
  2
Standard
 70
     0
  3

 62
   256
 51
90.0
 52
90.0
 71
     2
 49
0.5
 62
   256
  6
BYLAYER
 49
-0.5
 62
   256
  6
BYLAYER
  0
ACDBPLACEHOLDER
  5
F
102
{ACAD_REACTORS
330
E
102
}
330
E
  0
ENDSEC
  0
EOF
