  0
SECTION
  2
HEADER
  9
$ACADVER
  1
AC1018
  9
$ACADMAINTVER
 70
     0
  9
$DWGCODEPAGE
  3
ANSI_932
  9
$INSBASE
 10
0.0
 20
0.0
 30
0.0
  9
$EXTMIN
 10
1.000000000000000E+20
 20
1.000000000000000E+20
 30
1.000000000000000E+20
  9
$EXTMAX
 10
-1.000000000000000E+20
 20
-1.000000000000000E+20
 30
-1.000000000000000E+20
  9
$LIMMIN
 10
0.0
 20
0.0
  9
$LIMMAX
 10
12.0
 20
9.0
  9
$ORTHOMODE
 70
     0
  9
$REGENMODE
 70
     1
  9
$FILLMODE
 70
     1
  9
$QTEXTMODE
 70
     0
  9
$MIRRTEXT
 70
     1
  9
$LTSCALE
 40
1.0
  9
$ATTMODE
 70
     1
  9
$TEXTSIZE
 40
0.2
  9
$TRACEWID
 40
0.05
  9
$TEXTSTYLE
  7
Standard
  9
$CLAYER
  8
0
  9
$CELTYPE
  6
ByLayer
  9
$CECOLOR
 62
   256
  9
$CELTSCALE
 40
1.0
  9
$DISPSILH
 70
     0
  9
$DIMSCALE
 40
1.0
  9
$DIMASZ
 40
0.18
  9
$DIMEXO
 40
0.0625
  9
$DIMDLI
 40
0.38
  9
$DIMRND
 40
0.0
  9
$DIMDLE
 40
0.0
  9
$DIMEXE
 40
0.18
  9
$DIMTP
 40
0.0
  9
$DIMTM
 40
0.0
  9
$DIMTXT
 40
0.18
  9
$DIMCEN
 40
0.09
  9
$DIMTSZ
 40
0.0
  9
$DIMTOL
 70
     0
  9
$DIMLIM
 70
     0
  9
$DIMTIH
 70
     1
  9
$DIMTOH
 70
     1
  9
$DIMSE1
 70
     0
  9
$DIMSE2
 70
     0
  9
$DIMTAD
 70
     0
  9
$DIMZIN
 70
     0
  9
$DIMBLK
  1

  9
$DIMASO
 70
     1
  9
$DIMSHO
 70
     1
  9
$DIMPOST
  1

  9
$DIMAPOST
  1

  9
$DIMALT
 70
     0
  9
$DIMALTD
 70
     2
  9
$DIMALTF
 40
25.4
  9
$DIMLFAC
 40
1.0
  9
$DIMTOFL
 70
     0
  9
$DIMTVP
 40
0.0
  9
$DIMTIX
 70
     0
  9
$DIMSOXD
 70
     0
  9
$DIMSAH
 70
     0
  9
$DIMBLK1
  1

  9
$DIMBLK2
  1

  9
$DIMSTYLE
  2
Standard
  9
$DIMCLRD
 70
     0
  9
$DIMCLRE
 70
     0
  9
$DIMCLRT
 70
     0
  9
$DIMTFAC
 40
1.0
  9
$DIMGAP
 40
0.09
  9
$DIMJUST
 70
     0
  9
$DIMSD1
 70
     0
  9
$DIMSD2
 70
     0
  9
$DIMTOLJ
 70
     1
  9
$DIMTZIN
 70
     0
  9
$DIMALTZ
 70
     0
  9
$DIMALTTZ
 70
     0
  9
$DIMUPT
 70
     0
  9
$DIMDEC
 70
     4
  9
$DIMTDEC
 70
     4
  9
$DIMALTU
 70
     2
  9
$DIMALTTD
 70
     2
  9
$DIMTXSTY
  7
Standard
  9
$DIMAUNIT
 70
     0
  9
$DIMADEC
 70
     0
  9
$DIMALTRND
 40
0.0
  9
$DIMAZIN
 70
     0
  9
$DIMDSEP
 70
    46
  9
$DIMATFIT
 70
     3
  9
$DIMFRAC
 70
     0
  9
$DIMLDRBLK
  1

  9
$DIMLUNIT
 70
     2
  9
$DIMLWD
 70
    -2
  9
$DIMLWE
 70
    -2
  9
$DIMTMOVE
 70
     0
  9
$LUNITS
 70
     2
  9
$LUPREC
 70
     4
  9
$SKETCHINC
 40
0.1
  9
$FILLETRAD
 40
0.5
  9
$AUNITS
 70
     0
  9
$AUPREC
 70
     0
  9
$MENU
  1
.
  9
$ELEVATION
 40
0.0
  9
$PELEVATION
 40
0.0
  9
$THICKNESS
 40
0.0
  9
$LIMCHECK
 70
     0
  9
$CHAMFERA
 40
0.5
  9
$CHAMFERB
 40
0.5
  9
$CHAMFERC
 40
1.0
  9
$CHAMFERD
 40
0.0
  9
$SKPOLY
 70
     0
  9
$TDCREATE
 40
2456077.623900463
  9
$TDUCREATE
 40
2456077.582233796
  9
$TDUPDATE
 40
2456077.623900475
  9
$TDUUPDATE
 40
2456077.582233808
  9
$TDINDWG
 40
0.0000000116
  9
$TDUSRTIMER
 40
0.0000000116
  9
$USRTIMER
 70
     1
  9
$ANGBASE
 50
0.0
  9
$ANGDIR
 70
     0
  9
$PDMODE
 70
     0
  9
$PDSIZE
 40
0.0
  9
$PLINEWID
 40
0.0
  9
$SPLFRAME
 70
     0
  9
$SPLINETYPE
 70
     6
  9
$SPLINESEGS
 70
     8
  9
$HANDSEED
  5
798
  9
$SURFTAB1
 70
     6
  9
$SURFTAB2
 70
     6
  9
$SURFTYPE
 70
     6
  9
$SURFU
 70
     6
  9
$SURFV
 70
     6
  9
$UCSBASE
  2

  9
$UCSNAME
  2

  9
$UCSORG
 10
0.0
 20
0.0
 30
0.0
  9
$UCSXDIR
 10
1.0
 20
0.0
 30
0.0
  9
$UCSYDIR
 10
0.0
 20
1.0
 30
0.0
  9
$UCSORTHOREF
  2

  9
$UCSORTHOVIEW
 70
     0
  9
$UCSORGTOP
 10
0.0
 20
0.0
 30
0.0
  9
$UCSORGBOTTOM
 10
0.0
 20
0.0
 30
0.0
  9
$UCSORGLEFT
 10
0.0
 20
0.0
 30
0.0
  9
$UCSORGRIGHT
 10
0.0
 20
0.0
 30
0.0
  9
$UCSORGFRONT
 10
0.0
 20
0.0
 30
0.0
  9
$UCSORGBACK
 10
0.0
 20
0.0
 30
0.0
  9
$PUCSBASE
  2

  9
$PUCSNAME
  2

  9
$PUCSORG
 10
0.0
 20
0.0
 30
0.0
  9
$PUCSXDIR
 10
1.0
 20
0.0
 30
0.0
  9
$PUCSYDIR
 10
0.0
 20
1.0
 30
0.0
  9
$PUCSORTHOREF
  2

  9
$PUCSORTHOVIEW
 70
     0
  9
$PUCSORGTOP
 10
0.0
 20
0.0
 30
0.0
  9
$PUCSORGBOTTOM
 10
0.0
 20
0.0
 30
0.0
  9
$PUCSORGLEFT
 10
0.0
 20
0.0
 30
0.0
  9
$PUCSORGRIGHT
 10
0.0
 20
0.0
 30
0.0
  9
$PUCSORGFRONT
 10
0.0
 20
0.0
 30
0.0
  9
$PUCSORGBACK
 10
0.0
 20
0.0
 30
0.0
  9
$USERI1
 70
     0
  9
$USERI2
 70
     0
  9
$USERI3
 70
     0
  9
$USERI4
 70
     0
  9
$USERI5
 70
     0
  9
$USERR1
 40
0.0
  9
$USERR2
 40
0.0
  9
$USERR3
 40
0.0
  9
$USERR4
 40
0.0
  9
$USERR5
 40
0.0
  9
$WORLDVIEW
 70
     1
  9
$SHADEDGE
 70
     3
  9
$SHADEDIF
 70
    70
  9
$TILEMODE
 70
     1
  9
$MAXACTVP
 70
    64
  9
$PINSBASE
 10
0.0
 20
0.0
 30
0.0
  9
$PLIMCHECK
 70
     0
  9
$PEXTMIN
 10
1.000000000000000E+20
 20
1.000000000000000E+20
 30
1.000000000000000E+20
  9
$PEXTMAX
 10
-1.000000000000000E+20
 20
-1.000000000000000E+20
 30
-1.000000000000000E+20
  9
$PLIMMIN
 10
0.0
 20
0.0
  9
$PLIMMAX
 10
12.0
 20
9.0
  9
$UNITMODE
 70
     0
  9
$VISRETAIN
 70
     1
  9
$PLINEGEN
 70
     0
  9
$PSLTSCALE
 70
     1
  9
$TREEDEPTH
 70
  3020
  9
$CMLSTYLE
  2
Standard
  9
$CMLJUST
 70
     0
  9
$CMLSCALE
 40
1.0
  9
$PROXYGRAPHICS
 70
     1
  9
$MEASUREMENT
 70
     0
  9
$CELWEIGHT
370
    -1
  9
$ENDCAPS
280
     0
  9
$JOINSTYLE
280
     0
  9
$LWDISPLAY
290
     1
  9
$INSUNITS
 70
     1
  9
$HYPERLINKBASE
  1

  9
$STYLESHEET
  1

  9
$XEDIT
290
     1
  9
$CEPSNTYPE
380
     0
  9
$PSTYLEMODE
290
     1
  9
$FINGERPRINTGUID
  2
{FD723F64-E137-3FDD-1BFF-FE4684CDFA7D}
  9
$VERSIONGUID
  2
{FAEB1C32-E019-11D5-929B-00C0DF256EC4}
  9
$EXTNAMES
290
     1
  9
$PSVPSCALE
 40
0.0
  9
$OLESTARTUP
290
     0
  9
$SORTENTS
280
   127
  9
$INDEXCTL
280
     0
  9
$HIDETEXT
280
     1
  9
$XCLIPFRAME
290
     0
  9
$HALOGAP
280
     0
  9
$OBSCOLOR
 70
   257
  9
$OBSLTYPE
280
     0
  9
$INTERSECTIONDISPLAY
280
     0
  9
$INTERSECTIONCOLOR
 70
   257
  9
$DIMASSOC
280
     2
  9
$PROJECTNAME
  1

  0
ENDSEC
  0
SECTION
  2
CLASSES
  0
CLASS
  1
ACDBDICTIONARYWDFLT
  2
AcDbDictionaryWithDefault
  3
ObjectDBX Classes
 90
        0
 91
        3
280
     0
281
     0
  0
CLASS
  1
VISUALSTYLE
  2
AcDbVisualStyle
  3
ObjectDBX Classes
 90
     4095
 91
        3
280
     0
281
     0
  0
ENDSEC
  0
SECTION
  2
TABLES
  0
TABLE
  2
VPORT
  5
8
330
0
100
AcDbSymbolTable
 70
     1
  0
VPORT
  5
29
330
8
100
AcDbSymbolTableRecord
100
AcDbViewportTableRecord
  2
*Active
 70
     0
 10
0.0
 20
0.0
 11
1.0
 21
1.0
 12
0.0
 22
0.0
 13
0.0
 23
0.0
 14
0.5
 24
0.5
 15
0.5
 25
0.5
 16
0.0
 26
0.0
 36
1.0
 17
105.0008259828644
 27
-148.4999796178229
 37
0.0
 40
296.9999592356459
 41
0.7070763662937379
 42
50.0
 43
0.0
 44
0.0
 50
0.0
 51
0.0
 71
     0
 72
   100
 73
     1
 74
     3
 75
     0
 76
     0
 77
     0
 78
     0
281
     0
 65
     1
110
0.0
120
0.0
130
0.0
111
1.0
121
0.0
131
0.0
112
0.0
122
1.0
132
0.0
 79
     0
146
0.0
  0
ENDTAB
  0
TABLE
  2
LTYPE
  5
5
330
0
100
AcDbSymbolTable
 70
     1
  0
LTYPE
  5
14
330
5
100
AcDbSymbolTableRecord
100
AcDbLinetypeTableRecord
  2
ByBlock
 70
     0
  3

 72
    65
 73
     0
 40
0.0
  0
LTYPE
  5
15
330
5
100
AcDbSymbolTableRecord
100
AcDbLinetypeTableRecord
  2
ByLayer
 70
     0
  3

 72
    65
 73
     0
 40
0.0
  0
LTYPE
  5
16
330
5
100
AcDbSymbolTableRecord
100
AcDbLinetypeTableRecord
  2
Continuous
 70
     0
  3
Solid line
 72
    65
 73
     0
 40
0.0
  0
ENDTAB
  0
TABLE
  2
LAYER
  5
2
330
0
100
AcDbSymbolTable
 70
     2
  0
LAYER
  5
10
330
2
100
AcDbSymbolTableRecord
100
AcDbLayerTableRecord
  2
0
 70
     0
 62
     7
  6
Continuous
370
    -3
390
F
  0
LAYER
  5
3B
330
2
100
AcDbSymbolTableRecord
100
AcDbLayerTableRecord
  2
Ebene 1
 70
     0
 62
     7
  6
Continuous
370
    -3
390
F
  0
ENDTAB
  0
TABLE
  2
STYLE
  5
3
330
0
100
AcDbSymbolTable
 70
     1
  0
STYLE
  5
11
330
3
100
AcDbSymbolTableRecord
100
AcDbTextStyleTableRecord
  2
Standard
 70
     0
 40
0.0
 41
1.0
 50
0.0
 71
     0
 42
0.2
  3
txt
  4

  0
ENDTAB
  0
TABLE
  2
VIEW
  5
6
330
0
100
AcDbSymbolTable
 70
     0
  0
ENDTAB
  0
TABLE
  2
UCS
  5
7
330
0
100
AcDbSymbolTable
 70
     0
  0
ENDTAB
  0
TABLE
  2
APPID
  5
9
330
0
100
AcDbSymbolTable
 70
     1
  0
APPID
  5
12
330
9
100
AcDbSymbolTableRecord
100
AcDbRegAppTableRecord
  2
ACAD
 70
     0
  0
ENDTAB
  0
TABLE
  2
DIMSTYLE
  5
A
330
0
100
AcDbSymbolTable
 70
     1
100
AcDbDimStyleTable
  0
DIMSTYLE
105
27
330
A
100
AcDbSymbolTableRecord
100
AcDbDimStyleTableRecord
  2
Standard
 70
     0
340
11
  0
ENDTAB
  0
TABLE
  2
BLOCK_RECORD
  5
1
330
0
100
AcDbSymbolTable
 70
     6
  0
BLOCK_RECORD
  5
1F
330
1
100
AcDbSymbolTableRecord
100
AcDbBlockTableRecord
  2
*Model_Space
340
22
  0
BLOCK_RECORD
  5
1B
330
1
100
AcDbSymbolTableRecord
100
AcDbBlockTableRecord
  2
*Paper_Space
340
1E
  0
BLOCK_RECORD
  5
23
330
1
100
AcDbSymbolTableRecord
100
AcDbBlockTableRecord
  2
*Paper_Space0
340
26
  0
BLOCK_RECORD
  5
3C
330
1
100
AcDbSymbolTableRecord
100
AcDbBlockTableRecord
  2
block 2
340
0
102
{BLKREFS
331
3D
102
}
  0
BLOCK_RECORD
  5
14B
330
1
100
AcDbSymbolTableRecord
100
AcDbBlockTableRecord
  2
block 3
340
0
102
{BLKREFS
331
14C
102
}
  0
BLOCK_RECORD
  5
1D3
330
1
100
AcDbSymbolTableRecord
100
AcDbBlockTableRecord
  2
block 4
340
0
102
{BLKREFS
331
1D4
102
}
  0
BLOCK_RECORD
  5
6B9
330
1
100
AcDbSymbolTableRecord
100
AcDbBlockTableRecord
  2
block 5
340
0
102
{BLKREFS
331
6BA
102
}
  0
BLOCK_RECORD
  5
700
330
1
100
AcDbSymbolTableRecord
100
AcDbBlockTableRecord
  2
block 6
340
0
102
{BLKREFS
331
701
102
}
  0
ENDTAB
  0
ENDSEC
  0
SECTION
  2
BLOCKS
  0
BLOCK
  5
20
330
1F
100
AcDbEntity
  8
0
100
AcDbBlockBegin
  2
*Model_Space
 70
     0
 71
     0
 10
0.0
 20
0.0
 30
0.0
  3
*Model_Space
  1

  0
ENDBLK
  5
21
330
1F
100
AcDbEntity
  8
0
100
AcDbBlockEnd
  0
BLOCK
  5
1C
330
1B
100
AcDbEntity
 67
     1
  8
0
100
AcDbBlockBegin
  2
*Paper_Space
 70
     0
 71
     0
 10
0.0
 20
0.0
 30
0.0
  3
*Paper_Space
  1

  0
ENDBLK
  5
1D
330
1B
100
AcDbEntity
 67
     1
  8
0
100
AcDbBlockEnd
  0
BLOCK
  5
24
330
23
100
AcDbEntity
  8
0
100
AcDbBlockBegin
  2
*Paper_Space0
 70
     0
 71
     0
 10
0.0
 20
0.0
 30
0.0
  3
*Paper_Space0
  1

  0
ENDBLK
  5
25
330
23
100
AcDbEntity
  8
0
100
AcDbBlockEnd
  0
BLOCK
  5
3E
330
3C
100
AcDbEntity
  8
0
100
AcDbBlockBegin
  2
block 2
 70
     0
 71
     0
 10
0.0
 20
0.0
 30
0.0
  3
block 2
  1

  0
POLYLINE
  5
40
330
3C
100
AcDbEntity
  8
Ebene 1
 62
   179
420
  1709851
370
    18
100
AcDb2dPolyline
 66
     1
 10
0.0
 20
0.0
 30
0.0
  0
VERTEX
  5
41
330
40
100
AcDbEntity
  8
Ebene 1
 62
   179
420
  1709851
370
    18
100
AcDbVertex
100
AcDb2dVertex
 10
85.50261906499588
 20
-85.0230617734491
 30
0.0
  0
VERTEX
  5
42
330
40
100
AcDbEntity
  8
Ebene 1
 62
   179
420
  1709851
370
    18
100
AcDbVertex
100
AcDb2dVertex
 10
89.05899113441929
 20
-81.46703421357422
 30
0.0
  0
SEQEND
  5
43
330
40
100
AcDbEntity
  8
Ebene 1
370
    18
  0
POLYLINE
  5
44
330
3C
100
AcDbEntity
  8
Ebene 1
 62
   179
420
  1709851
370
    18
100
AcDb2dPolyline
 66
     1
 10
0.0
 20
0.0
 30
0.0
  0
VERTEX
  5
45
330
44
100
AcDbEntity
  8
Ebene 1
 62
   179
420
  1709851
370
    18
100
AcDbVertex
100
AcDb2dVertex
 10
41.51822373093989
 20
-129.0282999351909
 30
0.0
  0
VERTEX
  5
46
330
44
100
AcDbEntity
  8
Ebene 1
 62
   179
420
  1709851
370
    18
100
AcDbVertex
100
AcDb2dVertex
 10
49.07486842306115
 20
-121.4718274978438
 30
0.0
  0
SEQEND
  5
47
330
44
100
AcDbEntity
  8
Ebene 1
370
    18
  0
POLYLINE
  5
48
330
3C
100
AcDbEntity
  8
Ebene 1
 62
   179
420
  1709851
370
    18
100
AcDb2dPolyline
 66
     1
 10
0.0
 20
0.0
 30
0.0
  0
VERTEX
  5
49
330
48
100
AcDbEntity
  8
Ebene 1
 62
   179
420
  1709851
370
    18
100
AcDbVertex
100
AcDb2dVertex
 10
85.50261906499588
 20
-99.16207815446296
 30
0.0
  0
VERTEX
  5
4A
330
48
100
AcDbEntity
  8
Ebene 1
 62
   179
420
  1709851
370
    18
100
AcDbVertex
100
AcDb2dVertex
 10
103.1983520249817
 20
-81.46703421357422
 30
0.0
  0
SEQEND
  5
4B
330
48
100
AcDbEntity
  8
Ebene 1
370
    18
  0
POLYLINE
  5
4C
330
3C
100
AcDbEntity
  8
Ebene 1
 62
   179
420
  1709851
370
    18
100
AcDb2dPolyline
 66
     1
 10
0.0
 20
0.0
 30
0.0
  0
VERTEX
  5
4D
330
4C
100
AcDbEntity
  8
Ebene 1
 62
   179
420
  1709851
370
    18
100
AcDbVertex
100
AcDb2dVertex
 10
41.51822373093989
 20
-143.1676608257532
 30
0.0
  0
VERTEX
  5
4E
330
4C
100
AcDbEntity
  8
Ebene 1
 62
   179
420
  1709851
370
    18
100
AcDbVertex
100
AcDb2dVertex
 10
63.21405705884926
 20
-121.4718274978438
 30
0.0
  0
SEQEND
  5
4F
330
4C
100
AcDbEntity
  8
Ebene 1
370
    18
  0
POLYLINE
  5
50
330
3C
100
AcDbEntity
  8
Ebene 1
 62
   179
420
  1709851
370
    18
100
AcDb2dPolyline
 66
     1
 10
0.0
 20
0.0
 30
0.0
  0
VERTEX
  5
51
330
50
100
AcDbEntity
  8
Ebene 1
 62
   179
420
  1709851
370
    18
100
AcDbVertex
100
AcDb2dVertex
 10
85.50261906499588
 20
-113.3014390450253
 30
0.0
  0
VERTEX
  5
52
330
50
100
AcDbEntity
  8
Ebene 1
 62
   179
420
  1709851
370
    18
100
AcDbVertex
100
AcDb2dVertex
 10
117.3371961512213
 20
-81.46703421357422
 30
0.0
  0
SEQEND
  5
53
330
50
100
AcDbEntity
  8
Ebene 1
370
    18
  0
POLYLINE
  5
54
330
3C
100
AcDbEntity
  8
Ebene 1
 62
   179
420
  1709851
370
    18
100
AcDb2dPolyline
 66
     1
 10
0.0
 20
0.0
 30
0.0
  0
VERTEX
  5
55
330
54
100
AcDbEntity
  8
Ebene 1
 62
   179
420
  1709851
370
    18
100
AcDbVertex
100
AcDb2dVertex
 10
41.51822373093989
 20
-157.3071939710899
 30
0.0
  0
VERTEX
  5
56
330
54
100
AcDbEntity
  8
Ebene 1
 62
   179
420
  1709851
370
    18
100
AcDbVertex
100
AcDb2dVertex
 10
77.35341794941165
 20
-121.4718274978438
 30
0.0
  0
SEQEND
  5
57
330
54
100
AcDbEntity
  8
Ebene 1
370
    18
  0
POLYLINE
  5
58
330
3C
100
AcDbEntity
  8
Ebene 1
 62
   179
420
  1709851
370
    18
100
AcDb2dPolyline
 66
     1
 10
0.0
 20
0.0
 30
0.0
  0
VERTEX
  5
59
330
58
100
AcDbEntity
  8
Ebene 1
 62
   179
420
  1709851
370
    18
100
AcDbVertex
100
AcDb2dVertex
 10
41.51822373093989
 20
-171.4465548616523
 30
0.0
  0
VERTEX
  5
5A
330
58
100
AcDbEntity
  8
Ebene 1
 62
   179
420
  1709851
370
    18
100
AcDbVertex
100
AcDb2dVertex
 10
131.4765570417836
 20
-81.46703421357422
 30
0.0
  0
SEQEND
  5
5B
330
58
100
AcDbEntity
  8
Ebene 1
370
    18
  0
POLYLINE
  5
5C
330
3C
100
AcDbEntity
  8
Ebene 1
 62
   179
420
  1709851
370
    18
100
AcDb2dPolyline
 66
     1
 10
0.0
 20
0.0
 30
0.0
  0
VERTEX
  5
5D
330
5C
100
AcDbEntity
  8
Ebene 1
 62
   179
420
  1709851
370
    18
100
AcDbVertex
100
AcDb2dVertex
 10
45.64579263181772
 20
-181.4580023417883
 30
0.0
  0
VERTEX
  5
5E
330
5C
100
AcDbEntity
  8
Ebene 1
 62
   179
420
  1709851
370
    18
100
AcDbVertex
100
AcDb2dVertex
 10
145.5104980104974
 20
-81.59381372743141
 30
0.0
  0
SEQEND
  5
5F
330
5C
100
AcDbEntity
  8
Ebene 1
370
    18
  0
POLYLINE
  5
60
330
3C
100
AcDbEntity
  8
Ebene 1
 62
   179
420
  1709851
370
    18
100
AcDb2dPolyline
 66
     1
 10
0.0
 20
0.0
 30
0.0
  0
VERTEX
  5
61
330
60
100
AcDbEntity
  8
Ebene 1
 62
   179
420
  1709851
370
    18
100
AcDbVertex
100
AcDb2dVertex
 10
59.78549803192863
 20
-181.4580023417883
 30
0.0
  0
VERTEX
  5
62
330
60
100
AcDbEntity
  8
Ebene 1
 62
   179
420
  1709851
370
    18
100
AcDbVertex
100
AcDb2dVertex
 10
145.5104980104974
 20
-95.7331746179938
 30
0.0
  0
SEQEND
  5
63
330
60
100
AcDbEntity
  8
Ebene 1
370
    18
  0
POLYLINE
  5
64
330
3C
100
AcDbEntity
  8
Ebene 1
 62
   179
420
  1709851
370
    18
100
AcDb2dPolyline
 66
     1
 10
0.0
 20
0.0
 30
0.0
  0
VERTEX
  5
65
330
64
100
AcDbEntity
  8
Ebene 1
 62
   179
420
  1709851
370
    18
100
AcDbVertex
100
AcDb2dVertex
 10
73.92485892249101
 20
-181.4580023417883
 30
0.0
  0
VERTEX
  5
66
330
64
100
AcDbEntity
  8
Ebene 1
 62
   179
420
  1709851
370
    18
100
AcDbVertex
100
AcDb2dVertex
 10
145.5104980104974
 20
-109.8725355085562
 30
0.0
  0
SEQEND
  5
67
330
64
100
AcDbEntity
  8
Ebene 1
370
    18
  0
POLYLINE
  5
68
330
3C
100
AcDbEntity
  8
Ebene 1
 62
   179
420
  1709851
370
    18
100
AcDb2dPolyline
 66
     1
 10
0.0
 20
0.0
 30
0.0
  0
VERTEX
  5
69
330
68
100
AcDbEntity
  8
Ebene 1
 62
   179
420
  1709851
370
    18
100
AcDbVertex
100
AcDb2dVertex
 10
88.06387530350487
 20
-181.4580023417883
 30
0.0
  0
VERTEX
  5
6A
330
68
100
AcDbEntity
  8
Ebene 1
 62
   179
420
  1709851
370
    18
100
AcDbVertex
100
AcDb2dVertex
 10
145.5104980104974
 20
-124.0118963991186
 30
0.0
  0
SEQEND
  5
6B
330
68
100
AcDbEntity
  8
Ebene 1
370
    18
  0
POLYLINE
  5
6C
330
3C
100
AcDbEntity
  8
Ebene 1
 62
   179
420
  1709851
370
    18
100
AcDb2dPolyline
 66
     1
 10
0.0
 20
0.0
 30
0.0
  0
VERTEX
  5
6D
330
6C
100
AcDbEntity
  8
Ebene 1
 62
   179
420
  1709851
370
    18
100
AcDbVertex
100
AcDb2dVertex
 10
102.203063939293
 20
-181.4580023417883
 30
0.0
  0
VERTEX
  5
6E
330
6C
100
AcDbEntity
  8
Ebene 1
 62
   179
420
  1709851
370
    18
100
AcDbVertex
100
AcDb2dVertex
 10
145.5104980104974
 20
-138.151257289681
 30
0.0
  0
SEQEND
  5
6F
330
6C
100
AcDbEntity
  8
Ebene 1
370
    18
  0
POLYLINE
  5
70
330
3C
100
AcDbEntity
  8
Ebene 1
 62
   179
420
  1709851
370
    18
100
AcDb2dPolyline
 66
     1
 10
0.0
 20
0.0
 30
0.0
  0
VERTEX
  5
71
330
70
100
AcDbEntity
  8
Ebene 1
 62
   179
420
  1709851
370
    18
100
AcDbVertex
100
AcDb2dVertex
 10
116.3429415941782
 20
-181.4580023417883
 30
0.0
  0
VERTEX
  5
72
330
70
100
AcDbEntity
  8
Ebene 1
 62
   179
420
  1709851
370
    18
100
AcDbVertex
100
AcDb2dVertex
 10
145.5104980104974
 20
-152.2904459254691
 30
0.0
  0
SEQEND
  5
73
330
70
100
AcDbEntity
  8
Ebene 1
370
    18
  0
POLYLINE
  5
74
330
3C
100
AcDbEntity
  8
Ebene 1
 62
   179
420
  1709851
370
    18
100
AcDb2dPolyline
 66
     1
 10
0.0
 20
0.0
 30
0.0
  0
VERTEX
  5
75
330
74
100
AcDbEntity
  8
Ebene 1
 62
   179
420
  1709851
370
    18
100
AcDbVertex
100
AcDb2dVertex
 10
130.4823024847405
 20
-181.4580023417883
 30
0.0
  0
VERTEX
  5
76
330
74
100
AcDbEntity
  8
Ebene 1
 62
   179
420
  1709851
370
    18
100
AcDbVertex
100
AcDb2dVertex
 10
145.5104980104974
 20
-166.4298068160315
 30
0.0
  0
SEQEND
  5
77
330
74
100
AcDbEntity
  8
Ebene 1
370
    18
  0
POLYLINE
  5
78
330
3C
100
AcDbEntity
  8
Ebene 1
 62
   179
420
  1709851
370
    18
100
AcDb2dPolyline
 66
     1
 10
0.0
 20
0.0
 30
0.0
  0
VERTEX
  5
79
330
78
100
AcDbEntity
  8
Ebene 1
 62
   179
420
  1709851
370
    18
100
AcDbVertex
100
AcDb2dVertex
 10
144.6209743562059
 20
-181.4580023417883
 30
0.0
  0
VERTEX
  5
7A
330
78
100
AcDbEntity
  8
Ebene 1
 62
   179
420
  1709851
370
    18
100
AcDbVertex
100
AcDb2dVertex
 10
145.5104980104974
 20
-180.5691677065938
 30
0.0
  0
SEQEND
  5
7B
330
78
100
AcDbEntity
  8
Ebene 1
370
    18
  0
POLYLINE
  5
7C
330
3C
100
AcDbEntity
  8
Ebene 1
 62
   179
420
  1709851
370
    18
100
AcDb2dPolyline
 66
     1
 10
0.0
 20
0.0
 30
0.0
  0
VERTEX
  5
7D
330
7C
100
AcDbEntity
  8
Ebene 1
 62
   179
420
  1709851
370
    18
100
AcDbVertex
100
AcDb2dVertex
 10
41.51822373093989
 20
-121.9586194899097
 30
0.0
  0
VERTEX
  5
7E
330
7C
100
AcDbEntity
  8
Ebene 1
 62
   179
420
  1709851
370
    18
100
AcDbVertex
100
AcDb2dVertex
 10
42.00553248732848
 20
-121.4718274978438
 30
0.0
  0
SEQEND
  5
7F
330
7C
100
AcDbEntity
  8
Ebene 1
370
    18
  0
POLYLINE
  5
80
330
3C
100
AcDbEntity
  8
Ebene 1
 62
   179
420
  1709851
370
    18
100
AcDb2dPolyline
 66
     1
 10
0.0
 20
0.0
 30
0.0
  0
VERTEX
  5
81
330
80
100
AcDbEntity
  8
Ebene 1
 62
   179
420
  1709851
370
    18
100
AcDbVertex
100
AcDb2dVertex
 10
85.50261906499588
 20
-92.0927422187303
 30
0.0
  0
VERTEX
  5
82
330
80
100
AcDbEntity
  8
Ebene 1
 62
   179
420
  1709851
370
    18
100
AcDbVertex
100
AcDb2dVertex
 10
96.12867157970048
 20
-81.46703421357422
 30
0.0
  0
SEQEND
  5
83
330
80
100
AcDbEntity
  8
Ebene 1
370
    18
  0
POLYLINE
  5
84
330
3C
100
AcDbEntity
  8
Ebene 1
 62
   179
420
  1709851
370
    18
100
AcDb2dPolyline
 66
     1
 10
0.0
 20
0.0
 30
0.0
  0
VERTEX
  5
85
330
84
100
AcDbEntity
  8
Ebene 1
 62
   179
420
  1709851
370
    18
100
AcDbVertex
100
AcDb2dVertex
 10
41.51822373093989
 20
-136.0979803804721
 30
0.0
  0
VERTEX
  5
86
330
84
100
AcDbEntity
  8
Ebene 1
 62
   179
420
  1709851
370
    18
100
AcDbVertex
100
AcDb2dVertex
 10
56.14454886834234
 20
-121.4718274978438
 30
0.0
  0
SEQEND
  5
87
330
84
100
AcDbEntity
  8
Ebene 1
370
    18
  0
POLYLINE
  5
88
330
3C
100
AcDbEntity
  8
Ebene 1
 62
   179
420
  1709851
370
    18
100
AcDb2dPolyline
 66
     1
 10
0.0
 20
0.0
 30
0.0
  0
VERTEX
  5
89
330
88
100
AcDbEntity
  8
Ebene 1
 62
   179
420
  1709851
370
    18
100
AcDbVertex
100
AcDb2dVertex
 10
85.50261906499588
 20
-106.2317585997442
 30
0.0
  0
VERTEX
  5
8A
330
88
100
AcDbEntity
  8
Ebene 1
 62
   179
420
  1709851
370
    18
100
AcDbVertex
100
AcDb2dVertex
 10
110.2678602154886
 20
-81.46703421357422
 30
0.0
  0
SEQEND
  5
8B
330
88
100
AcDbEntity
  8
Ebene 1
370
    18
  0
POLYLINE
  5
8C
330
3C
100
AcDbEntity
  8
Ebene 1
 62
   179
420
  1709851
370
    18
100
AcDb2dPolyline
 66
     1
 10
0.0
 20
0.0
 30
0.0
  0
VERTEX
  5
8D
330
8C
100
AcDbEntity
  8
Ebene 1
 62
   179
420
  1709851
370
    18
100
AcDbVertex
100
AcDb2dVertex
 10
41.51822373093989
 20
-150.2371690162602
 30
0.0
  0
VERTEX
  5
8E
330
8C
100
AcDbEntity
  8
Ebene 1
 62
   179
420
  1709851
370
    18
100
AcDbVertex
100
AcDb2dVertex
 10
70.28373750413046
 20
-121.4718274978438
 30
0.0
  0
SEQEND
  5
8F
330
8C
100
AcDbEntity
  8
Ebene 1
370
    18
  0
POLYLINE
  5
90
330
3C
100
AcDbEntity
  8
Ebene 1
 62
   179
420
  1709851
370
    18
100
AcDb2dPolyline
 66
     1
 10
0.0
 20
0.0
 30
0.0
  0
VERTEX
  5
91
330
90
100
AcDbEntity
  8
Ebene 1
 62
   179
420
  1709851
370
    18
100
AcDbVertex
100
AcDb2dVertex
 10
85.50261906499588
 20
-120.3711194903065
 30
0.0
  0
VERTEX
  5
92
330
90
100
AcDbEntity
  8
Ebene 1
 62
   179
420
  1709851
370
    18
100
AcDbVertex
100
AcDb2dVertex
 10
124.407221106051
 20
-81.46703421357422
 30
0.0
  0
SEQEND
  5
93
330
90
100
AcDbEntity
  8
Ebene 1
370
    18
  0
POLYLINE
  5
94
330
3C
100
AcDbEntity
  8
Ebene 1
 62
   179
420
  1709851
370
    18
100
AcDb2dPolyline
 66
     1
 10
0.0
 20
0.0
 30
0.0
  0
VERTEX
  5
95
330
94
100
AcDbEntity
  8
Ebene 1
 62
   179
420
  1709851
370
    18
100
AcDbVertex
100
AcDb2dVertex
 10
41.51822373093989
 20
-164.3765299068226
 30
0.0
  0
VERTEX
  5
96
330
94
100
AcDbEntity
  8
Ebene 1
 62
   179
420
  1709851
370
    18
100
AcDbVertex
100
AcDb2dVertex
 10
84.42309839469284
 20
-121.4718274978438
 30
0.0
  0
SEQEND
  5
97
330
94
100
AcDbEntity
  8
Ebene 1
370
    18
  0
POLYLINE
  5
98
330
3C
100
AcDbEntity
  8
Ebene 1
 62
   179
420
  1709851
370
    18
100
AcDb2dPolyline
 66
     1
 10
0.0
 20
0.0
 30
0.0
  0
VERTEX
  5
99
330
98
100
AcDbEntity
  8
Ebene 1
 62
   179
420
  1709851
370
    18
100
AcDbVertex
100
AcDb2dVertex
 10
41.51822373093989
 20
-178.5158907973849
 30
0.0
  0
VERTEX
  5
9A
330
98
100
AcDbEntity
  8
Ebene 1
 62
   179
420
  1709851
370
    18
100
AcDbVertex
100
AcDb2dVertex
 10
138.5462374870648
 20
-81.46703421357422
 30
0.0
  0
SEQEND
  5
9B
330
98
100
AcDbEntity
  8
Ebene 1
370
    18
  0
POLYLINE
  5
9C
330
3C
100
AcDbEntity
  8
Ebene 1
 62
   179
420
  1709851
370
    18
100
AcDb2dPolyline
 66
     1
 10
0.0
 20
0.0
 30
0.0
  0
VERTEX
  5
9D
330
9C
100
AcDbEntity
  8
Ebene 1
 62
   179
420
  1709851
370
    18
100
AcDbVertex
100
AcDb2dVertex
 10
52.71581758664744
 20
-181.4580023417883
 30
0.0
  0
VERTEX
  5
9E
330
9C
100
AcDbEntity
  8
Ebene 1
 62
   179
420
  1709851
370
    18
100
AcDbVertex
100
AcDb2dVertex
 10
145.5104980104974
 20
-88.6634941727126
 30
0.0
  0
SEQEND
  5
9F
330
9C
100
AcDbEntity
  8
Ebene 1
370
    18
  0
POLYLINE
  5
A0
330
3C
100
AcDbEntity
  8
Ebene 1
 62
   179
420
  1709851
370
    18
100
AcDb2dPolyline
 66
     1
 10
0.0
 20
0.0
 30
0.0
  0
VERTEX
  5
A1
330
A0
100
AcDbEntity
  8
Ebene 1
 62
   179
420
  1709851
370
    18
100
AcDbVertex
100
AcDb2dVertex
 10
66.85517847720982
 20
-181.4580023417883
 30
0.0
  0
VERTEX
  5
A2
330
A0
100
AcDbEntity
  8
Ebene 1
 62
   179
420
  1709851
370
    18
100
AcDbVertex
100
AcDb2dVertex
 10
145.5104980104974
 20
-102.802855063275
 30
0.0
  0
SEQEND
  5
A3
330
A0
100
AcDbEntity
  8
Ebene 1
370
    18
  0
POLYLINE
  5
A4
330
3C
100
AcDbEntity
  8
Ebene 1
 62
   179
420
  1709851
370
    18
100
AcDb2dPolyline
 66
     1
 10
0.0
 20
0.0
 30
0.0
  0
VERTEX
  5
A5
330
A4
100
AcDbEntity
  8
Ebene 1
 62
   179
420
  1709851
370
    18
100
AcDbVertex
100
AcDb2dVertex
 10
80.9945393677722
 20
-181.4580023417883
 30
0.0
  0
VERTEX
  5
A6
330
A4
100
AcDbEntity
  8
Ebene 1
 62
   179
420
  1709851
370
    18
100
AcDbVertex
100
AcDb2dVertex
 10
145.5104980104974
 20
-116.9422159538374
 30
0.0
  0
SEQEND
  5
A7
330
A4
100
AcDbEntity
  8
Ebene 1
370
    18
  0
POLYLINE
  5
A8
330
3C
100
AcDbEntity
  8
Ebene 1
 62
   179
420
  1709851
370
    18
100
AcDb2dPolyline
 66
     1
 10
0.0
 20
0.0
 30
0.0
  0
VERTEX
  5
A9
330
A8
100
AcDbEntity
  8
Ebene 1
 62
   179
420
  1709851
370
    18
100
AcDbVertex
100
AcDb2dVertex
 10
95.13355574878607
 20
-181.4580023417883
 30
0.0
  0
VERTEX
  5
AA
330
A8
100
AcDbEntity
  8
Ebene 1
 62
   179
420
  1709851
370
    18
100
AcDbVertex
100
AcDb2dVertex
 10
145.5104980104974
 20
-131.0815768443998
 30
0.0
  0
SEQEND
  5
AB
330
A8
100
AcDbEntity
  8
Ebene 1
370
    18
  0
POLYLINE
  5
AC
330
3C
100
AcDbEntity
  8
Ebene 1
 62
   179
420
  1709851
370
    18
100
AcDb2dPolyline
 66
     1
 10
0.0
 20
0.0
 30
0.0
  0
VERTEX
  5
AD
330
AC
100
AcDbEntity
  8
Ebene 1
 62
   179
420
  1709851
370
    18
100
AcDbVertex
100
AcDb2dVertex
 10
109.2729166393484
 20
-181.4580023417883
 30
0.0
  0
VERTEX
  5
AE
330
AC
100
AcDbEntity
  8
Ebene 1
 62
   179
420
  1709851
370
    18
100
AcDbVertex
100
AcDb2dVertex
 10
145.5104980104974
 20
-145.2209377349621
 30
0.0
  0
SEQEND
  5
AF
330
AC
100
AcDbEntity
  8
Ebene 1
370
    18
  0
POLYLINE
  5
B0
330
3C
100
AcDbEntity
  8
Ebene 1
 62
   179
420
  1709851
370
    18
100
AcDb2dPolyline
 66
     1
 10
0.0
 20
0.0
 30
0.0
  0
VERTEX
  5
B1
330
B0
100
AcDbEntity
  8
Ebene 1
 62
   179
420
  1709851
370
    18
100
AcDbVertex
100
AcDb2dVertex
 10
123.4122775299108
 20
-181.4580023417883
 30
0.0
  0
VERTEX
  5
B2
330
B0
100
AcDbEntity
  8
Ebene 1
 62
   179
420
  1709851
370
    18
100
AcDbVertex
100
AcDb2dVertex
 10
145.5104980104974
 20
-159.3604708802988
 30
0.0
  0
SEQEND
  5
B3
330
B0
100
AcDbEntity
  8
Ebene 1
370
    18
  0
POLYLINE
  5
B4
330
3C
100
AcDbEntity
  8
Ebene 1
 62
   179
420
  1709851
370
    18
100
AcDb2dPolyline
 66
     1
 10
0.0
 20
0.0
 30
0.0
  0
VERTEX
  5
B5
330
B4
100
AcDbEntity
  8
Ebene 1
 62
   179
420
  1709851
370
    18
100
AcDbVertex
100
AcDb2dVertex
 10
137.5516384204732
 20
-181.4580023417883
 30
0.0
  0
VERTEX
  5
B6
330
B4
100
AcDbEntity
  8
Ebene 1
 62
   179
420
  1709851
370
    18
100
AcDbVertex
100
AcDb2dVertex
 10
145.5104980104974
 20
-173.4998317708612
 30
0.0
  0
SEQEND
  5
B7
330
B4
100
AcDbEntity
  8
Ebene 1
370
    18
  0
POLYLINE
  5
B8
330
3C
100
AcDbEntity
  8
Ebene 1
370
     0
100
AcDb2dPolyline
 66
     1
 10
0.0
 20
0.0
 30
0.0
  0
VERTEX
  5
B9
330
B8
100
AcDbEntity
  8
Ebene 1
370
     0
100
AcDbVertex
100
AcDb2dVertex
 10
41.27499998968126
 20
-219.389192653486
 30
0.0
  0
VERTEX
  5
BA
330
B8
100
AcDbEntity
  8
Ebene 1
370
     0
100
AcDbVertex
100
AcDb2dVertex
 10
183.4413438126466
 20
-219.389192653486
 30
0.0
  0
VERTEX
  5
BB
330
B8
100
AcDbEntity
  8
Ebene 1
370
     0
100
AcDbVertex
100
AcDb2dVertex
 10
183.4413438126466
 20
-81.22346596276705
 30
0.0
  0
VERTEX
  5
BC
330
B8
100
AcDbEntity
  8
Ebene 1
370
     0
100
AcDbVertex
100
AcDb2dVertex
 10
41.27499998968126
 20
-81.22346596276705
 30
0.0
  0
VERTEX
  5
BD
330
B8
100
AcDbEntity
  8
Ebene 1
370
     0
100
AcDbVertex
100
AcDb2dVertex
 10
41.27499998968126
 20
-219.389192653486
 30
0.0
  0
SEQEND
  5
BE
330
B8
100
AcDbEntity
  8
Ebene 1
370
     0
  0
ENDBLK
  5
3F
330
3C
100
AcDbEntity
  8
0
100
AcDbBlockEnd
  0
BLOCK
  5
14D
330
14B
100
AcDbEntity
  8
0
100
AcDbBlockBegin
  2
block 3
 70
     0
 71
     0
 10
0.0
 20
0.0
 30
0.0
  3
block 3
  1

  0
POLYLINE
  5
14F
330
14B
100
AcDbEntity
  8
Ebene 1
 62
   179
420
  1709851
370
    50
100
AcDb2dPolyline
 66
     1
 10
0.0
 20
0.0
 30
0.0
  0
VERTEX
  5
150
330
14F
100
AcDbEntity
  8
Ebene 1
 62
   179
420
  1709851
370
    50
100
AcDbVertex
100
AcDb2dVertex
 10
41.51839598571415
 20
-121.4718274978438
 30
0.0
  0
VERTEX
  5
151
330
14F
100
AcDbEntity
  8
Ebene 1
 62
   179
420
  1709851
370
    50
100
AcDbVertex
100
AcDb2dVertex
 10
85.50279131977014
 20
-121.4718274978438
 30
0.0
  0
SEQEND
  5
152
330
14F
100
AcDbEntity
  8
Ebene 1
370
    50
  0
POLYLINE
  5
153
330
14B
100
AcDbEntity
  8
Ebene 1
 62
   179
420
  1709851
370
    50
100
AcDb2dPolyline
 66
     1
 10
0.0
 20
0.0
 30
0.0
  0
VERTEX
  5
154
330
153
100
AcDbEntity
  8
Ebene 1
 62
   179
420
  1709851
370
    50
100
AcDbVertex
100
AcDb2dVertex
 10
145.5101535009489
 20
-81.46703421357422
 30
0.0
  0
VERTEX
  5
155
330
153
100
AcDbEntity
  8
Ebene 1
 62
   179
420
  1709851
370
    50
100
AcDbVertex
100
AcDb2dVertex
 10
145.5101535009489
 20
-181.4580023417883
 30
0.0
  0
SEQEND
  5
156
330
153
100
AcDbEntity
  8
Ebene 1
370
    50
  0
POLYLINE
  5
157
330
14B
100
AcDbEntity
  8
Ebene 1
 62
   179
420
  1709851
370
    50
100
AcDb2dPolyline
 66
     1
 10
0.0
 20
0.0
 30
0.0
  0
VERTEX
  5
158
330
157
100
AcDbEntity
  8
Ebene 1
 62
   179
420
  1709851
370
    50
100
AcDbVertex
100
AcDb2dVertex
 10
85.50279131977014
 20
-81.46703421357422
 30
0.0
  0
VERTEX
  5
159
330
157
100
AcDbEntity
  8
Ebene 1
 62
   179
420
  1709851
370
    50
100
AcDbVertex
100
AcDb2dVertex
 10
85.50279131977014
 20
-121.4718274978438
 30
0.0
  0
SEQEND
  5
15A
330
157
100
AcDbEntity
  8
Ebene 1
370
    50
  0
POLYLINE
  5
15B
330
14B
100
AcDbEntity
  8
Ebene 1
 62
   179
420
  1709851
370
    50
100
AcDb2dPolyline
 66
     1
 10
0.0
 20
0.0
 30
0.0
  0
VERTEX
  5
15C
330
15B
100
AcDbEntity
  8
Ebene 1
 62
   179
420
  1709851
370
    50
100
AcDbVertex
100
AcDb2dVertex
 10
41.51839598571415
 20
-181.4580023417883
 30
0.0
  0
VERTEX
  5
15D
330
15B
100
AcDbEntity
  8
Ebene 1
 62
   179
420
  1709851
370
    50
100
AcDbVertex
100
AcDb2dVertex
 10
145.5101535009489
 20
-181.4580023417883
 30
0.0
  0
SEQEND
  5
15E
330
15B
100
AcDbEntity
  8
Ebene 1
370
    50
  0
POLYLINE
  5
15F
330
14B
100
AcDbEntity
  8
Ebene 1
370
     0
100
AcDb2dPolyline
 66
     1
 10
0.0
 20
0.0
 30
0.0
  0
VERTEX
  5
160
330
15F
100
AcDbEntity
  8
Ebene 1
370
     0
100
AcDbVertex
100
AcDb2dVertex
 10
41.27499998968126
 20
-219.389192653486
 30
0.0
  0
VERTEX
  5
161
330
15F
100
AcDbEntity
  8
Ebene 1
370
     0
100
AcDbVertex
100
AcDb2dVertex
 10
183.4413438126466
 20
-219.389192653486
 30
0.0
  0
VERTEX
  5
162
330
15F
100
AcDbEntity
  8
Ebene 1
370
     0
100
AcDbVertex
100
AcDb2dVertex
 10
183.4413438126466
 20
-81.22346596276705
 30
0.0
  0
VERTEX
  5
163
330
15F
100
AcDbEntity
  8
Ebene 1
370
     0
100
AcDbVertex
100
AcDb2dVertex
 10
41.27499998968126
 20
-81.22346596276705
 30
0.0
  0
VERTEX
  5
164
330
15F
100
AcDbEntity
  8
Ebene 1
370
     0
100
AcDbVertex
100
AcDb2dVertex
 10
41.27499998968126
 20
-219.389192653486
 30
0.0
  0
SEQEND
  5
165
330
15F
100
AcDbEntity
  8
Ebene 1
370
     0
  0
ENDBLK
  5
14E
330
14B
100
AcDbEntity
  8
0
100
AcDbBlockEnd
  0
BLOCK
  5
1D5
330
1D3
100
AcDbEntity
  8
0
100
AcDbBlockBegin
  2
block 4
 70
     0
 71
     0
 10
0.0
 20
0.0
 30
0.0
  3
block 4
  1

  0
POLYLINE
  5
1D7
330
1D3
100
AcDbEntity
  8
Ebene 1
 62
   179
420
  1709851
370
    18
100
AcDb2dPolyline
 66
     1
 10
0.0
 20
0.0
 30
0.0
  0
VERTEX
  5
1D8
330
1D7
100
AcDbEntity
  8
Ebene 1
 62
   179
420
  1709851
370
    18
100
AcDbVertex
100
AcDb2dVertex
 10
170.2962374791273
 20
-112.4759941667595
 30
0.0
  0
VERTEX
  5
1D9
330
1D7
100
AcDbEntity
  8
Ebene 1
 62
   179
420
  1709851
370
    18
100
AcDbVertex
100
AcDb2dVertex
 10
170.2962374791273
 20
-81.4666897040257
 30
0.0
  0
SEQEND
  5
1DA
330
1D7
100
AcDbEntity
  8
Ebene 1
370
    18
  0
POLYLINE
  5
1DB
330
1D3
100
AcDbEntity
  8
Ebene 1
 62
   179
420
  1709851
370
    18
100
AcDb2dPolyline
 66
     1
 10
0.0
 20
0.0
 30
0.0
  0
VERTEX
  5
1DC
330
1DB
100
AcDbEntity
  8
Ebene 1
 62
   179
420
  1709851
370
    18
100
AcDbVertex
100
AcDb2dVertex
 10
154.8026095533132
 20
-209.970301596813
 30
0.0
  0
VERTEX
  5
1DD
330
1DB
100
AcDbEntity
  8
Ebene 1
 62
   179
420
  1709851
370
    18
100
AcDbVertex
100
AcDb2dVertex
 10
154.8026095533132
 20
-206.964111276384
 30
0.0
  0
SEQEND
  5
1DE
330
1DB
100
AcDbEntity
  8
Ebene 1
370
    18
  0
POLYLINE
  5
1DF
330
1D3
100
AcDbEntity
  8
Ebene 1
 62
   179
420
  1709851
370
    18
100
AcDb2dPolyline
 66
     1
 10
0.0
 20
0.0
 30
0.0
  0
VERTEX
  5
1E0
330
1DF
100
AcDbEntity
  8
Ebene 1
 62
   179
420
  1709851
370
    18
100
AcDbVertex
100
AcDb2dVertex
 10
154.8026095533132
 20
-206.964111276384
 30
0.0
  0
VERTEX
  5
1E1
330
1DF
100
AcDbEntity
  8
Ebene 1
 62
   179
420
  1709851
370
    18
100
AcDbVertex
100
AcDb2dVertex
 10
154.4005669101846
 20
-206.964111276384
 30
0.0
  0
VERTEX
  5
1E2
330
1DF
100
AcDbEntity
  8
Ebene 1
 62
   179
420
  1709851
370
    18
100
AcDbVertex
100
AcDb2dVertex
 10
154.4005669101846
 20
-209.970301596813
 30
0.0
  0
SEQEND
  5
1E3
330
1DF
100
AcDbEntity
  8
Ebene 1
370
    18
  0
POLYLINE
  5
1E4
330
1D3
100
AcDbEntity
  8
Ebene 1
 62
   179
420
  1709851
370
    18
100
AcDb2dPolyline
 66
     1
 10
0.0
 20
0.0
 30
0.0
  0
VERTEX
  5
1E5
330
1E4
100
AcDbEntity
  8
Ebene 1
 62
   179
420
  1709851
370
    18
100
AcDbVertex
100
AcDb2dVertex
 10
154.4005669101846
 20
-209.970301596813
 30
0.0
  0
VERTEX
  5
1E6
330
1E4
100
AcDbEntity
  8
Ebene 1
 62
   179
420
  1709851
370
    18
100
AcDbVertex
100
AcDb2dVertex
 10
154.8026095533132
 20
-209.970301596813
 30
0.0
  0
SEQEND
  5
1E7
330
1E4
100
AcDbEntity
  8
Ebene 1
370
    18
  0
POLYLINE
  5
1E8
330
1D3
100
AcDbEntity
  8
Ebene 1
 62
   179
420
  1709851
370
    18
100
AcDb2dPolyline
 66
     1
 10
0.0
 20
0.0
 30
0.0
  0
VERTEX
  5
1E9
330
1E8
100
AcDbEntity
  8
Ebene 1
 62
   179
420
  1709851
370
    18
100
AcDbVertex
100
AcDb2dVertex
 10
149.0027913038952
 20
-211.0706650948018
 30
0.0
  0
VERTEX
  5
1EA
330
1E8
100
AcDbEntity
  8
Ebene 1
 62
   179
420
  1709851
370
    18
100
AcDbVertex
100
AcDb2dVertex
 10
156.1995957725821
 20
-211.0706650948018
 30
0.0
  0
SEQEND
  5
1EB
330
1E8
100
AcDbEntity
  8
Ebene 1
370
    18
  0
POLYLINE
  5
1EC
330
1D3
100
AcDbEntity
  8
Ebene 1
 62
   179
420
  1709851
370
    18
100
AcDb2dPolyline
 66
     1
 10
0.0
 20
0.0
 30
0.0
  0
VERTEX
  5
1ED
330
1EC
100
AcDbEntity
  8
Ebene 1
 62
   179
420
  1709851
370
    18
100
AcDbVertex
100
AcDb2dVertex
 10
151.606594471647
 20
-209.0380587585044
 30
0.0
  0
VERTEX
  5
1EE
330
1EC
100
AcDbEntity
  8
Ebene 1
 62
   179
420
  1709851
370
    18
100
AcDbVertex
100
AcDb2dVertex
 10
151.606594471647
 20
-207.874305503587
 30
0.0
  0
VERTEX
  5
1EF
330
1EC
100
AcDbEntity
  8
Ebene 1
 62
   179
420
  1709851
370
    18
100
AcDbVertex
100
AcDb2dVertex
 10
152.6008490286901
 20
-207.3024196530355
 30
0.0
  0
VERTEX
  5
1F0
330
1EC
100
AcDbEntity
  8
Ebene 1
 62
   179
420
  1709851
370
    18
100
AcDbVertex
100
AcDb2dVertex
 10
153.6168076872902
 20
-207.874305503587
 30
0.0
  0
VERTEX
  5
1F1
330
1EC
100
AcDbEntity
  8
Ebene 1
 62
   179
420
  1709851
370
    18
100
AcDbVertex
100
AcDb2dVertex
 10
153.6168076872902
 20
-209.0380587585044
 30
0.0
  0
VERTEX
  5
1F2
330
1EC
100
AcDbEntity
  8
Ebene 1
 62
   179
420
  1709851
370
    18
100
AcDbVertex
100
AcDb2dVertex
 10
152.6008490286901
 20
-209.6099446090558
 30
0.0
  0
VERTEX
  5
1F3
330
1EC
100
AcDbEntity
  8
Ebene 1
 62
   179
420
  1709851
370
    18
100
AcDbVertex
100
AcDb2dVertex
 10
151.606594471647
 20
-209.0380587585044
 30
0.0
  0
SEQEND
  5
1F4
330
1EC
100
AcDbEntity
  8
Ebene 1
370
    18
  0
SPLINE
  5
1F5
330
1D3
100
AcDbEntity
  8
Ebene 1
 62
   179
420
  1709851
370
    18
100
AcDbSpline
210
0.0
220
0.0
230
1.0
 70
    11
 71
     3
 72
    17
 73
    13
 74
     0
 42
0.0000000001
 43
0.0000000001
 40
0.0
 40
0.0
 40
0.0
 40
0.0
 40
1.0
 40
1.0
 40
1.0
 40
2.0
 40
2.0
 40
2.0
 40
3.0
 40
3.0
 40
3.0
 40
4.0
 40
4.0
 40
4.0
 40
4.0
 10
153.5961371143788
 20
-208.46686192705
 30
0.0
 10
153.5961371143788
 20
-207.916335668507
 30
0.0
 10
153.1300156952244
 20
-207.4719183509098
 30
0.0
 10
152.6008490286901
 20
-207.4719183509098
 30
0.0
 10
152.0510117892442
 20
-207.4719183509098
 30
0.0
 10
151.606594471647
 20
-207.916335668507
 30
0.0
 10
151.606594471647
 20
-208.46686192705
 30
0.0
 10
151.606594471647
 20
-208.9960285935843
 30
0.0
 10
152.0510117892442
 20
-209.4618055031901
 30
0.0
 10
152.6008490286901
 20
-209.4618055031901
 30
0.0
 10
153.1517197967815
 20
-209.4618055031901
 30
0.0
 10
153.5961371143788
 20
-208.9960285935843
 30
0.0
 10
153.5961371143788
 20
-208.46686192705
 30
0.0
  0
POLYLINE
  5
1F6
330
1D3
100
AcDbEntity
  8
Ebene 1
 62
   179
420
  1709851
370
    18
100
AcDb2dPolyline
 66
     1
 10
0.0
 20
0.0
 30
0.0
  0
VERTEX
  5
1F7
330
1F6
100
AcDbEntity
  8
Ebene 1
 62
   179
420
  1709851
370
    18
100
AcDbVertex
100
AcDb2dVertex
 10
156.1995957725821
 20
-205.0596624921379
 30
0.0
  0
VERTEX
  5
1F8
330
1F6
100
AcDbEntity
  8
Ebene 1
 62
   179
420
  1709851
370
    18
100
AcDbVertex
100
AcDb2dVertex
 10
149.0027913038952
 20
-205.0596624921379
 30
0.0
  0
SEQEND
  5
1F9
330
1F6
100
AcDbEntity
  8
Ebene 1
370
    18
  0
POLYLINE
  5
1FA
330
1D3
100
AcDbEntity
  8
Ebene 1
 62
   179
420
  1709851
370
    18
100
AcDb2dPolyline
 66
     1
 10
0.0
 20
0.0
 30
0.0
  0
VERTEX
  5
1FB
330
1FA
100
AcDbEntity
  8
Ebene 1
 62
   179
420
  1709851
370
    18
100
AcDbVertex
100
AcDb2dVertex
 10
87.91590845241339
 20
-206.053917049181
 30
0.0
  0
VERTEX
  5
1FC
330
1FA
100
AcDbEntity
  8
Ebene 1
 62
   179
420
  1709851
370
    18
100
AcDbVertex
100
AcDb2dVertex
 10
90.11732446748803
 20
-206.053917049181
 30
0.0
  0
SEQEND
  5
1FD
330
1FA
100
AcDbEntity
  8
Ebene 1
370
    18
  0
POLYLINE
  5
1FE
330
1D3
100
AcDbEntity
  8
Ebene 1
 62
   179
420
  1709851
370
    18
100
AcDb2dPolyline
 66
     1
 10
0.0
 20
0.0
 30
0.0
  0
VERTEX
  5
1FF
330
1FE
100
AcDbEntity
  8
Ebene 1
 62
   179
420
  1709851
370
    18
100
AcDbVertex
100
AcDb2dVertex
 10
87.81014402101621
 20
-209.7580837149216
 30
0.0
  0
VERTEX
  5
200
330
1FE
100
AcDbEntity
  8
Ebene 1
 62
   179
420
  1709851
370
    18
100
AcDbVertex
100
AcDb2dVertex
 10
87.81014402101621
 20
-210.7530272910618
 30
0.0
  0
SEQEND
  5
201
330
1FE
100
AcDbEntity
  8
Ebene 1
370
    18
  0
POLYLINE
  5
202
330
1D3
100
AcDbEntity
  8
Ebene 1
 62
   179
420
  1709851
370
    18
100
AcDb2dPolyline
 66
     1
 10
0.0
 20
0.0
 30
0.0
  0
VERTEX
  5
203
330
202
100
AcDbEntity
  8
Ebene 1
 62
   179
420
  1709851
370
    18
100
AcDbVertex
100
AcDb2dVertex
 10
90.11732446748803
 20
-210.8584472129104
 30
0.0
  0
VERTEX
  5
204
330
202
100
AcDbEntity
  8
Ebene 1
 62
   179
420
  1709851
370
    18
100
AcDbVertex
100
AcDb2dVertex
 10
90.20190156165091
 20
-210.8164170479903
 30
0.0
  0
VERTEX
  5
205
330
202
100
AcDbEntity
  8
Ebene 1
 62
   179
420
  1709851
370
    18
100
AcDbVertex
100
AcDb2dVertex
 10
90.22308889888521
 20
-210.7530272910618
 30
0.0
  0
SEQEND
  5
206
330
202
100
AcDbEntity
  8
Ebene 1
370
    18
  0
POLYLINE
  5
207
330
1D3
100
AcDbEntity
  8
Ebene 1
 62
   179
420
  1709851
370
    18
100
AcDb2dPolyline
 66
     1
 10
0.0
 20
0.0
 30
0.0
  0
VERTEX
  5
208
330
207
100
AcDbEntity
  8
Ebene 1
 62
   179
420
  1709851
370
    18
100
AcDbVertex
100
AcDb2dVertex
 10
87.81014402101621
 20
-210.7530272910618
 30
0.0
  0
VERTEX
  5
209
330
207
100
AcDbEntity
  8
Ebene 1
 62
   179
420
  1709851
370
    18
100
AcDbVertex
100
AcDb2dVertex
 10
87.85251869548479
 20
-210.8377766399989
 30
0.0
  0
VERTEX
  5
20A
330
207
100
AcDbEntity
  8
Ebene 1
 62
   179
420
  1709851
370
    18
100
AcDbVertex
100
AcDb2dVertex
 10
87.91590845241339
 20
-210.8584472129104
 30
0.0
  0
SEQEND
  5
20B
330
207
100
AcDbEntity
  8
Ebene 1
370
    18
  0
POLYLINE
  5
20C
330
1D3
100
AcDbEntity
  8
Ebene 1
 62
   179
420
  1709851
370
    18
100
AcDb2dPolyline
 66
     1
 10
0.0
 20
0.0
 30
0.0
  0
VERTEX
  5
20D
330
20C
100
AcDbEntity
  8
Ebene 1
 62
   179
420
  1709851
370
    18
100
AcDbVertex
100
AcDb2dVertex
 10
90.11732446748803
 20
-210.8584472129104
 30
0.0
  0
VERTEX
  5
20E
330
20C
100
AcDbEntity
  8
Ebene 1
 62
   179
420
  1709851
370
    18
100
AcDbVertex
100
AcDb2dVertex
 10
87.91590845241339
 20
-210.8584472129104
 30
0.0
  0
SEQEND
  5
20F
330
20C
100
AcDbEntity
  8
Ebene 1
370
    18
  0
POLYLINE
  5
210
330
1D3
100
AcDbEntity
  8
Ebene 1
 62
   179
420
  1709851
370
    18
100
AcDb2dPolyline
 66
     1
 10
0.0
 20
0.0
 30
0.0
  0
VERTEX
  5
211
330
210
100
AcDbEntity
  8
Ebene 1
 62
   179
420
  1709851
370
    18
100
AcDbVertex
100
AcDb2dVertex
 10
90.22308889888521
 20
-206.1593369710296
 30
0.0
  0
VERTEX
  5
212
330
210
100
AcDbEntity
  8
Ebene 1
 62
   179
420
  1709851
370
    18
100
AcDbVertex
100
AcDb2dVertex
 10
90.18071422441663
 20
-206.0752766411895
 30
0.0
  0
VERTEX
  5
213
330
210
100
AcDbEntity
  8
Ebene 1
 62
   179
420
  1709851
370
    18
100
AcDbVertex
100
AcDb2dVertex
 10
90.11732446748803
 20
-206.053917049181
 30
0.0
  0
SEQEND
  5
214
330
210
100
AcDbEntity
  8
Ebene 1
370
    18
  0
POLYLINE
  5
215
330
1D3
100
AcDbEntity
  8
Ebene 1
 62
   179
420
  1709851
370
    18
100
AcDb2dPolyline
 66
     1
 10
0.0
 20
0.0
 30
0.0
  0
VERTEX
  5
216
330
215
100
AcDbEntity
  8
Ebene 1
 62
   179
420
  1709851
370
    18
100
AcDbVertex
100
AcDb2dVertex
 10
90.22308889888521
 20
-206.1593369710296
 30
0.0
  0
VERTEX
  5
217
330
215
100
AcDbEntity
  8
Ebene 1
 62
   179
420
  1709851
370
    18
100
AcDbVertex
100
AcDb2dVertex
 10
90.22308889888521
 20
-210.7530272910618
 30
0.0
  0
SEQEND
  5
218
330
215
100
AcDbEntity
  8
Ebene 1
370
    18
  0
POLYLINE
  5
219
330
1D3
100
AcDbEntity
  8
Ebene 1
 62
   179
420
  1709851
370
    18
100
AcDb2dPolyline
 66
     1
 10
0.0
 20
0.0
 30
0.0
  0
VERTEX
  5
21A
330
219
100
AcDbEntity
  8
Ebene 1
 62
   179
420
  1709851
370
    18
100
AcDbVertex
100
AcDb2dVertex
 10
87.91590845241339
 20
-206.053917049181
 30
0.0
  0
VERTEX
  5
21B
330
219
100
AcDbEntity
  8
Ebene 1
 62
   179
420
  1709851
370
    18
100
AcDbVertex
100
AcDb2dVertex
 10
87.83133135825051
 20
-206.095947214101
 30
0.0
  0
VERTEX
  5
21C
330
219
100
AcDbEntity
  8
Ebene 1
 62
   179
420
  1709851
370
    18
100
AcDbVertex
100
AcDb2dVertex
 10
87.81014402101621
 20
-206.1593369710296
 30
0.0
  0
SEQEND
  5
21D
330
219
100
AcDbEntity
  8
Ebene 1
370
    18
  0
POLYLINE
  5
21E
330
1D3
100
AcDbEntity
  8
Ebene 1
 62
   179
420
  1709851
370
    18
100
AcDb2dPolyline
 66
     1
 10
0.0
 20
0.0
 30
0.0
  0
VERTEX
  5
21F
330
21E
100
AcDbEntity
  8
Ebene 1
 62
   179
420
  1709851
370
    18
100
AcDbVertex
100
AcDb2dVertex
 10
87.81014402101621
 20
-209.7580837149216
 30
0.0
  0
VERTEX
  5
220
330
21E
100
AcDbEntity
  8
Ebene 1
 62
   179
420
  1709851
370
    18
100
AcDbVertex
100
AcDb2dVertex
 10
87.81014402101621
 20
-207.1542805471698
 30
0.0
  0
VERTEX
  5
221
330
21E
100
AcDbEntity
  8
Ebene 1
 62
   179
420
  1709851
370
    18
100
AcDbVertex
100
AcDb2dVertex
 10
87.81014402101621
 20
-206.1593369710296
 30
0.0
  0
SEQEND
  5
222
330
21E
100
AcDbEntity
  8
Ebene 1
370
    18
  0
POLYLINE
  5
223
330
1D3
100
AcDbEntity
  8
Ebene 1
 62
   179
420
  1709851
370
    18
100
AcDb2dPolyline
 66
     1
 10
0.0
 20
0.0
 30
0.0
  0
VERTEX
  5
224
330
223
100
AcDbEntity
  8
Ebene 1
 62
   179
420
  1709851
370
    18
100
AcDbVertex
100
AcDb2dVertex
 10
87.81014402101621
 20
-209.7580837149216
 30
0.0
  0
VERTEX
  5
225
330
223
100
AcDbEntity
  8
Ebene 1
 62
   179
420
  1709851
370
    18
100
AcDbVertex
100
AcDb2dVertex
 10
85.82042912351018
 20
-209.7580837149216
 30
0.0
  0
SEQEND
  5
226
330
223
100
AcDbEntity
  8
Ebene 1
370
    18
  0
POLYLINE
  5
227
330
1D3
100
AcDbEntity
  8
Ebene 1
 62
   179
420
  1709851
370
    18
100
AcDb2dPolyline
 66
     1
 10
0.0
 20
0.0
 30
0.0
  0
VERTEX
  5
228
330
227
100
AcDbEntity
  8
Ebene 1
 62
   179
420
  1709851
370
    18
100
AcDbVertex
100
AcDb2dVertex
 10
80.21129690920066
 20
-211.0706650948018
 30
0.0
  0
VERTEX
  5
229
330
227
100
AcDbEntity
  8
Ebene 1
 62
   179
420
  1709851
370
    18
100
AcDbVertex
100
AcDb2dVertex
 10
87.4079291231133
 20
-211.0706650948018
 30
0.0
  0
SEQEND
  5
22A
330
227
100
AcDbEntity
  8
Ebene 1
370
    18
  0
POLYLINE
  5
22B
330
1D3
100
AcDbEntity
  8
Ebene 1
 62
   179
420
  1709851
370
    18
100
AcDb2dPolyline
 66
     1
 10
0.0
 20
0.0
 30
0.0
  0
VERTEX
  5
22C
330
22B
100
AcDbEntity
  8
Ebene 1
 62
   179
420
  1709851
370
    18
100
AcDbVertex
100
AcDb2dVertex
 10
82.81475556740395
 20
-209.0380587585044
 30
0.0
  0
VERTEX
  5
22D
330
22B
100
AcDbEntity
  8
Ebene 1
 62
   179
420
  1709851
370
    18
100
AcDbVertex
100
AcDb2dVertex
 10
82.81475556740395
 20
-207.874305503587
 30
0.0
  0
VERTEX
  5
22E
330
22B
100
AcDbEntity
  8
Ebene 1
 62
   179
420
  1709851
370
    18
100
AcDbVertex
100
AcDb2dVertex
 10
83.80969914354411
 20
-207.3024196530355
 30
0.0
  0
VERTEX
  5
22F
330
22B
100
AcDbEntity
  8
Ebene 1
 62
   179
420
  1709851
370
    18
100
AcDbVertex
100
AcDb2dVertex
 10
84.82565780214428
 20
-207.874305503587
 30
0.0
  0
VERTEX
  5
230
330
22B
100
AcDbEntity
  8
Ebene 1
 62
   179
420
  1709851
370
    18
100
AcDbVertex
100
AcDb2dVertex
 10
84.82565780214428
 20
-209.0380587585044
 30
0.0
  0
VERTEX
  5
231
330
22B
100
AcDbEntity
  8
Ebene 1
 62
   179
420
  1709851
370
    18
100
AcDbVertex
100
AcDb2dVertex
 10
83.80969914354411
 20
-209.6099446090558
 30
0.0
  0
VERTEX
  5
232
330
22B
100
AcDbEntity
  8
Ebene 1
 62
   179
420
  1709851
370
    18
100
AcDbVertex
100
AcDb2dVertex
 10
82.81475556740395
 20
-209.0380587585044
 30
0.0
  0
SEQEND
  5
233
330
22B
100
AcDbEntity
  8
Ebene 1
370
    18
  0
SPLINE
  5
234
330
1D3
100
AcDbEntity
  8
Ebene 1
 62
   179
420
  1709851
370
    18
100
AcDbSpline
210
0.0
220
0.0
230
1.0
 70
    11
 71
     3
 72
    17
 73
    13
 74
     0
 42
0.0000000001
 43
0.0000000001
 40
0.0
 40
0.0
 40
0.0
 40
0.0
 40
1.0
 40
1.0
 40
1.0
 40
2.0
 40
2.0
 40
2.0
 40
3.0
 40
3.0
 40
3.0
 40
4.0
 40
4.0
 40
4.0
 40
4.0
 10
84.80447046491
 20
-208.46686192705
 30
0.0
 10
84.80447046491
 20
-207.916335668507
 30
0.0
 10
84.33886581007849
 20
-207.4719183509098
 30
0.0
 10
83.80969914354411
 20
-207.4719183509098
 30
0.0
 10
83.25934513977545
 20
-207.4719183509098
 30
0.0
 10
82.81475556740395
 20
-207.916335668507
 30
0.0
 10
82.81475556740395
 20
-208.46686192705
 30
0.0
 10
82.81475556740395
 20
-208.9960285935843
 30
0.0
 10
83.25934513977545
 20
-209.4618055031901
 30
0.0
 10
83.80969914354411
 20
-209.4618055031901
 30
0.0
 10
84.35988089253851
 20
-209.4618055031901
 30
0.0
 10
84.80447046491
 20
-208.9960285935843
 30
0.0
 10
84.80447046491
 20
-208.46686192705
 30
0.0
  0
POLYLINE
  5
235
330
1D3
100
AcDbEntity
  8
Ebene 1
 62
   179
420
  1709851
370
    18
100
AcDb2dPolyline
 66
     1
 10
0.0
 20
0.0
 30
0.0
  0
VERTEX
  5
236
330
235
100
AcDbEntity
  8
Ebene 1
 62
   179
420
  1709851
370
    18
100
AcDbVertex
100
AcDb2dVertex
 10
86.0109429038445
 20
-207.1542805471698
 30
0.0
  0
VERTEX
  5
237
330
235
100
AcDbEntity
  8
Ebene 1
 62
   179
420
  1709851
370
    18
100
AcDbVertex
100
AcDb2dVertex
 10
86.0109429038445
 20
-206.964111276384
 30
0.0
  0
VERTEX
  5
238
330
235
100
AcDbEntity
  8
Ebene 1
 62
   179
420
  1709851
370
    18
100
AcDbVertex
100
AcDb2dVertex
 10
85.60872800594157
 20
-206.964111276384
 30
0.0
  0
VERTEX
  5
239
330
235
100
AcDbEntity
  8
Ebene 1
 62
   179
420
  1709851
370
    18
100
AcDbVertex
100
AcDb2dVertex
 10
85.60872800594157
 20
-209.970301596813
 30
0.0
  0
SEQEND
  5
23A
330
235
100
AcDbEntity
  8
Ebene 1
370
    18
  0
POLYLINE
  5
23B
330
1D3
100
AcDbEntity
  8
Ebene 1
 62
   179
420
  1709851
370
    18
100
AcDb2dPolyline
 66
     1
 10
0.0
 20
0.0
 30
0.0
  0
VERTEX
  5
23C
330
23B
100
AcDbEntity
  8
Ebene 1
 62
   179
420
  1709851
370
    18
100
AcDbVertex
100
AcDb2dVertex
 10
85.60872800594157
 20
-209.970301596813
 30
0.0
  0
VERTEX
  5
23D
330
23B
100
AcDbEntity
  8
Ebene 1
 62
   179
420
  1709851
370
    18
100
AcDbVertex
100
AcDb2dVertex
 10
86.0109429038445
 20
-209.970301596813
 30
0.0
  0
VERTEX
  5
23E
330
23B
100
AcDbEntity
  8
Ebene 1
 62
   179
420
  1709851
370
    18
100
AcDbVertex
100
AcDb2dVertex
 10
86.0109429038445
 20
-209.7580837149216
 30
0.0
  0
SEQEND
  5
23F
330
23B
100
AcDbEntity
  8
Ebene 1
370
    18
  0
POLYLINE
  5
240
330
1D3
100
AcDbEntity
  8
Ebene 1
 62
   179
420
  1709851
370
    18
100
AcDb2dPolyline
 66
     1
 10
0.0
 20
0.0
 30
0.0
  0
VERTEX
  5
241
330
240
100
AcDbEntity
  8
Ebene 1
 62
   179
420
  1709851
370
    18
100
AcDbVertex
100
AcDb2dVertex
 10
85.82042912351018
 20
-207.1542805471698
 30
0.0
  0
VERTEX
  5
242
330
240
100
AcDbEntity
  8
Ebene 1
 62
   179
420
  1709851
370
    18
100
AcDbVertex
100
AcDb2dVertex
 10
85.82042912351018
 20
-209.7580837149216
 30
0.0
  0
SEQEND
  5
243
330
240
100
AcDbEntity
  8
Ebene 1
370
    18
  0
POLYLINE
  5
244
330
1D3
100
AcDbEntity
  8
Ebene 1
 62
   179
420
  1709851
370
    18
100
AcDb2dPolyline
 66
     1
 10
0.0
 20
0.0
 30
0.0
  0
VERTEX
  5
245
330
244
100
AcDbEntity
  8
Ebene 1
 62
   179
420
  1709851
370
    18
100
AcDbVertex
100
AcDb2dVertex
 10
85.82042912351018
 20
-207.1542805471698
 30
0.0
  0
VERTEX
  5
246
330
244
100
AcDbEntity
  8
Ebene 1
 62
   179
420
  1709851
370
    18
100
AcDbVertex
100
AcDb2dVertex
 10
87.81014402101621
 20
-207.1542805471698
 30
0.0
  0
SEQEND
  5
247
330
244
100
AcDbEntity
  8
Ebene 1
370
    18
  0
POLYLINE
  5
248
330
1D3
100
AcDbEntity
  8
Ebene 1
 62
   179
420
  1709851
370
    18
100
AcDb2dPolyline
 66
     1
 10
0.0
 20
0.0
 30
0.0
  0
VERTEX
  5
249
330
248
100
AcDbEntity
  8
Ebene 1
 62
   179
420
  1709851
370
    18
100
AcDbVertex
100
AcDb2dVertex
 10
87.4079291231133
 20
-207.1542805471698
 30
0.0
  0
VERTEX
  5
24A
330
248
100
AcDbEntity
  8
Ebene 1
 62
   179
420
  1709851
370
    18
100
AcDbVertex
100
AcDb2dVertex
 10
87.4079291231133
 20
-205.0596624921379
 30
0.0
  0
SEQEND
  5
24B
330
248
100
AcDbEntity
  8
Ebene 1
370
    18
  0
POLYLINE
  5
24C
330
1D3
100
AcDbEntity
  8
Ebene 1
 62
   179
420
  1709851
370
    18
100
AcDb2dPolyline
 66
     1
 10
0.0
 20
0.0
 30
0.0
  0
VERTEX
  5
24D
330
24C
100
AcDbEntity
  8
Ebene 1
 62
   179
420
  1709851
370
    18
100
AcDbVertex
100
AcDb2dVertex
 10
87.4079291231133
 20
-205.0596624921379
 30
0.0
  0
VERTEX
  5
24E
330
24C
100
AcDbEntity
  8
Ebene 1
 62
   179
420
  1709851
370
    18
100
AcDbVertex
100
AcDb2dVertex
 10
80.21129690920066
 20
-205.0596624921379
 30
0.0
  0
SEQEND
  5
24F
330
24C
100
AcDbEntity
  8
Ebene 1
370
    18
  0
POLYLINE
  5
250
330
1D3
100
AcDbEntity
  8
Ebene 1
 62
   179
420
  1709851
370
    18
100
AcDb2dPolyline
 66
     1
 10
0.0
 20
0.0
 30
0.0
  0
VERTEX
  5
251
330
250
100
AcDbEntity
  8
Ebene 1
 62
   179
420
  1709851
370
    18
100
AcDbVertex
100
AcDb2dVertex
 10
166.6978352447839
 20
-206.2661349310724
 30
0.0
  0
VERTEX
  5
252
330
250
100
AcDbEntity
  8
Ebene 1
 62
   179
420
  1709851
370
    18
100
AcDbVertex
100
AcDb2dVertex
 10
156.1995957725821
 20
-206.2661349310724
 30
0.0
  0
SEQEND
  5
253
330
250
100
AcDbEntity
  8
Ebene 1
370
    18
  0
POLYLINE
  5
254
330
1D3
100
AcDbEntity
  8
Ebene 1
 62
   179
420
  1709851
370
    18
100
AcDb2dPolyline
 66
     1
 10
0.0
 20
0.0
 30
0.0
  0
VERTEX
  5
255
330
254
100
AcDbEntity
  8
Ebene 1
 62
   179
420
  1709851
370
    18
100
AcDbVertex
100
AcDb2dVertex
 10
156.1995957725821
 20
-210.6682779421246
 30
0.0
  0
VERTEX
  5
256
330
254
100
AcDbEntity
  8
Ebene 1
 62
   179
420
  1709851
370
    18
100
AcDbVertex
100
AcDb2dVertex
 10
166.6978352447839
 20
-210.6682779421246
 30
0.0
  0
SEQEND
  5
257
330
254
100
AcDbEntity
  8
Ebene 1
370
    18
  0
POLYLINE
  5
258
330
1D3
100
AcDbEntity
  8
Ebene 1
 62
   179
420
  1709851
370
    18
100
AcDb2dPolyline
 66
     1
 10
0.0
 20
0.0
 30
0.0
  0
VERTEX
  5
259
330
258
100
AcDbEntity
  8
Ebene 1
 62
   179
420
  1709851
370
    18
100
AcDbVertex
100
AcDb2dVertex
 10
80.21129690920066
 20
-206.2661349310724
 30
0.0
  0
VERTEX
  5
25A
330
258
100
AcDbEntity
  8
Ebene 1
 62
   179
420
  1709851
370
    18
100
AcDbVertex
100
AcDb2dVertex
 10
41.51856824048841
 20
-206.2661349310724
 30
0.0
  0
SEQEND
  5
25B
330
258
100
AcDbEntity
  8
Ebene 1
370
    18
  0
POLYLINE
  5
25C
330
1D3
100
AcDbEntity
  8
Ebene 1
 62
   179
420
  1709851
370
    18
100
AcDb2dPolyline
 66
     1
 10
0.0
 20
0.0
 30
0.0
  0
VERTEX
  5
25D
330
25C
100
AcDbEntity
  8
Ebene 1
 62
   179
420
  1709851
370
    18
100
AcDbVertex
100
AcDb2dVertex
 10
41.51856824048841
 20
-210.6682779421246
 30
0.0
  0
VERTEX
  5
25E
330
25C
100
AcDbEntity
  8
Ebene 1
 62
   179
420
  1709851
370
    18
100
AcDbVertex
100
AcDb2dVertex
 10
80.21129690920066
 20
-210.6682779421246
 30
0.0
  0
SEQEND
  5
25F
330
25C
100
AcDbEntity
  8
Ebene 1
370
    18
  0
POLYLINE
  5
260
330
1D3
100
AcDbEntity
  8
Ebene 1
 62
   179
420
  1709851
370
    18
100
AcDb2dPolyline
 66
     1
 10
0.0
 20
0.0
 30
0.0
  0
VERTEX
  5
261
330
260
100
AcDbEntity
  8
Ebene 1
 62
   179
420
  1709851
370
    18
100
AcDbVertex
100
AcDb2dVertex
 10
149.0027913038952
 20
-206.2661349310724
 30
0.0
  0
VERTEX
  5
262
330
260
100
AcDbEntity
  8
Ebene 1
 62
   179
420
  1709851
370
    18
100
AcDbVertex
100
AcDb2dVertex
 10
90.22308889888521
 20
-206.2661349310724
 30
0.0
  0
SEQEND
  5
263
330
260
100
AcDbEntity
  8
Ebene 1
370
    18
  0
POLYLINE
  5
264
330
1D3
100
AcDbEntity
  8
Ebene 1
 62
   179
420
  1709851
370
    18
100
AcDb2dPolyline
 66
     1
 10
0.0
 20
0.0
 30
0.0
  0
VERTEX
  5
265
330
264
100
AcDbEntity
  8
Ebene 1
 62
   179
420
  1709851
370
    18
100
AcDbVertex
100
AcDb2dVertex
 10
90.22308889888521
 20
-210.6682779421246
 30
0.0
  0
VERTEX
  5
266
330
264
100
AcDbEntity
  8
Ebene 1
 62
   179
420
  1709851
370
    18
100
AcDbVertex
100
AcDb2dVertex
 10
149.0027913038952
 20
-210.6682779421246
 30
0.0
  0
SEQEND
  5
267
330
264
100
AcDbEntity
  8
Ebene 1
370
    18
  0
POLYLINE
  5
268
330
1D3
100
AcDbEntity
  8
Ebene 1
 62
   179
420
  1709851
370
    18
100
AcDb2dPolyline
 66
     1
 10
0.0
 20
0.0
 30
0.0
  0
VERTEX
  5
269
330
268
100
AcDbEntity
  8
Ebene 1
 62
   179
420
  1709851
370
    18
100
AcDbVertex
100
AcDb2dVertex
 10
87.81014402101621
 20
-206.2661349310724
 30
0.0
  0
VERTEX
  5
26A
330
268
100
AcDbEntity
  8
Ebene 1
 62
   179
420
  1709851
370
    18
100
AcDbVertex
100
AcDb2dVertex
 10
87.4079291231133
 20
-206.2661349310724
 30
0.0
  0
SEQEND
  5
26B
330
268
100
AcDbEntity
  8
Ebene 1
370
    18
  0
POLYLINE
  5
26C
330
1D3
100
AcDbEntity
  8
Ebene 1
 62
   179
420
  1709851
370
    18
100
AcDb2dPolyline
 66
     1
 10
0.0
 20
0.0
 30
0.0
  0
VERTEX
  5
26D
330
26C
100
AcDbEntity
  8
Ebene 1
 62
   179
420
  1709851
370
    18
100
AcDbVertex
100
AcDb2dVertex
 10
87.4079291231133
 20
-210.6682779421246
 30
0.0
  0
VERTEX
  5
26E
330
26C
100
AcDbEntity
  8
Ebene 1
 62
   179
420
  1709851
370
    18
100
AcDbVertex
100
AcDb2dVertex
 10
87.81014402101621
 20
-210.6682779421246
 30
0.0
  0
SEQEND
  5
26F
330
26C
100
AcDbEntity
  8
Ebene 1
370
    18
  0
POLYLINE
  5
270
330
1D3
100
AcDbEntity
  8
Ebene 1
 62
   179
420
  1709851
370
    18
100
AcDb2dPolyline
 66
     1
 10
0.0
 20
0.0
 30
0.0
  0
VERTEX
  5
271
330
270
100
AcDbEntity
  8
Ebene 1
 62
   179
420
  1709851
370
    18
100
AcDbVertex
100
AcDb2dVertex
 10
174.000404144868
 20
-113.8729803860283
 30
0.0
  0
VERTEX
  5
272
330
270
100
AcDbEntity
  8
Ebene 1
 62
   179
420
  1709851
370
    18
100
AcDbVertex
100
AcDb2dVertex
 10
170.9952473530845
 20
-113.8729803860283
 30
0.0
  0
SEQEND
  5
273
330
270
100
AcDbEntity
  8
Ebene 1
370
    18
  0
POLYLINE
  5
274
330
1D3
100
AcDbEntity
  8
Ebene 1
 62
   179
420
  1709851
370
    18
100
AcDb2dPolyline
 66
     1
 10
0.0
 20
0.0
 30
0.0
  0
VERTEX
  5
275
330
274
100
AcDbEntity
  8
Ebene 1
 62
   179
420
  1709851
370
    18
100
AcDbVertex
100
AcDb2dVertex
 10
170.9952473530845
 20
-113.8729803860283
 30
0.0
  0
VERTEX
  5
276
330
274
100
AcDbEntity
  8
Ebene 1
 62
   179
420
  1709851
370
    18
100
AcDbVertex
100
AcDb2dVertex
 10
170.9952473530845
 20
-114.2750230291569
 30
0.0
  0
VERTEX
  5
277
330
274
100
AcDbEntity
  8
Ebene 1
 62
   179
420
  1709851
370
    18
100
AcDbVertex
100
AcDb2dVertex
 10
174.000404144868
 20
-114.2750230291569
 30
0.0
  0
SEQEND
  5
278
330
274
100
AcDbEntity
  8
Ebene 1
370
    18
  0
POLYLINE
  5
279
330
1D3
100
AcDbEntity
  8
Ebene 1
 62
   179
420
  1709851
370
    18
100
AcDb2dPolyline
 66
     1
 10
0.0
 20
0.0
 30
0.0
  0
VERTEX
  5
27A
330
279
100
AcDbEntity
  8
Ebene 1
 62
   179
420
  1709851
370
    18
100
AcDbVertex
100
AcDb2dVertex
 10
174.000404144868
 20
-114.2750230291569
 30
0.0
  0
VERTEX
  5
27B
330
279
100
AcDbEntity
  8
Ebene 1
 62
   179
420
  1709851
370
    18
100
AcDbVertex
100
AcDb2dVertex
 10
174.000404144868
 20
-113.8729803860283
 30
0.0
  0
SEQEND
  5
27C
330
279
100
AcDbEntity
  8
Ebene 1
370
    18
  0
POLYLINE
  5
27D
330
1D3
100
AcDbEntity
  8
Ebene 1
 62
   179
420
  1709851
370
    18
100
AcDb2dPolyline
 66
     1
 10
0.0
 20
0.0
 30
0.0
  0
VERTEX
  5
27E
330
27D
100
AcDbEntity
  8
Ebene 1
 62
   179
420
  1709851
370
    18
100
AcDbVertex
100
AcDb2dVertex
 10
170.105723698793
 20
-180.7593369773796
 30
0.0
  0
VERTEX
  5
27F
330
27D
100
AcDbEntity
  8
Ebene 1
 62
   179
420
  1709851
370
    18
100
AcDbVertex
100
AcDb2dVertex
 10
170.105723698793
 20
-178.558609981402
 30
0.0
  0
SEQEND
  5
280
330
27D
100
AcDbEntity
  8
Ebene 1
370
    18
  0
POLYLINE
  5
281
330
1D3
100
AcDbEntity
  8
Ebene 1
 62
   179
420
  1709851
370
    18
100
AcDb2dPolyline
 66
     1
 10
0.0
 20
0.0
 30
0.0
  0
VERTEX
  5
282
330
281
100
AcDbEntity
  8
Ebene 1
 62
   179
420
  1709851
370
    18
100
AcDbVertex
100
AcDb2dVertex
 10
173.8098903645337
 20
-180.8661349374224
 30
0.0
  0
VERTEX
  5
283
330
281
100
AcDbEntity
  8
Ebene 1
 62
   179
420
  1709851
370
    18
100
AcDbVertex
100
AcDb2dVertex
 10
174.8051784502223
 20
-180.8661349374224
 30
0.0
  0
SEQEND
  5
284
330
281
100
AcDbEntity
  8
Ebene 1
370
    18
  0
POLYLINE
  5
285
330
1D3
100
AcDbEntity
  8
Ebene 1
 62
   179
420
  1709851
370
    18
100
AcDb2dPolyline
 66
     1
 10
0.0
 20
0.0
 30
0.0
  0
VERTEX
  5
286
330
285
100
AcDbEntity
  8
Ebene 1
 62
   179
420
  1709851
370
    18
100
AcDbVertex
100
AcDb2dVertex
 10
174.9109428816195
 20
-178.558609981402
 30
0.0
  0
VERTEX
  5
287
330
285
100
AcDbEntity
  8
Ebene 1
 62
   179
420
  1709851
370
    18
100
AcDbVertex
100
AcDb2dVertex
 10
174.8682236976024
 20
-178.4738606324649
 30
0.0
  0
VERTEX
  5
288
330
285
100
AcDbEntity
  8
Ebene 1
 62
   179
420
  1709851
370
    18
100
AcDbVertex
100
AcDb2dVertex
 10
174.8051784502223
 20
-178.4531900595534
 30
0.0
  0
SEQEND
  5
289
330
285
100
AcDbEntity
  8
Ebene 1
370
    18
  0
POLYLINE
  5
28A
330
1D3
100
AcDbEntity
  8
Ebene 1
 62
   179
420
  1709851
370
    18
100
AcDb2dPolyline
 66
     1
 10
0.0
 20
0.0
 30
0.0
  0
VERTEX
  5
28B
330
28A
100
AcDbEntity
  8
Ebene 1
 62
   179
420
  1709851
370
    18
100
AcDbVertex
100
AcDb2dVertex
 10
174.8051784502223
 20
-180.8661349374224
 30
0.0
  0
VERTEX
  5
28C
330
28A
100
AcDbEntity
  8
Ebene 1
 62
   179
420
  1709851
370
    18
100
AcDbVertex
100
AcDb2dVertex
 10
174.8899277991595
 20
-180.8234157534053
 30
0.0
  0
VERTEX
  5
28D
330
28A
100
AcDbEntity
  8
Ebene 1
 62
   179
420
  1709851
370
    18
100
AcDbVertex
100
AcDb2dVertex
 10
174.9109428816195
 20
-180.7593369773796
 30
0.0
  0
SEQEND
  5
28E
330
28A
100
AcDbEntity
  8
Ebene 1
370
    18
  0
POLYLINE
  5
28F
330
1D3
100
AcDbEntity
  8
Ebene 1
 62
   179
420
  1709851
370
    18
100
AcDb2dPolyline
 66
     1
 10
0.0
 20
0.0
 30
0.0
  0
VERTEX
  5
290
330
28F
100
AcDbEntity
  8
Ebene 1
 62
   179
420
  1709851
370
    18
100
AcDbVertex
100
AcDb2dVertex
 10
174.9109428816195
 20
-178.558609981402
 30
0.0
  0
VERTEX
  5
291
330
28F
100
AcDbEntity
  8
Ebene 1
 62
   179
420
  1709851
370
    18
100
AcDbVertex
100
AcDb2dVertex
 10
174.9109428816195
 20
-180.7593369773796
 30
0.0
  0
SEQEND
  5
292
330
28F
100
AcDbEntity
  8
Ebene 1
370
    18
  0
POLYLINE
  5
293
330
1D3
100
AcDbEntity
  8
Ebene 1
 62
   179
420
  1709851
370
    18
100
AcDb2dPolyline
 66
     1
 10
0.0
 20
0.0
 30
0.0
  0
VERTEX
  5
294
330
293
100
AcDbEntity
  8
Ebene 1
 62
   179
420
  1709851
370
    18
100
AcDbVertex
100
AcDb2dVertex
 10
170.2114881301902
 20
-178.4531900595534
 30
0.0
  0
VERTEX
  5
295
330
293
100
AcDbEntity
  8
Ebene 1
 62
   179
420
  1709851
370
    18
100
AcDbVertex
100
AcDb2dVertex
 10
170.1274278003501
 20
-178.4945312053764
 30
0.0
  0
VERTEX
  5
296
330
293
100
AcDbEntity
  8
Ebene 1
 62
   179
420
  1709851
370
    18
100
AcDbVertex
100
AcDb2dVertex
 10
170.105723698793
 20
-178.558609981402
 30
0.0
  0
SEQEND
  5
297
330
293
100
AcDbEntity
  8
Ebene 1
370
    18
  0
POLYLINE
  5
298
330
1D3
100
AcDbEntity
  8
Ebene 1
 62
   179
420
  1709851
370
    18
100
AcDb2dPolyline
 66
     1
 10
0.0
 20
0.0
 30
0.0
  0
VERTEX
  5
299
330
298
100
AcDbEntity
  8
Ebene 1
 62
   179
420
  1709851
370
    18
100
AcDbVertex
100
AcDb2dVertex
 10
170.2114881301902
 20
-178.4531900595534
 30
0.0
  0
VERTEX
  5
29A
330
298
100
AcDbEntity
  8
Ebene 1
 62
   179
420
  1709851
370
    18
100
AcDbVertex
100
AcDb2dVertex
 10
174.8051784502223
 20
-178.4531900595534
 30
0.0
  0
SEQEND
  5
29B
330
298
100
AcDbEntity
  8
Ebene 1
370
    18
  0
POLYLINE
  5
29C
330
1D3
100
AcDbEntity
  8
Ebene 1
 62
   179
420
  1709851
370
    18
100
AcDb2dPolyline
 66
     1
 10
0.0
 20
0.0
 30
0.0
  0
VERTEX
  5
29D
330
29C
100
AcDbEntity
  8
Ebene 1
 62
   179
420
  1709851
370
    18
100
AcDbVertex
100
AcDb2dVertex
 10
170.105723698793
 20
-180.7593369773796
 30
0.0
  0
VERTEX
  5
29E
330
29C
100
AcDbEntity
  8
Ebene 1
 62
   179
420
  1709851
370
    18
100
AcDbVertex
100
AcDb2dVertex
 10
170.1484428828101
 20
-180.8440863263168
 30
0.0
  0
VERTEX
  5
29F
330
29C
100
AcDbEntity
  8
Ebene 1
 62
   179
420
  1709851
370
    18
100
AcDbVertex
100
AcDb2dVertex
 10
170.2114881301902
 20
-180.8661349374224
 30
0.0
  0
SEQEND
  5
2A0
330
29C
100
AcDbEntity
  8
Ebene 1
370
    18
  0
POLYLINE
  5
2A1
330
1D3
100
AcDbEntity
  8
Ebene 1
 62
   179
420
  1709851
370
    18
100
AcDb2dPolyline
 66
     1
 10
0.0
 20
0.0
 30
0.0
  0
VERTEX
  5
2A2
330
2A1
100
AcDbEntity
  8
Ebene 1
 62
   179
420
  1709851
370
    18
100
AcDbVertex
100
AcDb2dVertex
 10
173.8098903645337
 20
-180.8661349374224
 30
0.0
  0
VERTEX
  5
2A3
330
2A1
100
AcDbEntity
  8
Ebene 1
 62
   179
420
  1709851
370
    18
100
AcDbVertex
100
AcDb2dVertex
 10
171.2067762158789
 20
-180.8661349374224
 30
0.0
  0
VERTEX
  5
2A4
330
2A1
100
AcDbEntity
  8
Ebene 1
 62
   179
420
  1709851
370
    18
100
AcDbVertex
100
AcDb2dVertex
 10
170.2114881301902
 20
-180.8661349374224
 30
0.0
  0
SEQEND
  5
2A5
330
2A1
100
AcDbEntity
  8
Ebene 1
370
    18
  0
POLYLINE
  5
2A6
330
1D3
100
AcDbEntity
  8
Ebene 1
 62
   179
420
  1709851
370
    18
100
AcDb2dPolyline
 66
     1
 10
0.0
 20
0.0
 30
0.0
  0
VERTEX
  5
2A7
330
2A6
100
AcDbEntity
  8
Ebene 1
 62
   179
420
  1709851
370
    18
100
AcDbVertex
100
AcDb2dVertex
 10
173.8098903645337
 20
-180.8661349374224
 30
0.0
  0
VERTEX
  5
2A8
330
2A6
100
AcDbEntity
  8
Ebene 1
 62
   179
420
  1709851
370
    18
100
AcDbVertex
100
AcDb2dVertex
 10
173.8098903645337
 20
-182.8553330706056
 30
0.0
  0
SEQEND
  5
2A9
330
2A6
100
AcDbEntity
  8
Ebene 1
370
    18
  0
POLYLINE
  5
2AA
330
1D3
100
AcDbEntity
  8
Ebene 1
 62
   179
420
  1709851
370
    18
100
AcDb2dPolyline
 66
     1
 10
0.0
 20
0.0
 30
0.0
  0
VERTEX
  5
2AB
330
2AA
100
AcDbEntity
  8
Ebene 1
 62
   179
420
  1709851
370
    18
100
AcDbVertex
100
AcDb2dVertex
 10
175.1014566619538
 20
-188.4646375396894
 30
0.0
  0
VERTEX
  5
2AC
330
2AA
100
AcDbEntity
  8
Ebene 1
 62
   179
420
  1709851
370
    18
100
AcDbVertex
100
AcDb2dVertex
 10
175.1014566619538
 20
-181.2678330710025
 30
0.0
  0
SEQEND
  5
2AD
330
2AA
100
AcDbEntity
  8
Ebene 1
370
    18
  0
POLYLINE
  5
2AE
330
1D3
100
AcDbEntity
  8
Ebene 1
 62
   179
420
  1709851
370
    18
100
AcDb2dPolyline
 66
     1
 10
0.0
 20
0.0
 30
0.0
  0
VERTEX
  5
2AF
330
2AE
100
AcDbEntity
  8
Ebene 1
 62
   179
420
  1709851
370
    18
100
AcDbVertex
100
AcDb2dVertex
 10
173.090209917665
 20
-185.8615233910346
 30
0.0
  0
VERTEX
  5
2B0
330
2AE
100
AcDbEntity
  8
Ebene 1
 62
   179
420
  1709851
370
    18
100
AcDbVertex
100
AcDb2dVertex
 10
171.9264566627476
 20
-185.8615233910346
 30
0.0
  0
VERTEX
  5
2B1
330
2AE
100
AcDbEntity
  8
Ebene 1
 62
   179
420
  1709851
370
    18
100
AcDbVertex
100
AcDb2dVertex
 10
171.3545708121961
 20
-184.8658907957974
 30
0.0
  0
VERTEX
  5
2B2
330
2AE
100
AcDbEntity
  8
Ebene 1
 62
   179
420
  1709851
370
    18
100
AcDbVertex
100
AcDb2dVertex
 10
171.9264566627476
 20
-183.8502766467458
 30
0.0
  0
VERTEX
  5
2B3
330
2AE
100
AcDbEntity
  8
Ebene 1
 62
   179
420
  1709851
370
    18
100
AcDbVertex
100
AcDb2dVertex
 10
173.090209917665
 20
-183.8502766467458
 30
0.0
  0
VERTEX
  5
2B4
330
2AE
100
AcDbEntity
  8
Ebene 1
 62
   179
420
  1709851
370
    18
100
AcDbVertex
100
AcDb2dVertex
 10
173.6620957682164
 20
-184.8658907957974
 30
0.0
  0
VERTEX
  5
2B5
330
2AE
100
AcDbEntity
  8
Ebene 1
 62
   179
420
  1709851
370
    18
100
AcDbVertex
100
AcDb2dVertex
 10
173.090209917665
 20
-185.8615233910346
 30
0.0
  0
SEQEND
  5
2B6
330
2AE
100
AcDbEntity
  8
Ebene 1
370
    18
  0
SPLINE
  5
2B7
330
1D3
100
AcDbEntity
  8
Ebene 1
 62
   179
420
  1709851
370
    18
100
AcDbSpline
210
0.0
220
0.0
230
1.0
 70
    11
 71
     3
 72
    17
 73
    13
 74
     0
 42
0.0000000001
 43
0.0000000001
 40
0.0
 40
0.0
 40
0.0
 40
0.0
 40
1.0
 40
1.0
 40
1.0
 40
2.0
 40
2.0
 40
2.0
 40
3.0
 40
3.0
 40
3.0
 40
4.0
 40
4.0
 40
4.0
 40
4.0
 10
173.4929415798907
 20
-184.8658907957974
 30
0.0
 10
173.4929415798907
 20
-184.3153645372545
 30
0.0
 10
173.0271646702849
 20
-183.8709472196573
 30
0.0
 10
172.4979980037505
 20
-183.8709472196573
 30
0.0
 10
171.9474717452076
 20
-183.8709472196573
 30
0.0
 10
171.5027099180618
 20
-184.3153645372545
 30
0.0
 10
171.5027099180618
 20
-184.8658907957974
 30
0.0
 10
171.5027099180618
 20
-185.3950574623318
 30
0.0
 10
171.9474717452076
 20
-185.8615233910346
 30
0.0
 10
172.4979980037505
 20
-185.8615233910346
 30
0.0
 10
173.0478352431964
 20
-185.8615233910346
 30
0.0
 10
173.4929415798907
 20
-185.3950574623318
 30
0.0
 10
173.4929415798907
 20
-184.8658907957974
 30
0.0
  0
POLYLINE
  5
2B8
330
1D3
100
AcDbEntity
  8
Ebene 1
 62
   179
420
  1709851
370
    18
100
AcDb2dPolyline
 66
     1
 10
0.0
 20
0.0
 30
0.0
  0
VERTEX
  5
2B9
330
2B8
100
AcDbEntity
  8
Ebene 1
 62
   179
420
  1709851
370
    18
100
AcDbVertex
100
AcDb2dVertex
 10
171.2067762158789
 20
-182.6644747807228
 30
0.0
  0
VERTEX
  5
2BA
330
2B8
100
AcDbEntity
  8
Ebene 1
 62
   179
420
  1709851
370
    18
100
AcDbVertex
100
AcDb2dVertex
 10
170.9952473530845
 20
-182.6644747807228
 30
0.0
  0
VERTEX
  5
2BB
330
2B8
100
AcDbEntity
  8
Ebene 1
 62
   179
420
  1709851
370
    18
100
AcDbVertex
100
AcDb2dVertex
 10
170.9952473530845
 20
-183.0668619334
 30
0.0
  0
VERTEX
  5
2BC
330
2B8
100
AcDbEntity
  8
Ebene 1
 62
   179
420
  1709851
370
    18
100
AcDbVertex
100
AcDb2dVertex
 10
174.000404144868
 20
-183.0668619334
 30
0.0
  0
SEQEND
  5
2BD
330
2B8
100
AcDbEntity
  8
Ebene 1
370
    18
  0
POLYLINE
  5
2BE
330
1D3
100
AcDbEntity
  8
Ebene 1
 62
   179
420
  1709851
370
    18
100
AcDb2dPolyline
 66
     1
 10
0.0
 20
0.0
 30
0.0
  0
VERTEX
  5
2BF
330
2BE
100
AcDbEntity
  8
Ebene 1
 62
   179
420
  1709851
370
    18
100
AcDbVertex
100
AcDb2dVertex
 10
174.000404144868
 20
-183.0668619334
 30
0.0
  0
VERTEX
  5
2C0
330
2BE
100
AcDbEntity
  8
Ebene 1
 62
   179
420
  1709851
370
    18
100
AcDbVertex
100
AcDb2dVertex
 10
174.000404144868
 20
-182.6644747807228
 30
0.0
  0
VERTEX
  5
2C1
330
2BE
100
AcDbEntity
  8
Ebene 1
 62
   179
420
  1709851
370
    18
100
AcDbVertex
100
AcDb2dVertex
 10
173.8098903645337
 20
-182.6644747807228
 30
0.0
  0
SEQEND
  5
2C2
330
2BE
100
AcDbEntity
  8
Ebene 1
370
    18
  0
POLYLINE
  5
2C3
330
1D3
100
AcDbEntity
  8
Ebene 1
 62
   179
420
  1709851
370
    18
100
AcDb2dPolyline
 66
     1
 10
0.0
 20
0.0
 30
0.0
  0
VERTEX
  5
2C4
330
2C3
100
AcDbEntity
  8
Ebene 1
 62
   179
420
  1709851
370
    18
100
AcDbVertex
100
AcDb2dVertex
 10
171.2067762158789
 20
-182.8553330706056
 30
0.0
  0
VERTEX
  5
2C5
330
2C3
100
AcDbEntity
  8
Ebene 1
 62
   179
420
  1709851
370
    18
100
AcDbVertex
100
AcDb2dVertex
 10
173.8098903645337
 20
-182.8553330706056
 30
0.0
  0
SEQEND
  5
2C6
330
2C3
100
AcDbEntity
  8
Ebene 1
370
    18
  0
POLYLINE
  5
2C7
330
1D3
100
AcDbEntity
  8
Ebene 1
 62
   179
420
  1709851
370
    18
100
AcDb2dPolyline
 66
     1
 10
0.0
 20
0.0
 30
0.0
  0
VERTEX
  5
2C8
330
2C7
100
AcDbEntity
  8
Ebene 1
 62
   179
420
  1709851
370
    18
100
AcDbVertex
100
AcDb2dVertex
 10
171.2067762158789
 20
-182.8553330706056
 30
0.0
  0
VERTEX
  5
2C9
330
2C7
100
AcDbEntity
  8
Ebene 1
 62
   179
420
  1709851
370
    18
100
AcDbVertex
100
AcDb2dVertex
 10
171.2067762158789
 20
-180.8661349374224
 30
0.0
  0
SEQEND
  5
2CA
330
2C7
100
AcDbEntity
  8
Ebene 1
370
    18
  0
POLYLINE
  5
2CB
330
1D3
100
AcDbEntity
  8
Ebene 1
 62
   179
420
  1709851
370
    18
100
AcDb2dPolyline
 66
     1
 10
0.0
 20
0.0
 30
0.0
  0
VERTEX
  5
2CC
330
2CB
100
AcDbEntity
  8
Ebene 1
 62
   179
420
  1709851
370
    18
100
AcDbVertex
100
AcDb2dVertex
 10
171.2067762158789
 20
-181.2678330710025
 30
0.0
  0
VERTEX
  5
2CD
330
2CB
100
AcDbEntity
  8
Ebene 1
 62
   179
420
  1709851
370
    18
100
AcDbVertex
100
AcDb2dVertex
 10
169.1111246322014
 20
-181.2678330710025
 30
0.0
  0
SEQEND
  5
2CE
330
2CB
100
AcDbEntity
  8
Ebene 1
370
    18
  0
POLYLINE
  5
2CF
330
1D3
100
AcDbEntity
  8
Ebene 1
 62
   179
420
  1709851
370
    18
100
AcDb2dPolyline
 66
     1
 10
0.0
 20
0.0
 30
0.0
  0
VERTEX
  5
2D0
330
2CF
100
AcDbEntity
  8
Ebene 1
 62
   179
420
  1709851
370
    18
100
AcDbVertex
100
AcDb2dVertex
 10
169.1111246322014
 20
-181.2678330710025
 30
0.0
  0
VERTEX
  5
2D1
330
2CF
100
AcDbEntity
  8
Ebene 1
 62
   179
420
  1709851
370
    18
100
AcDbVertex
100
AcDb2dVertex
 10
169.1111246322014
 20
-188.4646375396894
 30
0.0
  0
SEQEND
  5
2D2
330
2CF
100
AcDbEntity
  8
Ebene 1
370
    18
  0
POLYLINE
  5
2D3
330
1D3
100
AcDbEntity
  8
Ebene 1
 62
   179
420
  1709851
370
    18
100
AcDb2dPolyline
 66
     1
 10
0.0
 20
0.0
 30
0.0
  0
VERTEX
  5
2D4
330
2D3
100
AcDbEntity
  8
Ebene 1
 62
   179
420
  1709851
370
    18
100
AcDbVertex
100
AcDb2dVertex
 10
175.1014566619538
 20
-112.4759941667595
 30
0.0
  0
VERTEX
  5
2D5
330
2D3
100
AcDbEntity
  8
Ebene 1
 62
   179
420
  1709851
370
    18
100
AcDbVertex
100
AcDb2dVertex
 10
175.1014566619538
 20
-119.6727986354464
 30
0.0
  0
SEQEND
  5
2D6
330
2D3
100
AcDbEntity
  8
Ebene 1
370
    18
  0
POLYLINE
  5
2D7
330
1D3
100
AcDbEntity
  8
Ebene 1
 62
   179
420
  1709851
370
    18
100
AcDb2dPolyline
 66
     1
 10
0.0
 20
0.0
 30
0.0
  0
VERTEX
  5
2D8
330
2D7
100
AcDbEntity
  8
Ebene 1
 62
   179
420
  1709851
370
    18
100
AcDbVertex
100
AcDb2dVertex
 10
173.090209917665
 20
-115.0584377425028
 30
0.0
  0
VERTEX
  5
2D9
330
2D7
100
AcDbEntity
  8
Ebene 1
 62
   179
420
  1709851
370
    18
100
AcDbVertex
100
AcDb2dVertex
 10
171.9264566627476
 20
-115.0584377425028
 30
0.0
  0
VERTEX
  5
2DA
330
2D7
100
AcDbEntity
  8
Ebene 1
 62
   179
420
  1709851
370
    18
100
AcDbVertex
100
AcDb2dVertex
 10
171.3545708121961
 20
-116.0743964011029
 30
0.0
  0
VERTEX
  5
2DB
330
2D7
100
AcDbEntity
  8
Ebene 1
 62
   179
420
  1709851
370
    18
100
AcDbVertex
100
AcDb2dVertex
 10
171.9264566627476
 20
-117.0693399772431
 30
0.0
  0
VERTEX
  5
2DC
330
2D7
100
AcDbEntity
  8
Ebene 1
 62
   179
420
  1709851
370
    18
100
AcDbVertex
100
AcDb2dVertex
 10
173.090209917665
 20
-117.0693399772431
 30
0.0
  0
VERTEX
  5
2DD
330
2D7
100
AcDbEntity
  8
Ebene 1
 62
   179
420
  1709851
370
    18
100
AcDbVertex
100
AcDb2dVertex
 10
173.6620957682164
 20
-116.0743964011029
 30
0.0
  0
VERTEX
  5
2DE
330
2D7
100
AcDbEntity
  8
Ebene 1
 62
   179
420
  1709851
370
    18
100
AcDbVertex
100
AcDb2dVertex
 10
173.090209917665
 20
-115.0584377425028
 30
0.0
  0
SEQEND
  5
2DF
330
2D7
100
AcDbEntity
  8
Ebene 1
370
    18
  0
SPLINE
  5
2E0
330
1D3
100
AcDbEntity
  8
Ebene 1
 62
   179
420
  1709851
370
    18
100
AcDbSpline
210
0.0
220
0.0
230
1.0
 70
     8
 71
     3
 72
    23
 73
    19
 74
     0
 42
0.0000000001
 43
0.0000000001
 40
0.0
 40
0.0
 40
0.0
 40
0.0
 40
1.0
 40
1.0
 40
1.0
 40
2.0
 40
2.0
 40
2.0
 40
3.0
 40
3.0
 40
3.0
 40
4.0
 40
4.0
 40
4.0
 40
5.0
 40
5.0
 40
5.0
 40
6.0
 40
6.0
 40
6.0
 40
6.0
 10
173.4929415798907
 20
-116.0743964011029
 30
0.0
 10
173.4929415798907
 20
-116.0743964011029
 30
0.0
 10
173.4712374783336
 20
-116.0110066441743
 30
0.0
 10
173.4712374783336
 20
-116.0110066441743
 30
0.0
 10
173.4505669054221
 20
-115.48183997764
 30
0.0
 10
173.0058050782763
 20
-115.0794528249628
 30
0.0
 10
172.4979980037505
 20
-115.0794528249628
 30
0.0
 10
171.9474717452076
 20
-115.0794528249628
 30
0.0
 10
171.5027099180618
 20
-115.52387014256
 30
0.0
 10
171.5027099180618
 20
-116.0743964011029
 30
0.0
 10
171.5027099180618
 20
-116.6035630676373
 30
0.0
 10
171.9474717452076
 20
-117.0693399772431
 30
0.0
 10
172.4979980037505
 20
-117.0693399772431
 30
0.0
 10
173.0478352431964
 20
-117.0693399772431
 30
0.0
 10
173.4929415798907
 20
-116.6035630676373
 30
0.0
 10
173.4929415798907
 20
-116.0743964011029
 30
0.0
 10
173.4929415798907
 20
-116.0530368090944
 30
0.0
 10
173.4929415798907
 20
-116.0320217266344
 30
0.0
 10
173.4712374783336
 20
-116.0110066441743
 30
0.0
  0
POLYLINE
  5
2E1
330
1D3
100
AcDbEntity
  8
Ebene 1
 62
   179
420
  1709851
370
    18
100
AcDb2dPolyline
 66
     1
 10
0.0
 20
0.0
 30
0.0
  0
VERTEX
  5
2E2
330
2E1
100
AcDbEntity
  8
Ebene 1
 62
   179
420
  1709851
370
    18
100
AcDbVertex
100
AcDb2dVertex
 10
169.1111246322014
 20
-119.6727986354464
 30
0.0
  0
VERTEX
  5
2E3
330
2E1
100
AcDbEntity
  8
Ebene 1
 62
   179
420
  1709851
370
    18
100
AcDbVertex
100
AcDb2dVertex
 10
169.1111246322014
 20
-112.4759941667595
 30
0.0
  0
SEQEND
  5
2E4
330
2E1
100
AcDbEntity
  8
Ebene 1
370
    18
  0
POLYLINE
  5
2E5
330
1D3
100
AcDbEntity
  8
Ebene 1
 62
   179
420
  1709851
370
    18
100
AcDb2dPolyline
 66
     1
 10
0.0
 20
0.0
 30
0.0
  0
VERTEX
  5
2E6
330
2E5
100
AcDbEntity
  8
Ebene 1
 62
   179
420
  1709851
370
    18
100
AcDbVertex
100
AcDb2dVertex
 10
170.2962374791273
 20
-200.0635850194286
 30
0.0
  0
VERTEX
  5
2E7
330
2E5
100
AcDbEntity
  8
Ebene 1
 62
   179
420
  1709851
370
    18
100
AcDbVertex
100
AcDb2dVertex
 10
170.2962374791273
 20
-188.4646375396894
 30
0.0
  0
SEQEND
  5
2E8
330
2E5
100
AcDbEntity
  8
Ebene 1
370
    18
  0
POLYLINE
  5
2E9
330
1D3
100
AcDbEntity
  8
Ebene 1
 62
   179
420
  1709851
370
    18
100
AcDb2dPolyline
 66
     1
 10
0.0
 20
0.0
 30
0.0
  0
VERTEX
  5
2EA
330
2E9
100
AcDbEntity
  8
Ebene 1
 62
   179
420
  1709851
370
    18
100
AcDbVertex
100
AcDb2dVertex
 10
174.6994140188252
 20
-188.4646375396894
 30
0.0
  0
VERTEX
  5
2EB
330
2E9
100
AcDbEntity
  8
Ebene 1
 62
   179
420
  1709851
370
    18
100
AcDbVertex
100
AcDb2dVertex
 10
174.6994140188252
 20
-200.0635850194286
 30
0.0
  0
SEQEND
  5
2EC
330
2E9
100
AcDbEntity
  8
Ebene 1
370
    18
  0
POLYLINE
  5
2ED
330
1D3
100
AcDbEntity
  8
Ebene 1
 62
   179
420
  1709851
370
    18
100
AcDb2dPolyline
 66
     1
 10
0.0
 20
0.0
 30
0.0
  0
VERTEX
  5
2EE
330
2ED
100
AcDbEntity
  8
Ebene 1
 62
   179
420
  1709851
370
    18
100
AcDbVertex
100
AcDb2dVertex
 10
170.2962374791273
 20
-178.4531900595534
 30
0.0
  0
VERTEX
  5
2EF
330
2ED
100
AcDbEntity
  8
Ebene 1
 62
   179
420
  1709851
370
    18
100
AcDbVertex
100
AcDb2dVertex
 10
170.2962374791273
 20
-119.6727986354464
 30
0.0
  0
SEQEND
  5
2F0
330
2ED
100
AcDbEntity
  8
Ebene 1
370
    18
  0
POLYLINE
  5
2F1
330
1D3
100
AcDbEntity
  8
Ebene 1
 62
   179
420
  1709851
370
    18
100
AcDb2dPolyline
 66
     1
 10
0.0
 20
0.0
 30
0.0
  0
VERTEX
  5
2F2
330
2F1
100
AcDbEntity
  8
Ebene 1
 62
   179
420
  1709851
370
    18
100
AcDbVertex
100
AcDb2dVertex
 10
170.2962374791273
 20
-181.2678330710025
 30
0.0
  0
VERTEX
  5
2F3
330
2F1
100
AcDbEntity
  8
Ebene 1
 62
   179
420
  1709851
370
    18
100
AcDbVertex
100
AcDb2dVertex
 10
170.2962374791273
 20
-180.8661349374224
 30
0.0
  0
SEQEND
  5
2F4
330
2F1
100
AcDbEntity
  8
Ebene 1
370
    18
  0
POLYLINE
  5
2F5
330
1D3
100
AcDbEntity
  8
Ebene 1
 62
   179
420
  1709851
370
    18
100
AcDb2dPolyline
 66
     1
 10
0.0
 20
0.0
 30
0.0
  0
VERTEX
  5
2F6
330
2F5
100
AcDbEntity
  8
Ebene 1
 62
   179
420
  1709851
370
    18
100
AcDbVertex
100
AcDb2dVertex
 10
174.6994140188252
 20
-119.6727986354464
 30
0.0
  0
VERTEX
  5
2F7
330
2F5
100
AcDbEntity
  8
Ebene 1
 62
   179
420
  1709851
370
    18
100
AcDbVertex
100
AcDb2dVertex
 10
174.6994140188252
 20
-178.4531900595534
 30
0.0
  0
SEQEND
  5
2F8
330
2F5
100
AcDbEntity
  8
Ebene 1
370
    18
  0
POLYLINE
  5
2F9
330
1D3
100
AcDbEntity
  8
Ebene 1
 62
   179
420
  1709851
370
    18
100
AcDb2dPolyline
 66
     1
 10
0.0
 20
0.0
 30
0.0
  0
VERTEX
  5
2FA
330
2F9
100
AcDbEntity
  8
Ebene 1
 62
   179
420
  1709851
370
    18
100
AcDbVertex
100
AcDb2dVertex
 10
170.2962374791273
 20
-180.8661349374224
 30
0.0
  0
VERTEX
  5
2FB
330
2F9
100
AcDbEntity
  8
Ebene 1
 62
   179
420
  1709851
370
    18
100
AcDbVertex
100
AcDb2dVertex
 10
170.2962374791273
 20
-181.2678330710025
 30
0.0
  0
SEQEND
  5
2FC
330
2F9
100
AcDbEntity
  8
Ebene 1
370
    18
  0
POLYLINE
  5
2FD
330
1D3
100
AcDbEntity
  8
Ebene 1
 62
   179
420
  1709851
370
    18
100
AcDb2dPolyline
 66
     1
 10
0.0
 20
0.0
 30
0.0
  0
VERTEX
  5
2FE
330
2FD
100
AcDbEntity
  8
Ebene 1
 62
   179
420
  1709851
370
    18
100
AcDbVertex
100
AcDb2dVertex
 10
174.6994140188252
 20
-181.2678330710025
 30
0.0
  0
VERTEX
  5
2FF
330
2FD
100
AcDbEntity
  8
Ebene 1
 62
   179
420
  1709851
370
    18
100
AcDbVertex
100
AcDb2dVertex
 10
174.6994140188252
 20
-180.8661349374224
 30
0.0
  0
SEQEND
  5
300
330
2FD
100
AcDbEntity
  8
Ebene 1
370
    18
  0
SPLINE
  5
301
330
1D3
100
AcDbEntity
  8
Ebene 1
 62
   179
420
  1709851
370
    18
100
AcDbSpline
210
0.0
220
0.0
230
1.0
 70
    27
 71
     3
 72
    11
 73
     7
 74
     0
 42
0.0000000001
 43
0.0000000001
 40
0.0
 40
0.0
 40
0.0
 40
0.0
 40
1.0
 40
1.0
 40
1.0
 40
2.0
 40
2.0
 40
2.0
 40
2.0
 10
170.2962374791273
 20
-180.8661349374224
 30
0.0
 10
170.2962374791273
 20
-180.8661349374224
 30
0.0
 10
170.2962374791273
 20
-181.2678330710025
 30
0.0
 10
170.2962374791273
 20
-181.2678330710025
 30
0.0
 10
170.2962374791273
 20
-181.2678330710025
 30
0.0
 10
170.2962374791273
 20
-180.8661349374224
 30
0.0
 10
170.2962374791273
 20
-180.8661349374224
 30
0.0
  0
POLYLINE
  5
302
330
1D3
100
AcDbEntity
  8
Ebene 1
 62
   179
420
  1709851
370
    18
100
AcDb2dPolyline
 66
     1
 10
0.0
 20
0.0
 30
0.0
  0
VERTEX
  5
303
330
302
100
AcDbEntity
  8
Ebene 1
 62
   179
420
  1709851
370
    18
100
AcDbVertex
100
AcDb2dVertex
 10
174.6994140188252
 20
-181.2678330710025
 30
0.0
  0
VERTEX
  5
304
330
302
100
AcDbEntity
  8
Ebene 1
 62
   179
420
  1709851
370
    18
100
AcDbVertex
100
AcDb2dVertex
 10
174.6994140188252
 20
-180.8661349374224
 30
0.0
  0
SEQEND
  5
305
330
302
100
AcDbEntity
  8
Ebene 1
370
    18
  0
POLYLINE
  5
306
330
1D3
100
AcDbEntity
  8
Ebene 1
 62
   179
420
  1709851
370
    18
100
AcDb2dPolyline
 66
     1
 10
0.0
 20
0.0
 30
0.0
  0
VERTEX
  5
307
330
306
100
AcDbEntity
  8
Ebene 1
 62
   179
420
  1709851
370
    18
100
AcDbVertex
100
AcDb2dVertex
 10
168.7087374795242
 20
-81.4666897040257
 30
0.0
  0
VERTEX
  5
308
330
306
100
AcDbEntity
  8
Ebene 1
 62
   179
420
  1709851
370
    18
100
AcDbVertex
100
AcDb2dVertex
 10
168.7087374795242
 20
-200.0635850194286
 30
0.0
  0
SEQEND
  5
309
330
306
100
AcDbEntity
  8
Ebene 1
370
    18
  0
POLYLINE
  5
30A
330
1D3
100
AcDbEntity
  8
Ebene 1
 62
   179
420
  1709851
370
    18
100
AcDb2dPolyline
 66
     1
 10
0.0
 20
0.0
 30
0.0
  0
VERTEX
  5
30B
330
30A
100
AcDbEntity
  8
Ebene 1
 62
   179
420
  1709851
370
    18
100
AcDbVertex
100
AcDb2dVertex
 10
174.6994140188252
 20
-200.0635850194286
 30
0.0
  0
VERTEX
  5
30C
330
30A
100
AcDbEntity
  8
Ebene 1
 62
   179
420
  1709851
370
    18
100
AcDbVertex
100
AcDb2dVertex
 10
168.7087374795242
 20
-200.0635850194286
 30
0.0
  0
SEQEND
  5
30D
330
30A
100
AcDbEntity
  8
Ebene 1
370
    18
  0
POLYLINE
  5
30E
330
1D3
100
AcDbEntity
  8
Ebene 1
 62
   179
420
  1709851
370
    18
100
AcDb2dPolyline
 66
     1
 10
0.0
 20
0.0
 30
0.0
  0
VERTEX
  5
30F
330
30E
100
AcDbEntity
  8
Ebene 1
 62
   179
420
  1709851
370
    18
100
AcDbVertex
100
AcDb2dVertex
 10
174.6994140188252
 20
-81.4666897040257
 30
0.0
  0
VERTEX
  5
310
330
30E
100
AcDbEntity
  8
Ebene 1
 62
   179
420
  1709851
370
    18
100
AcDbVertex
100
AcDb2dVertex
 10
174.6994140188252
 20
-112.4759941667595
 30
0.0
  0
SEQEND
  5
311
330
30E
100
AcDbEntity
  8
Ebene 1
370
    18
  0
POLYLINE
  5
312
330
1D3
100
AcDbEntity
  8
Ebene 1
 62
   179
420
  1709851
370
    18
100
AcDb2dPolyline
 66
     1
 10
0.0
 20
0.0
 30
0.0
  0
VERTEX
  5
313
330
312
100
AcDbEntity
  8
Ebene 1
 62
   179
420
  1709851
370
    18
100
AcDbVertex
100
AcDb2dVertex
 10
41.51856824048841
 20
-204.6565863203636
 30
0.0
  0
VERTEX
  5
314
330
312
100
AcDbEntity
  8
Ebene 1
 62
   179
420
  1709851
370
    18
100
AcDbVertex
100
AcDb2dVertex
 10
166.6978352447839
 20
-204.6565863203636
 30
0.0
  0
SEQEND
  5
315
330
312
100
AcDbEntity
  8
Ebene 1
370
    18
  0
POLYLINE
  5
316
330
1D3
100
AcDbEntity
  8
Ebene 1
 62
   179
420
  1709851
370
    18
100
AcDb2dPolyline
 66
     1
 10
0.0
 20
0.0
 30
0.0
  0
VERTEX
  5
317
330
316
100
AcDbEntity
  8
Ebene 1
 62
   179
420
  1709851
370
    18
100
AcDbVertex
100
AcDb2dVertex
 10
166.6978352447839
 20
-210.6682779421246
 30
0.0
  0
VERTEX
  5
318
330
316
100
AcDbEntity
  8
Ebene 1
 62
   179
420
  1709851
370
    18
100
AcDbVertex
100
AcDb2dVertex
 10
166.6978352447839
 20
-204.6565863203636
 30
0.0
  0
SEQEND
  5
319
330
316
100
AcDbEntity
  8
Ebene 1
370
    18
  0
POLYLINE
  5
31A
330
1D3
100
AcDbEntity
  8
Ebene 1
 62
   179
420
  1709851
370
    18
100
AcDb2dPolyline
 66
     1
 10
0.0
 20
0.0
 30
0.0
  0
VERTEX
  5
31B
330
31A
100
AcDbEntity
  8
Ebene 1
 62
   179
420
  1709851
370
    18
100
AcDbVertex
100
AcDb2dVertex
 10
178.8266384101545
 20
-81.4666897040257
 30
0.0
  0
VERTEX
  5
31C
330
31A
100
AcDbEntity
  8
Ebene 1
 62
   179
420
  1709851
370
    18
100
AcDbVertex
100
AcDb2dVertex
 10
183.3565944637095
 20
-81.4666897040257
 30
0.0
  0
SEQEND
  5
31D
330
31A
100
AcDbEntity
  8
Ebene 1
370
    18
  0
POLYLINE
  5
31E
330
1D3
100
AcDbEntity
  8
Ebene 1
 62
   179
420
  1709851
370
    18
100
AcDb2dPolyline
 66
     1
 10
0.0
 20
0.0
 30
0.0
  0
VERTEX
  5
31F
330
31E
100
AcDbEntity
  8
Ebene 1
 62
   179
420
  1709851
370
    18
100
AcDbVertex
100
AcDb2dVertex
 10
176.8370957674227
 20
-81.4666897040257
 30
0.0
  0
VERTEX
  5
320
330
31E
100
AcDbEntity
  8
Ebene 1
 62
   179
420
  1709851
370
    18
100
AcDbVertex
100
AcDb2dVertex
 10
177.8320393435628
 20
-81.4666897040257
 30
0.0
  0
SEQEND
  5
321
330
31E
100
AcDbEntity
  8
Ebene 1
370
    18
  0
POLYLINE
  5
322
330
1D3
100
AcDbEntity
  8
Ebene 1
 62
   179
420
  1709851
370
    18
100
AcDb2dPolyline
 66
     1
 10
0.0
 20
0.0
 30
0.0
  0
VERTEX
  5
323
330
322
100
AcDbEntity
  8
Ebene 1
 62
   179
420
  1709851
370
    18
100
AcDbVertex
100
AcDb2dVertex
 10
168.8362060124784
 20
-81.4666897040257
 30
0.0
  0
VERTEX
  5
324
330
322
100
AcDbEntity
  8
Ebene 1
 62
   179
420
  1709851
370
    18
100
AcDbVertex
100
AcDb2dVertex
 10
175.8421521912825
 20
-81.4666897040257
 30
0.0
  0
SEQEND
  5
325
330
322
100
AcDbEntity
  8
Ebene 1
370
    18
  0
POLYLINE
  5
326
330
1D3
100
AcDbEntity
  8
Ebene 1
 62
   179
420
  1709851
370
    18
100
AcDb2dPolyline
 66
     1
 10
0.0
 20
0.0
 30
0.0
  0
VERTEX
  5
327
330
326
100
AcDbEntity
  8
Ebene 1
 62
   179
420
  1709851
370
    18
100
AcDbVertex
100
AcDb2dVertex
 10
166.8463188601982
 20
-81.4666897040257
 30
0.0
  0
VERTEX
  5
328
330
326
100
AcDbEntity
  8
Ebene 1
 62
   179
420
  1709851
370
    18
100
AcDbVertex
100
AcDb2dVertex
 10
167.8412624363383
 20
-81.4666897040257
 30
0.0
  0
SEQEND
  5
329
330
326
100
AcDbEntity
  8
Ebene 1
370
    18
  0
POLYLINE
  5
32A
330
1D3
100
AcDbEntity
  8
Ebene 1
 62
   179
420
  1709851
370
    18
100
AcDb2dPolyline
 66
     1
 10
0.0
 20
0.0
 30
0.0
  0
VERTEX
  5
32B
330
32A
100
AcDbEntity
  8
Ebene 1
 62
   179
420
  1709851
370
    18
100
AcDbVertex
100
AcDb2dVertex
 10
158.8454291052539
 20
-81.4666897040257
 30
0.0
  0
VERTEX
  5
32C
330
32A
100
AcDbEntity
  8
Ebene 1
 62
   179
420
  1709851
370
    18
100
AcDbVertex
100
AcDb2dVertex
 10
165.8300156920494
 20
-81.4666897040257
 30
0.0
  0
SEQEND
  5
32D
330
32A
100
AcDbEntity
  8
Ebene 1
370
    18
  0
POLYLINE
  5
32E
330
1D3
100
AcDbEntity
  8
Ebene 1
 62
   179
420
  1709851
370
    18
100
AcDb2dPolyline
 66
     1
 10
0.0
 20
0.0
 30
0.0
  0
VERTEX
  5
32F
330
32E
100
AcDbEntity
  8
Ebene 1
 62
   179
420
  1709851
370
    18
100
AcDbVertex
100
AcDb2dVertex
 10
156.8341823609651
 20
-81.4666897040257
 30
0.0
  0
VERTEX
  5
330
330
32E
100
AcDbEntity
  8
Ebene 1
 62
   179
420
  1709851
370
    18
100
AcDbVertex
100
AcDb2dVertex
 10
157.8294704466537
 20
-81.4666897040257
 30
0.0
  0
SEQEND
  5
331
330
32E
100
AcDbEntity
  8
Ebene 1
370
    18
  0
POLYLINE
  5
332
330
1D3
100
AcDbEntity
  8
Ebene 1
 62
   179
420
  1709851
370
    18
100
AcDb2dPolyline
 66
     1
 10
0.0
 20
0.0
 30
0.0
  0
VERTEX
  5
333
330
332
100
AcDbEntity
  8
Ebene 1
 62
   179
420
  1709851
370
    18
100
AcDbVertex
100
AcDb2dVertex
 10
148.8336371155694
 20
-81.4666897040257
 30
0.0
  0
VERTEX
  5
334
330
332
100
AcDbEntity
  8
Ebene 1
 62
   179
420
  1709851
370
    18
100
AcDbVertex
100
AcDb2dVertex
 10
155.839927803922
 20
-81.4666897040257
 30
0.0
  0
SEQEND
  5
335
330
332
100
AcDbEntity
  8
Ebene 1
370
    18
  0
POLYLINE
  5
336
330
1D3
100
AcDbEntity
  8
Ebene 1
 62
   179
420
  1709851
370
    18
100
AcDb2dPolyline
 66
     1
 10
0.0
 20
0.0
 30
0.0
  0
VERTEX
  5
337
330
336
100
AcDbEntity
  8
Ebene 1
 62
   179
420
  1709851
370
    18
100
AcDbVertex
100
AcDb2dVertex
 10
146.8440944728376
 20
-81.4666897040257
 30
0.0
  0
VERTEX
  5
338
330
336
100
AcDbEntity
  8
Ebene 1
 62
   179
420
  1709851
370
    18
100
AcDbVertex
100
AcDb2dVertex
 10
147.8383490298807
 20
-81.4666897040257
 30
0.0
  0
SEQEND
  5
339
330
336
100
AcDbEntity
  8
Ebene 1
370
    18
  0
POLYLINE
  5
33A
330
1D3
100
AcDbEntity
  8
Ebene 1
 62
   179
420
  1709851
370
    18
100
AcDb2dPolyline
 66
     1
 10
0.0
 20
0.0
 30
0.0
  0
VERTEX
  5
33B
330
33A
100
AcDbEntity
  8
Ebene 1
 62
   179
420
  1709851
370
    18
100
AcDbVertex
100
AcDb2dVertex
 10
138.8425156987963
 20
-81.4666897040257
 30
0.0
  0
VERTEX
  5
33C
330
33A
100
AcDbEntity
  8
Ebene 1
 62
   179
420
  1709851
370
    18
100
AcDbVertex
100
AcDb2dVertex
 10
145.8281358142374
 20
-81.4666897040257
 30
0.0
  0
SEQEND
  5
33D
330
33A
100
AcDbEntity
  8
Ebene 1
370
    18
  0
POLYLINE
  5
33E
330
1D3
100
AcDbEntity
  8
Ebene 1
 62
   179
420
  1709851
370
    18
100
AcDb2dPolyline
 66
     1
 10
0.0
 20
0.0
 30
0.0
  0
VERTEX
  5
33F
330
33E
100
AcDbEntity
  8
Ebene 1
 62
   179
420
  1709851
370
    18
100
AcDbVertex
100
AcDb2dVertex
 10
136.832302483153
 20
-81.4666897040257
 30
0.0
  0
VERTEX
  5
340
330
33E
100
AcDbEntity
  8
Ebene 1
 62
   179
420
  1709851
370
    18
100
AcDbVertex
100
AcDb2dVertex
 10
137.8479166322047
 20
-81.4666897040257
 30
0.0
  0
SEQEND
  5
341
330
33E
100
AcDbEntity
  8
Ebene 1
370
    18
  0
POLYLINE
  5
342
330
1D3
100
AcDbEntity
  8
Ebene 1
 62
   179
420
  1709851
370
    18
100
AcDb2dPolyline
 66
     1
 10
0.0
 20
0.0
 30
0.0
  0
VERTEX
  5
343
330
342
100
AcDbEntity
  8
Ebene 1
 62
   179
420
  1709851
370
    18
100
AcDbVertex
100
AcDb2dVertex
 10
128.8307237091118
 20
-81.4666897040257
 30
0.0
  0
VERTEX
  5
344
330
342
100
AcDbEntity
  8
Ebene 1
 62
   179
420
  1709851
370
    18
100
AcDbVertex
100
AcDb2dVertex
 10
135.8373589070129
 20
-81.4666897040257
 30
0.0
  0
SEQEND
  5
345
330
342
100
AcDbEntity
  8
Ebene 1
370
    18
  0
POLYLINE
  5
346
330
1D3
100
AcDbEntity
  8
Ebene 1
 62
   179
420
  1709851
370
    18
100
AcDb2dPolyline
 66
     1
 10
0.0
 20
0.0
 30
0.0
  0
VERTEX
  5
347
330
346
100
AcDbEntity
  8
Ebene 1
 62
   179
420
  1709851
370
    18
100
AcDbVertex
100
AcDb2dVertex
 10
126.8415255759285
 20
-81.4666897040257
 30
0.0
  0
VERTEX
  5
348
330
346
100
AcDbEntity
  8
Ebene 1
 62
   179
420
  1709851
370
    18
100
AcDbVertex
100
AcDb2dVertex
 10
127.8364691520687
 20
-81.4666897040257
 30
0.0
  0
SEQEND
  5
349
330
346
100
AcDbEntity
  8
Ebene 1
370
    18
  0
POLYLINE
  5
34A
330
1D3
100
AcDbEntity
  8
Ebene 1
 62
   179
420
  1709851
370
    18
100
AcDb2dPolyline
 66
     1
 10
0.0
 20
0.0
 30
0.0
  0
VERTEX
  5
34B
330
34A
100
AcDbEntity
  8
Ebene 1
 62
   179
420
  1709851
370
    18
100
AcDbVertex
100
AcDb2dVertex
 10
118.8406358209843
 20
-81.4666897040257
 30
0.0
  0
VERTEX
  5
34C
330
34A
100
AcDbEntity
  8
Ebene 1
 62
   179
420
  1709851
370
    18
100
AcDbVertex
100
AcDb2dVertex
 10
125.8462374902398
 20
-81.4666897040257
 30
0.0
  0
SEQEND
  5
34D
330
34A
100
AcDbEntity
  8
Ebene 1
370
    18
  0
POLYLINE
  5
34E
330
1D3
100
AcDbEntity
  8
Ebene 1
 62
   179
420
  1709851
370
    18
100
AcDb2dPolyline
 66
     1
 10
0.0
 20
0.0
 30
0.0
  0
VERTEX
  5
34F
330
34E
100
AcDbEntity
  8
Ebene 1
 62
   179
420
  1709851
370
    18
100
AcDbVertex
100
AcDb2dVertex
 10
116.8504041591555
 20
-81.4666897040257
 30
0.0
  0
VERTEX
  5
350
330
34E
100
AcDbEntity
  8
Ebene 1
 62
   179
420
  1709851
370
    18
100
AcDbVertex
100
AcDb2dVertex
 10
117.8456922448441
 20
-81.4666897040257
 30
0.0
  0
SEQEND
  5
351
330
34E
100
AcDbEntity
  8
Ebene 1
370
    18
  0
POLYLINE
  5
352
330
1D3
100
AcDbEntity
  8
Ebene 1
 62
   179
420
  1709851
370
    18
100
AcDb2dPolyline
 66
     1
 10
0.0
 20
0.0
 30
0.0
  0
VERTEX
  5
353
330
352
100
AcDbEntity
  8
Ebene 1
 62
   179
420
  1709851
370
    18
100
AcDbVertex
100
AcDb2dVertex
 10
108.8498589137598
 20
-81.4666897040257
 30
0.0
  0
VERTEX
  5
354
330
352
100
AcDbEntity
  8
Ebene 1
 62
   179
420
  1709851
370
    18
100
AcDbVertex
100
AcDb2dVertex
 10
115.8347900101038
 20
-81.4666897040257
 30
0.0
  0
SEQEND
  5
355
330
352
100
AcDbEntity
  8
Ebene 1
370
    18
  0
POLYLINE
  5
356
330
1D3
100
AcDbEntity
  8
Ebene 1
 62
   179
420
  1709851
370
    18
100
AcDb2dPolyline
 66
     1
 10
0.0
 20
0.0
 30
0.0
  0
VERTEX
  5
357
330
356
100
AcDbEntity
  8
Ebene 1
 62
   179
420
  1709851
370
    18
100
AcDbVertex
100
AcDb2dVertex
 10
106.8389566790194
 20
-81.4666897040257
 30
0.0
  0
VERTEX
  5
358
330
356
100
AcDbEntity
  8
Ebene 1
 62
   179
420
  1709851
370
    18
100
AcDbVertex
100
AcDb2dVertex
 10
107.8335557456111
 20
-81.4666897040257
 30
0.0
  0
SEQEND
  5
359
330
356
100
AcDbEntity
  8
Ebene 1
370
    18
  0
POLYLINE
  5
35A
330
1D3
100
AcDbEntity
  8
Ebene 1
 62
   179
420
  1709851
370
    18
100
AcDb2dPolyline
 66
     1
 10
0.0
 20
0.0
 30
0.0
  0
VERTEX
  5
35B
330
35A
100
AcDbEntity
  8
Ebene 1
 62
   179
420
  1709851
370
    18
100
AcDbVertex
100
AcDb2dVertex
 10
98.83789466930095
 20
-81.4666897040257
 30
0.0
  0
VERTEX
  5
35C
330
35A
100
AcDbEntity
  8
Ebene 1
 62
   179
420
  1709851
370
    18
100
AcDbVertex
100
AcDb2dVertex
 10
105.8443576124278
 20
-81.4666897040257
 30
0.0
  0
SEQEND
  5
35D
330
35A
100
AcDbEntity
  8
Ebene 1
370
    18
  0
POLYLINE
  5
35E
330
1D3
100
AcDbEntity
  8
Ebene 1
 62
   179
420
  1709851
370
    18
100
AcDb2dPolyline
 66
     1
 10
0.0
 20
0.0
 30
0.0
  0
VERTEX
  5
35F
330
35E
100
AcDbEntity
  8
Ebene 1
 62
   179
420
  1709851
370
    18
100
AcDbVertex
100
AcDb2dVertex
 10
96.84835202656916
 20
-81.4666897040257
 30
0.0
  0
VERTEX
  5
360
330
35E
100
AcDbEntity
  8
Ebene 1
 62
   179
420
  1709851
370
    18
100
AcDbVertex
100
AcDb2dVertex
 10
97.84312334793506
 20
-81.4666897040257
 30
0.0
  0
SEQEND
  5
361
330
35E
100
AcDbEntity
  8
Ebene 1
370
    18
  0
POLYLINE
  5
362
330
1D3
100
AcDbEntity
  8
Ebene 1
 62
   179
420
  1709851
370
    18
100
AcDb2dPolyline
 66
     1
 10
0.0
 20
0.0
 30
0.0
  0
VERTEX
  5
363
330
362
100
AcDbEntity
  8
Ebene 1
 62
   179
420
  1709851
370
    18
100
AcDbVertex
100
AcDb2dVertex
 10
88.84729001685068
 20
-81.4666897040257
 30
0.0
  0
VERTEX
  5
364
330
362
100
AcDbEntity
  8
Ebene 1
 62
   179
420
  1709851
370
    18
100
AcDbVertex
100
AcDb2dVertex
 10
95.83187660364621
 20
-81.4666897040257
 30
0.0
  0
SEQEND
  5
365
330
362
100
AcDbEntity
  8
Ebene 1
370
    18
  0
POLYLINE
  5
366
330
1D3
100
AcDbEntity
  8
Ebene 1
 62
   179
420
  1709851
370
    18
100
AcDb2dPolyline
 66
     1
 10
0.0
 20
0.0
 30
0.0
  0
VERTEX
  5
367
330
366
100
AcDbEntity
  8
Ebene 1
 62
   179
420
  1709851
370
    18
100
AcDbVertex
100
AcDb2dVertex
 10
86.83604327256182
 20
-81.4666897040257
 30
0.0
  0
VERTEX
  5
368
330
366
100
AcDbEntity
  8
Ebene 1
 62
   179
420
  1709851
370
    18
100
AcDbVertex
100
AcDb2dVertex
 10
87.85251869548479
 20
-81.4666897040257
 30
0.0
  0
SEQEND
  5
369
330
366
100
AcDbEntity
  8
Ebene 1
370
    18
  0
POLYLINE
  5
36A
330
1D3
100
AcDbEntity
  8
Ebene 1
 62
   179
420
  1709851
370
    18
100
AcDb2dPolyline
 66
     1
 10
0.0
 20
0.0
 30
0.0
  0
VERTEX
  5
36B
330
36A
100
AcDbEntity
  8
Ebene 1
 62
   179
420
  1709851
370
    18
100
AcDbVertex
100
AcDb2dVertex
 10
81.50251869707229
 20
-81.4666897040257
 30
0.0
  0
VERTEX
  5
36C
330
36A
100
AcDbEntity
  8
Ebene 1
 62
   179
420
  1709851
370
    18
100
AcDbVertex
100
AcDb2dVertex
 10
81.50251869707229
 20
-81.4666897040257
 30
0.0
  0
VERTEX
  5
36D
330
36A
100
AcDbEntity
  8
Ebene 1
 62
   179
420
  1709851
370
    18
100
AcDbVertex
100
AcDb2dVertex
 10
85.84161646074446
 20
-81.4666897040257
 30
0.0
  0
SEQEND
  5
36E
330
36A
100
AcDbEntity
  8
Ebene 1
370
    18
  0
POLYLINE
  5
36F
330
1D3
100
AcDbEntity
  8
Ebene 1
 62
   179
420
  1709851
370
    18
100
AcDb2dPolyline
 66
     1
 10
0.0
 20
0.0
 30
0.0
  0
VERTEX
  5
370
330
36F
100
AcDbEntity
  8
Ebene 1
 62
   179
420
  1709851
370
    18
100
AcDbVertex
100
AcDb2dVertex
 10
41.51822373093989
 20
-120.1382310355036
 30
0.0
  0
VERTEX
  5
371
330
36F
100
AcDbEntity
  8
Ebene 1
 62
   179
420
  1709851
370
    18
100
AcDbVertex
100
AcDb2dVertex
 10
41.51822373093989
 20
-117.4713826203717
 30
0.0
  0
SEQEND
  5
372
330
36F
100
AcDbEntity
  8
Ebene 1
370
    18
  0
POLYLINE
  5
373
330
1D3
100
AcDbEntity
  8
Ebene 1
 62
   179
420
  1709851
370
    18
100
AcDb2dPolyline
 66
     1
 10
0.0
 20
0.0
 30
0.0
  0
VERTEX
  5
374
330
373
100
AcDbEntity
  8
Ebene 1
 62
   179
420
  1709851
370
    18
100
AcDbVertex
100
AcDb2dVertex
 10
41.51822373093989
 20
-122.1284626973325
 30
0.0
  0
VERTEX
  5
375
330
373
100
AcDbEntity
  8
Ebene 1
 62
   179
420
  1709851
370
    18
100
AcDbVertex
100
AcDb2dVertex
 10
41.51822373093989
 20
-121.1331746116438
 30
0.0
  0
SEQEND
  5
376
330
373
100
AcDbEntity
  8
Ebene 1
370
    18
  0
POLYLINE
  5
377
330
1D3
100
AcDbEntity
  8
Ebene 1
 62
   179
420
  1709851
370
    18
100
AcDb2dPolyline
 66
     1
 10
0.0
 20
0.0
 30
0.0
  0
VERTEX
  5
378
330
377
100
AcDbEntity
  8
Ebene 1
 62
   179
420
  1709851
370
    18
100
AcDbVertex
100
AcDb2dVertex
 10
41.51822373093989
 20
-130.1290079427282
 30
0.0
  0
VERTEX
  5
379
330
377
100
AcDbEntity
  8
Ebene 1
 62
   179
420
  1709851
370
    18
100
AcDbVertex
100
AcDb2dVertex
 10
41.51822373093989
 20
-123.1227172543756
 30
0.0
  0
SEQEND
  5
37A
330
377
100
AcDbEntity
  8
Ebene 1
370
    18
  0
POLYLINE
  5
37B
330
1D3
100
AcDbEntity
  8
Ebene 1
 62
   179
420
  1709851
370
    18
100
AcDb2dPolyline
 66
     1
 10
0.0
 20
0.0
 30
0.0
  0
VERTEX
  5
37C
330
37B
100
AcDbEntity
  8
Ebene 1
 62
   179
420
  1709851
370
    18
100
AcDbVertex
100
AcDb2dVertex
 10
41.51822373093989
 20
-132.11855058546
 30
0.0
  0
VERTEX
  5
37D
330
37B
100
AcDbEntity
  8
Ebene 1
 62
   179
420
  1709851
370
    18
100
AcDbVertex
100
AcDb2dVertex
 10
41.51822373093989
 20
-131.1242960284168
 30
0.0
  0
SEQEND
  5
37E
330
37B
100
AcDbEntity
  8
Ebene 1
370
    18
  0
POLYLINE
  5
37F
330
1D3
100
AcDbEntity
  8
Ebene 1
 62
   179
420
  1709851
370
    18
100
AcDb2dPolyline
 66
     1
 10
0.0
 20
0.0
 30
0.0
  0
VERTEX
  5
380
330
37F
100
AcDbEntity
  8
Ebene 1
 62
   179
420
  1709851
370
    18
100
AcDbVertex
100
AcDb2dVertex
 10
41.51822373093989
 20
-140.1201293595012
 30
0.0
  0
VERTEX
  5
381
330
37F
100
AcDbEntity
  8
Ebene 1
 62
   179
420
  1709851
370
    18
100
AcDbVertex
100
AcDb2dVertex
 10
41.51822373093989
 20
-133.1348537536087
 30
0.0
  0
SEQEND
  5
382
330
37F
100
AcDbEntity
  8
Ebene 1
370
    18
  0
POLYLINE
  5
383
330
1D3
100
AcDbEntity
  8
Ebene 1
 62
   179
420
  1709851
370
    18
100
AcDb2dPolyline
 66
     1
 10
0.0
 20
0.0
 30
0.0
  0
VERTEX
  5
384
330
383
100
AcDbEntity
  8
Ebene 1
 62
   179
420
  1709851
370
    18
100
AcDbVertex
100
AcDb2dVertex
 10
41.51822373093989
 20
-142.1310315942416
 30
0.0
  0
VERTEX
  5
385
330
383
100
AcDbEntity
  8
Ebene 1
 62
   179
420
  1709851
370
    18
100
AcDbVertex
100
AcDb2dVertex
 10
41.51822373093989
 20
-141.1357435085529
 30
0.0
  0
SEQEND
  5
386
330
383
100
AcDbEntity
  8
Ebene 1
370
    18
  0
POLYLINE
  5
387
330
1D3
100
AcDbEntity
  8
Ebene 1
 62
   179
420
  1709851
370
    18
100
AcDb2dPolyline
 66
     1
 10
0.0
 20
0.0
 30
0.0
  0
VERTEX
  5
388
330
387
100
AcDbEntity
  8
Ebene 1
 62
   179
420
  1709851
370
    18
100
AcDbVertex
100
AcDb2dVertex
 10
41.51822373093989
 20
-150.1317490944115
 30
0.0
  0
VERTEX
  5
389
330
387
100
AcDbEntity
  8
Ebene 1
 62
   179
420
  1709851
370
    18
100
AcDbVertex
100
AcDb2dVertex
 10
41.51822373093989
 20
-143.1252861512847
 30
0.0
  0
SEQEND
  5
38A
330
387
100
AcDbEntity
  8
Ebene 1
370
    18
  0
POLYLINE
  5
38B
330
1D3
100
AcDbEntity
  8
Ebene 1
 62
   179
420
  1709851
370
    18
100
AcDb2dPolyline
 66
     1
 10
0.0
 20
0.0
 30
0.0
  0
VERTEX
  5
38C
330
38B
100
AcDbEntity
  8
Ebene 1
 62
   179
420
  1709851
370
    18
100
AcDbVertex
100
AcDb2dVertex
 10
41.51822373093989
 20
-152.1209472275948
 30
0.0
  0
VERTEX
  5
38D
330
38B
100
AcDbEntity
  8
Ebene 1
 62
   179
420
  1709851
370
    18
100
AcDbVertex
100
AcDb2dVertex
 10
41.51822373093989
 20
-151.1266926705517
 30
0.0
  0
SEQEND
  5
38E
330
38B
100
AcDbEntity
  8
Ebene 1
370
    18
  0
POLYLINE
  5
38F
330
1D3
100
AcDbEntity
  8
Ebene 1
 62
   179
420
  1709851
370
    18
100
AcDb2dPolyline
 66
     1
 10
0.0
 20
0.0
 30
0.0
  0
VERTEX
  5
390
330
38F
100
AcDbEntity
  8
Ebene 1
 62
   179
420
  1709851
370
    18
100
AcDbVertex
100
AcDb2dVertex
 10
41.51822373093989
 20
-160.122526001636
 30
0.0
  0
VERTEX
  5
391
330
38F
100
AcDbEntity
  8
Ebene 1
 62
   179
420
  1709851
370
    18
100
AcDbVertex
100
AcDb2dVertex
 10
41.51822373093989
 20
-153.1372503957435
 30
0.0
  0
SEQEND
  5
392
330
38F
100
AcDbEntity
  8
Ebene 1
370
    18
  0
POLYLINE
  5
393
330
1D3
100
AcDbEntity
  8
Ebene 1
 62
   179
420
  1709851
370
    18
100
AcDb2dPolyline
 66
     1
 10
0.0
 20
0.0
 30
0.0
  0
VERTEX
  5
394
330
393
100
AcDbEntity
  8
Ebene 1
 62
   179
420
  1709851
370
    18
100
AcDbVertex
100
AcDb2dVertex
 10
41.51822373093989
 20
-162.1330837268278
 30
0.0
  0
VERTEX
  5
395
330
393
100
AcDbEntity
  8
Ebene 1
 62
   179
420
  1709851
370
    18
100
AcDbVertex
100
AcDb2dVertex
 10
41.51822373093989
 20
-161.1167805586792
 30
0.0
  0
SEQEND
  5
396
330
393
100
AcDbEntity
  8
Ebene 1
370
    18
  0
POLYLINE
  5
397
330
1D3
100
AcDbEntity
  8
Ebene 1
 62
   179
420
  1709851
370
    18
100
AcDb2dPolyline
 66
     1
 10
0.0
 20
0.0
 30
0.0
  0
VERTEX
  5
398
330
397
100
AcDbEntity
  8
Ebene 1
 62
   179
420
  1709851
370
    18
100
AcDbVertex
100
AcDb2dVertex
 10
41.51822373093989
 20
-170.1346625008691
 30
0.0
  0
VERTEX
  5
399
330
397
100
AcDbEntity
  8
Ebene 1
 62
   179
420
  1709851
370
    18
100
AcDbVertex
100
AcDb2dVertex
 10
41.51822373093989
 20
-163.128027302968
 30
0.0
  0
SEQEND
  5
39A
330
397
100
AcDbEntity
  8
Ebene 1
370
    18
  0
POLYLINE
  5
39B
330
1D3
100
AcDbEntity
  8
Ebene 1
 62
   179
420
  1709851
370
    18
100
AcDb2dPolyline
 66
     1
 10
0.0
 20
0.0
 30
0.0
  0
VERTEX
  5
39C
330
39B
100
AcDbEntity
  8
Ebene 1
 62
   179
420
  1709851
370
    18
100
AcDbVertex
100
AcDb2dVertex
 10
41.51822373093989
 20
-172.1238606340524
 30
0.0
  0
VERTEX
  5
39D
330
39B
100
AcDbEntity
  8
Ebene 1
 62
   179
420
  1709851
370
    18
100
AcDbVertex
100
AcDb2dVertex
 10
41.51822373093989
 20
-171.1289170579122
 30
0.0
  0
SEQEND
  5
39E
330
39B
100
AcDbEntity
  8
Ebene 1
370
    18
  0
POLYLINE
  5
39F
330
1D3
100
AcDbEntity
  8
Ebene 1
 62
   179
420
  1709851
370
    18
100
AcDb2dPolyline
 66
     1
 10
0.0
 20
0.0
 30
0.0
  0
VERTEX
  5
3A0
330
39F
100
AcDbEntity
  8
Ebene 1
 62
   179
420
  1709851
370
    18
100
AcDbVertex
100
AcDb2dVertex
 10
41.51822373093989
 20
-180.1247503889966
 30
0.0
  0
VERTEX
  5
3A1
330
39F
100
AcDbEntity
  8
Ebene 1
 62
   179
420
  1709851
370
    18
100
AcDbVertex
100
AcDb2dVertex
 10
41.51822373093989
 20
-173.1188042101925
 30
0.0
  0
SEQEND
  5
3A2
330
39F
100
AcDbEntity
  8
Ebene 1
370
    18
  0
POLYLINE
  5
3A3
330
1D3
100
AcDbEntity
  8
Ebene 1
 62
   179
420
  1709851
370
    18
100
AcDb2dPolyline
 66
     1
 10
0.0
 20
0.0
 30
0.0
  0
VERTEX
  5
3A4
330
3A3
100
AcDbEntity
  8
Ebene 1
 62
   179
420
  1709851
370
    18
100
AcDbVertex
100
AcDb2dVertex
 10
41.51822373093989
 20
-182.1146375412769
 30
0.0
  0
VERTEX
  5
3A5
330
3A3
100
AcDbEntity
  8
Ebene 1
 62
   179
420
  1709851
370
    18
100
AcDbVertex
100
AcDb2dVertex
 10
41.51822373093989
 20
-181.1196939651367
 30
0.0
  0
SEQEND
  5
3A6
330
3A3
100
AcDbEntity
  8
Ebene 1
370
    18
  0
POLYLINE
  5
3A7
330
1D3
100
AcDbEntity
  8
Ebene 1
 62
   179
420
  1709851
370
    18
100
AcDb2dPolyline
 66
     1
 10
0.0
 20
0.0
 30
0.0
  0
VERTEX
  5
3A8
330
3A7
100
AcDbEntity
  8
Ebene 1
 62
   179
420
  1709851
370
    18
100
AcDbVertex
100
AcDb2dVertex
 10
41.51822373093989
 20
-190.1155272962211
 30
0.0
  0
VERTEX
  5
3A9
330
3A7
100
AcDbEntity
  8
Ebene 1
 62
   179
420
  1709851
370
    18
100
AcDbVertex
100
AcDb2dVertex
 10
41.51822373093989
 20
-183.1302516903285
 30
0.0
  0
SEQEND
  5
3AA
330
3A7
100
AcDbEntity
  8
Ebene 1
370
    18
  0
POLYLINE
  5
3AB
330
1D3
100
AcDbEntity
  8
Ebene 1
 62
   179
420
  1709851
370
    18
100
AcDb2dPolyline
 66
     1
 10
0.0
 20
0.0
 30
0.0
  0
VERTEX
  5
3AC
330
3AB
100
AcDbEntity
  8
Ebene 1
 62
   179
420
  1709851
370
    18
100
AcDbVertex
100
AcDb2dVertex
 10
41.51822373093989
 20
-192.1260850214129
 30
0.0
  0
VERTEX
  5
3AD
330
3AB
100
AcDbEntity
  8
Ebene 1
 62
   179
420
  1709851
370
    18
100
AcDbVertex
100
AcDb2dVertex
 10
41.51822373093989
 20
-191.1311414452728
 30
0.0
  0
SEQEND
  5
3AE
330
3AB
100
AcDbEntity
  8
Ebene 1
370
    18
  0
POLYLINE
  5
3AF
330
1D3
100
AcDbEntity
  8
Ebene 1
 62
   179
420
  1709851
370
    18
100
AcDb2dPolyline
 66
     1
 10
0.0
 20
0.0
 30
0.0
  0
VERTEX
  5
3B0
330
3AF
100
AcDbEntity
  8
Ebene 1
 62
   179
420
  1709851
370
    18
100
AcDbVertex
100
AcDb2dVertex
 10
41.51822373093989
 20
-200.1269747763571
 30
0.0
  0
VERTEX
  5
3B1
330
3AF
100
AcDbEntity
  8
Ebene 1
 62
   179
420
  1709851
370
    18
100
AcDbVertex
100
AcDb2dVertex
 10
41.51822373093989
 20
-193.1210285975531
 30
0.0
  0
SEQEND
  5
3B2
330
3AF
100
AcDbEntity
  8
Ebene 1
370
    18
  0
POLYLINE
  5
3B3
330
1D3
100
AcDbEntity
  8
Ebene 1
 62
   179
420
  1709851
370
    18
100
AcDb2dPolyline
 66
     1
 10
0.0
 20
0.0
 30
0.0
  0
VERTEX
  5
3B4
330
3B3
100
AcDbEntity
  8
Ebene 1
 62
   179
420
  1709851
370
    18
100
AcDbVertex
100
AcDb2dVertex
 10
41.51822373093989
 20
-202.1168619286375
 30
0.0
  0
VERTEX
  5
3B5
330
3B3
100
AcDbEntity
  8
Ebene 1
 62
   179
420
  1709851
370
    18
100
AcDbVertex
100
AcDb2dVertex
 10
41.51822373093989
 20
-201.1219183524973
 30
0.0
  0
SEQEND
  5
3B6
330
3B3
100
AcDbEntity
  8
Ebene 1
370
    18
  0
POLYLINE
  5
3B7
330
1D3
100
AcDbEntity
  8
Ebene 1
 62
   179
420
  1709851
370
    18
100
AcDb2dPolyline
 66
     1
 10
0.0
 20
0.0
 30
0.0
  0
VERTEX
  5
3B8
330
3B7
100
AcDbEntity
  8
Ebene 1
 62
   179
420
  1709851
370
    18
100
AcDbVertex
100
AcDb2dVertex
 10
41.51822373093989
 20
-210.1177516835817
 30
0.0
  0
VERTEX
  5
3B9
330
3B7
100
AcDbEntity
  8
Ebene 1
 62
   179
420
  1709851
370
    18
100
AcDbVertex
100
AcDb2dVertex
 10
41.51822373093989
 20
-203.1331650967862
 30
0.0
  0
SEQEND
  5
3BA
330
3B7
100
AcDbEntity
  8
Ebene 1
370
    18
  0
POLYLINE
  5
3BB
330
1D3
100
AcDbEntity
  8
Ebene 1
 62
   179
420
  1709851
370
    18
100
AcDb2dPolyline
 66
     1
 10
0.0
 20
0.0
 30
0.0
  0
VERTEX
  5
3BC
330
3BB
100
AcDbEntity
  8
Ebene 1
 62
   179
420
  1709851
370
    18
100
AcDbVertex
100
AcDb2dVertex
 10
41.51822373093989
 20
-212.1289984278705
 30
0.0
  0
VERTEX
  5
3BD
330
3BB
100
AcDbEntity
  8
Ebene 1
 62
   179
420
  1709851
370
    18
100
AcDbVertex
100
AcDb2dVertex
 10
41.51822373093989
 20
-211.1126952597218
 30
0.0
  0
SEQEND
  5
3BE
330
3BB
100
AcDbEntity
  8
Ebene 1
370
    18
  0
POLYLINE
  5
3BF
330
1D3
100
AcDbEntity
  8
Ebene 1
 62
   179
420
  1709851
370
    18
100
AcDb2dPolyline
 66
     1
 10
0.0
 20
0.0
 30
0.0
  0
VERTEX
  5
3C0
330
3BF
100
AcDbEntity
  8
Ebene 1
 62
   179
420
  1709851
370
    18
100
AcDbVertex
100
AcDb2dVertex
 10
41.51822373093989
 20
-219.3044433045489
 30
0.0
  0
VERTEX
  5
3C1
330
3BF
100
AcDbEntity
  8
Ebene 1
 62
   179
420
  1709851
370
    18
100
AcDbVertex
100
AcDb2dVertex
 10
41.51822373093989
 20
-219.3044433045489
 30
0.0
  0
VERTEX
  5
3C2
330
3BF
100
AcDbEntity
  8
Ebene 1
 62
   179
420
  1709851
370
    18
100
AcDbVertex
100
AcDb2dVertex
 10
41.51822373093989
 20
-213.1232529849136
 30
0.0
  0
SEQEND
  5
3C3
330
3BF
100
AcDbEntity
  8
Ebene 1
370
    18
  0
POLYLINE
  5
3C4
330
1D3
100
AcDbEntity
  8
Ebene 1
 62
   179
420
  1709851
370
    18
100
AcDb2dPolyline
 66
     1
 10
0.0
 20
0.0
 30
0.0
  0
VERTEX
  5
3C5
330
3C4
100
AcDbEntity
  8
Ebene 1
 62
   179
420
  1709851
370
    18
100
AcDbVertex
100
AcDb2dVertex
 10
162.5068765869775
 20
-162.9585286050937
 30
0.0
  0
VERTEX
  5
3C6
330
3C4
100
AcDbEntity
  8
Ebene 1
 62
   179
420
  1709851
370
    18
100
AcDbVertex
100
AcDb2dVertex
 10
162.5068765869775
 20
-159.7621690138789
 30
0.0
  0
SEQEND
  5
3C7
330
3C4
100
AcDbEntity
  8
Ebene 1
370
    18
  0
POLYLINE
  5
3C8
330
1D3
100
AcDbEntity
  8
Ebene 1
 62
   179
420
  1709851
370
    18
100
AcDb2dPolyline
 66
     1
 10
0.0
 20
0.0
 30
0.0
  0
VERTEX
  5
3C9
330
3C8
100
AcDbEntity
  8
Ebene 1
 62
   179
420
  1709851
370
    18
100
AcDbVertex
100
AcDb2dVertex
 10
168.0948214640527
 20
-161.3710286054906
 30
0.0
  0
VERTEX
  5
3CA
330
3C8
100
AcDbEntity
  8
Ebene 1
 62
   179
420
  1709851
370
    18
100
AcDbVertex
100
AcDb2dVertex
 10
164.4971082488063
 20
-161.3710286054906
 30
0.0
  0
VERTEX
  5
3CB
330
3C8
100
AcDbEntity
  8
Ebene 1
 62
   179
420
  1709851
370
    18
100
AcDbVertex
100
AcDb2dVertex
 10
164.4971082488063
 20
-161.9635850289536
 30
0.0
  0
VERTEX
  5
3CC
330
3C8
100
AcDbEntity
  8
Ebene 1
 62
   179
420
  1709851
370
    18
100
AcDbVertex
100
AcDb2dVertex
 10
145.5104980104974
 20
-161.9635850289536
 30
0.0
  0
SEQEND
  5
3CD
330
3C8
100
AcDbEntity
  8
Ebene 1
370
    18
  0
POLYLINE
  5
3CE
330
1D3
100
AcDbEntity
  8
Ebene 1
 62
   179
420
  1709851
370
    18
100
AcDb2dPolyline
 66
     1
 10
0.0
 20
0.0
 30
0.0
  0
VERTEX
  5
3CF
330
3CE
100
AcDbEntity
  8
Ebene 1
 62
   179
420
  1709851
370
    18
100
AcDbVertex
100
AcDb2dVertex
 10
147.0979980101005
 20
-161.3710286054906
 30
0.0
  0
VERTEX
  5
3D0
330
3CE
100
AcDbEntity
  8
Ebene 1
 62
   179
420
  1709851
370
    18
100
AcDbVertex
100
AcDb2dVertex
 10
164.4971082488063
 20
-161.3710286054906
 30
0.0
  0
SEQEND
  5
3D1
330
3CE
100
AcDbEntity
  8
Ebene 1
370
    18
  0
POLYLINE
  5
3D2
330
1D3
100
AcDbEntity
  8
Ebene 1
 62
   179
420
  1709851
370
    18
100
AcDb2dPolyline
 66
     1
 10
0.0
 20
0.0
 30
0.0
  0
VERTEX
  5
3D3
330
3D2
100
AcDbEntity
  8
Ebene 1
 62
   179
420
  1709851
370
    18
100
AcDbVertex
100
AcDb2dVertex
 10
169.7040255652129
 20
-160.1645561665561
 30
0.0
  0
VERTEX
  5
3D4
330
3D2
100
AcDbEntity
  8
Ebene 1
 62
   179
420
  1709851
370
    18
100
AcDbVertex
100
AcDb2dVertex
 10
167.1005669070096
 20
-160.1645561665561
 30
0.0
  0
SEQEND
  5
3D5
330
3D2
100
AcDbEntity
  8
Ebene 1
370
    18
  0
POLYLINE
  5
3D6
330
1D3
100
AcDbEntity
  8
Ebene 1
 62
   179
420
  1709851
370
    18
100
AcDb2dPolyline
 66
     1
 10
0.0
 20
0.0
 30
0.0
  0
VERTEX
  5
3D7
330
3D6
100
AcDbEntity
  8
Ebene 1
 62
   179
420
  1709851
370
    18
100
AcDbVertex
100
AcDb2dVertex
 10
168.7087374795242
 20
-155.0630587719981
 30
0.0
  0
VERTEX
  5
3D8
330
3D6
100
AcDbEntity
  8
Ebene 1
 62
   179
420
  1709851
370
    18
100
AcDbVertex
100
AcDb2dVertex
 10
168.7087374795242
 20
-167.0650824235115
 30
0.0
  0
SEQEND
  5
3D9
330
3D6
100
AcDbEntity
  8
Ebene 1
370
    18
  0
POLYLINE
  5
3DA
330
1D3
100
AcDbEntity
  8
Ebene 1
 62
   179
420
  1709851
370
    18
100
AcDb2dPolyline
 66
     1
 10
0.0
 20
0.0
 30
0.0
  0
VERTEX
  5
3DB
330
3DA
100
AcDbEntity
  8
Ebene 1
 62
   179
420
  1709851
370
    18
100
AcDbVertex
100
AcDb2dVertex
 10
168.0948214640527
 20
-160.7578016091161
 30
0.0
  0
VERTEX
  5
3DC
330
3DA
100
AcDbEntity
  8
Ebene 1
 62
   179
420
  1709851
370
    18
100
AcDbVertex
100
AcDb2dVertex
 10
168.0948214640527
 20
-155.0637477910952
 30
0.0
  0
SEQEND
  5
3DD
330
3DA
100
AcDbEntity
  8
Ebene 1
370
    18
  0
POLYLINE
  5
3DE
330
1D3
100
AcDbEntity
  8
Ebene 1
 62
   179
420
  1709851
370
    18
100
AcDb2dPolyline
 66
     1
 10
0.0
 20
0.0
 30
0.0
  0
VERTEX
  5
3DF
330
3DE
100
AcDbEntity
  8
Ebene 1
 62
   179
420
  1709851
370
    18
100
AcDbVertex
100
AcDb2dVertex
 10
168.0948214640527
 20
-155.0630587719981
 30
0.0
  0
VERTEX
  5
3E0
330
3DE
100
AcDbEntity
  8
Ebene 1
 62
   179
420
  1709851
370
    18
100
AcDbVertex
100
AcDb2dVertex
 10
168.7087374795242
 20
-155.0630587719981
 30
0.0
  0
SEQEND
  5
3E1
330
3DE
100
AcDbEntity
  8
Ebene 1
370
    18
  0
POLYLINE
  5
3E2
330
1D3
100
AcDbEntity
  8
Ebene 1
 62
   179
420
  1709851
370
    18
100
AcDb2dPolyline
 66
     1
 10
0.0
 20
0.0
 30
0.0
  0
VERTEX
  5
3E3
330
3E2
100
AcDbEntity
  8
Ebene 1
 62
   179
420
  1709851
370
    18
100
AcDbVertex
100
AcDb2dVertex
 10
168.7087374795242
 20
-167.0650824235115
 30
0.0
  0
VERTEX
  5
3E4
330
3E2
100
AcDbEntity
  8
Ebene 1
 62
   179
420
  1709851
370
    18
100
AcDbVertex
100
AcDb2dVertex
 10
168.0948214640527
 20
-167.0650824235115
 30
0.0
  0
SEQEND
  5
3E5
330
3E2
100
AcDbEntity
  8
Ebene 1
370
    18
  0
POLYLINE
  5
3E6
330
1D3
100
AcDbEntity
  8
Ebene 1
 62
   179
420
  1709851
370
    18
100
AcDb2dPolyline
 66
     1
 10
0.0
 20
0.0
 30
0.0
  0
VERTEX
  5
3E7
330
3E6
100
AcDbEntity
  8
Ebene 1
 62
   179
420
  1709851
370
    18
100
AcDbVertex
100
AcDb2dVertex
 10
168.0948214640527
 20
-167.0650824235115
 30
0.0
  0
VERTEX
  5
3E8
330
3E6
100
AcDbEntity
  8
Ebene 1
 62
   179
420
  1709851
370
    18
100
AcDbVertex
100
AcDb2dVertex
 10
168.0948214640527
 20
-161.3710286054906
 30
0.0
  0
SEQEND
  5
3E9
330
3E6
100
AcDbEntity
  8
Ebene 1
370
    18
  0
POLYLINE
  5
3EA
330
1D3
100
AcDbEntity
  8
Ebene 1
 62
   179
420
  1709851
370
    18
100
AcDb2dPolyline
 66
     1
 10
0.0
 20
0.0
 30
0.0
  0
VERTEX
  5
3EB
330
3EA
100
AcDbEntity
  8
Ebene 1
 62
   179
420
  1709851
370
    18
100
AcDbVertex
100
AcDb2dVertex
 10
146.5054415866375
 20
-153.8565863330636
 30
0.0
  0
VERTEX
  5
3EC
330
3EA
100
AcDbEntity
  8
Ebene 1
 62
   179
420
  1709851
370
    18
100
AcDbVertex
100
AcDb2dVertex
 10
146.5054415866375
 20
-161.9635850289536
 30
0.0
  0
SEQEND
  5
3ED
330
3EA
100
AcDbEntity
  8
Ebene 1
370
    18
  0
POLYLINE
  5
3EE
330
1D3
100
AcDbEntity
  8
Ebene 1
 62
   179
420
  1709851
370
    18
100
AcDb2dPolyline
 66
     1
 10
0.0
 20
0.0
 30
0.0
  0
VERTEX
  5
3EF
330
3EE
100
AcDbEntity
  8
Ebene 1
 62
   179
420
  1709851
370
    18
100
AcDbVertex
100
AcDb2dVertex
 10
158.6972899993882
 20
-161.3710286054906
 30
0.0
  0
VERTEX
  5
3F0
330
3EE
100
AcDbEntity
  8
Ebene 1
 62
   179
420
  1709851
370
    18
100
AcDbVertex
100
AcDb2dVertex
 10
158.6972899993882
 20
-160.7578016091161
 30
0.0
  0
VERTEX
  5
3F1
330
3EE
100
AcDbEntity
  8
Ebene 1
 62
   179
420
  1709851
370
    18
100
AcDbVertex
100
AcDb2dVertex
 10
168.0948214640527
 20
-160.7578016091161
 30
0.0
  0
SEQEND
  5
3F2
330
3EE
100
AcDbEntity
  8
Ebene 1
370
    18
  0
POLYLINE
  5
3F3
330
1D3
100
AcDbEntity
  8
Ebene 1
 62
   179
420
  1709851
370
    18
100
AcDb2dPolyline
 66
     1
 10
0.0
 20
0.0
 30
0.0
  0
VERTEX
  5
3F4
330
3F3
100
AcDbEntity
  8
Ebene 1
 62
   179
420
  1709851
370
    18
100
AcDbVertex
100
AcDb2dVertex
 10
146.5054415866375
 20
-153.8565863330636
 30
0.0
  0
VERTEX
  5
3F5
330
3F3
100
AcDbEntity
  8
Ebene 1
 62
   179
420
  1709851
370
    18
100
AcDbVertex
100
AcDb2dVertex
 10
145.5104980104974
 20
-153.8565863330636
 30
0.0
  0
SEQEND
  5
3F6
330
3F3
100
AcDbEntity
  8
Ebene 1
370
    18
  0
POLYLINE
  5
3F7
330
1D3
100
AcDbEntity
  8
Ebene 1
 62
   179
420
  1709851
370
    18
100
AcDb2dPolyline
 66
     1
 10
0.0
 20
0.0
 30
0.0
  0
VERTEX
  5
3F8
330
3F7
100
AcDbEntity
  8
Ebene 1
 62
   179
420
  1709851
370
    18
100
AcDbVertex
100
AcDb2dVertex
 10
146.5054415866375
 20
-153.8565863330636
 30
0.0
  0
VERTEX
  5
3F9
330
3F7
100
AcDbEntity
  8
Ebene 1
 62
   179
420
  1709851
370
    18
100
AcDbVertex
100
AcDb2dVertex
 10
147.0979980101005
 20
-153.8565863330636
 30
0.0
  0
VERTEX
  5
3FA
330
3F7
100
AcDbEntity
  8
Ebene 1
 62
   179
420
  1709851
370
    18
100
AcDbVertex
100
AcDb2dVertex
 10
147.0979980101005
 20
-161.3710286054906
 30
0.0
  0
SEQEND
  5
3FB
330
3F7
100
AcDbEntity
  8
Ebene 1
370
    18
  0
POLYLINE
  5
3FC
330
1D3
100
AcDbEntity
  8
Ebene 1
370
     0
100
AcDb2dPolyline
 66
     1
 10
0.0
 20
0.0
 30
0.0
  0
VERTEX
  5
3FD
330
3FC
100
AcDbEntity
  8
Ebene 1
370
     0
100
AcDbVertex
100
AcDb2dVertex
 10
41.27499998968126
 20
-219.389192653486
 30
0.0
  0
VERTEX
  5
3FE
330
3FC
100
AcDbEntity
  8
Ebene 1
370
     0
100
AcDbVertex
100
AcDb2dVertex
 10
183.4413438126466
 20
-219.389192653486
 30
0.0
  0
VERTEX
  5
3FF
330
3FC
100
AcDbEntity
  8
Ebene 1
370
     0
100
AcDbVertex
100
AcDb2dVertex
 10
183.4413438126466
 20
-81.22346596276705
 30
0.0
  0
VERTEX
  5
400
330
3FC
100
AcDbEntity
  8
Ebene 1
370
     0
100
AcDbVertex
100
AcDb2dVertex
 10
41.27499998968126
 20
-81.22346596276705
 30
0.0
  0
VERTEX
  5
401
330
3FC
100
AcDbEntity
  8
Ebene 1
370
     0
100
AcDbVertex
100
AcDb2dVertex
 10
41.27499998968126
 20
-219.389192653486
 30
0.0
  0
SEQEND
  5
402
330
3FC
100
AcDbEntity
  8
Ebene 1
370
     0
  0
ENDBLK
  5
1D6
330
1D3
100
AcDbEntity
  8
0
100
AcDbBlockEnd
  0
BLOCK
  5
6BB
330
6B9
100
AcDbEntity
  8
0
100
AcDbBlockBegin
  2
block 5
 70
     0
 71
     0
 10
0.0
 20
0.0
 30
0.0
  3
block 5
  1

  0
POLYLINE
  5
6BD
330
6B9
100
AcDbEntity
  8
Ebene 1
 62
   179
420
  1709851
370
    25
100
AcDb2dPolyline
 66
     1
 10
0.0
 20
0.0
 30
0.0
  0
VERTEX
  5
6BE
330
6BD
100
AcDbEntity
  8
Ebene 1
 62
   179
420
  1709851
370
    25
100
AcDbVertex
100
AcDb2dVertex
 10
175.3129855247481
 20
-89.6797973408613
 30
0.0
  0
VERTEX
  5
6BF
330
6BD
100
AcDbEntity
  8
Ebene 1
 62
   179
420
  1709851
370
    25
100
AcDbVertex
100
AcDb2dVertex
 10
175.3129855247481
 20
-81.46703421357422
 30
0.0
  0
SEQEND
  5
6C0
330
6BD
100
AcDbEntity
  8
Ebene 1
370
    25
  0
POLYLINE
  5
6C1
330
6B9
100
AcDbEntity
  8
Ebene 1
 62
   179
420
  1709851
370
    25
100
AcDb2dPolyline
 66
     1
 10
0.0
 20
0.0
 30
0.0
  0
VERTEX
  5
6C2
330
6C1
100
AcDbEntity
  8
Ebene 1
 62
   179
420
  1709851
370
    25
100
AcDbVertex
100
AcDb2dVertex
 10
177.4082925988771
 20
-81.46703421357422
 30
0.0
  0
VERTEX
  5
6C3
330
6C1
100
AcDbEntity
  8
Ebene 1
 62
   179
420
  1709851
370
    25
100
AcDbVertex
100
AcDb2dVertex
 10
177.4082925988771
 20
-89.6797973408613
 30
0.0
  0
SEQEND
  5
6C4
330
6C1
100
AcDbEntity
  8
Ebene 1
370
    25
  0
POLYLINE
  5
6C5
330
6B9
100
AcDbEntity
  8
Ebene 1
 62
   179
420
  1709851
370
    25
100
AcDb2dPolyline
 66
     1
 10
0.0
 20
0.0
 30
0.0
  0
VERTEX
  5
6C6
330
6C5
100
AcDbEntity
  8
Ebene 1
 62
   179
420
  1709851
370
    25
100
AcDbVertex
100
AcDb2dVertex
 10
175.3129855247481
 20
-89.6797973408613
 30
0.0
  0
VERTEX
  5
6C7
330
6C5
100
AcDbEntity
  8
Ebene 1
 62
   179
420
  1709851
370
    25
100
AcDbVertex
100
AcDb2dVertex
 10
177.4082925988771
 20
-89.6797973408613
 30
0.0
  0
SEQEND
  5
6C8
330
6C5
100
AcDbEntity
  8
Ebene 1
370
    25
  0
POLYLINE
  5
6C9
330
6B9
100
AcDbEntity
  8
Ebene 1
 62
   179
420
  1709851
370
    25
100
AcDb2dPolyline
 66
     1
 10
0.0
 20
0.0
 30
0.0
  0
VERTEX
  5
6CA
330
6C9
100
AcDbEntity
  8
Ebene 1
 62
   179
420
  1709851
370
    25
100
AcDbVertex
100
AcDb2dVertex
 10
57.41458331897969
 20
-213.3561414397165
 30
0.0
  0
VERTEX
  5
6CB
330
6C9
100
AcDbEntity
  8
Ebene 1
 62
   179
420
  1709851
370
    25
100
AcDbVertex
100
AcDb2dVertex
 10
41.51839598571415
 20
-213.3561414397165
 30
0.0
  0
SEQEND
  5
6CC
330
6C9
100
AcDbEntity
  8
Ebene 1
370
    25
  0
POLYLINE
  5
6CD
330
6B9
100
AcDbEntity
  8
Ebene 1
 62
   179
420
  1709851
370
    25
100
AcDb2dPolyline
 66
     1
 10
0.0
 20
0.0
 30
0.0
  0
VERTEX
  5
6CE
330
6CD
100
AcDbEntity
  8
Ebene 1
 62
   179
420
  1709851
370
    25
100
AcDbVertex
100
AcDb2dVertex
 10
41.51839598571415
 20
-211.2608343655876
 30
0.0
  0
VERTEX
  5
6CF
330
6CD
100
AcDbEntity
  8
Ebene 1
 62
   179
420
  1709851
370
    25
100
AcDbVertex
100
AcDb2dVertex
 10
57.41458331897969
 20
-211.2608343655876
 30
0.0
  0
SEQEND
  5
6D0
330
6CD
100
AcDbEntity
  8
Ebene 1
370
    25
  0
POLYLINE
  5
6D1
330
6B9
100
AcDbEntity
  8
Ebene 1
370
     0
100
AcDb2dPolyline
 66
     1
 10
0.0
 20
0.0
 30
0.0
  0
VERTEX
  5
6D2
330
6D1
100
AcDbEntity
  8
Ebene 1
370
     0
100
AcDbVertex
100
AcDb2dVertex
 10
41.27499998968126
 20
-219.389192653486
 30
0.0
  0
VERTEX
  5
6D3
330
6D1
100
AcDbEntity
  8
Ebene 1
370
     0
100
AcDbVertex
100
AcDb2dVertex
 10
183.4413438126466
 20
-219.389192653486
 30
0.0
  0
VERTEX
  5
6D4
330
6D1
100
AcDbEntity
  8
Ebene 1
370
     0
100
AcDbVertex
100
AcDb2dVertex
 10
183.4413438126466
 20
-81.22346596276705
 30
0.0
  0
VERTEX
  5
6D5
330
6D1
100
AcDbEntity
  8
Ebene 1
370
     0
100
AcDbVertex
100
AcDb2dVertex
 10
41.27499998968126
 20
-81.22346596276705
 30
0.0
  0
VERTEX
  5
6D6
330
6D1
100
AcDbEntity
  8
Ebene 1
370
     0
100
AcDbVertex
100
AcDb2dVertex
 10
41.27499998968126
 20
-219.389192653486
 30
0.0
  0
SEQEND
  5
6D7
330
6D1
100
AcDbEntity
  8
Ebene 1
370
     0
  0
ENDBLK
  5
6BC
330
6B9
100
AcDbEntity
  8
0
100
AcDbBlockEnd
  0
BLOCK
  5
702
330
700
100
AcDbEntity
  8
0
100
AcDbBlockBegin
  2
block 6
 70
     0
 71
     0
 10
0.0
 20
0.0
 30
0.0
  3
block 6
  1

  0
POLYLINE
  5
704
330
700
100
AcDbEntity
  8
Ebene 1
 62
   179
420
  1709851
370
    13
100
AcDb2dPolyline
 66
     1
 10
0.0
 20
0.0
 30
0.0
  0
VERTEX
  5
705
330
704
100
AcDbEntity
  8
Ebene 1
 62
   179
420
  1709851
370
    13
100
AcDbVertex
100
AcDb2dVertex
 10
161.5122775203858
 20
-81.46703421357422
 30
0.0
  0
VERTEX
  5
706
330
704
100
AcDbEntity
  8
Ebene 1
 62
   179
420
  1709851
370
    13
100
AcDbVertex
100
AcDb2dVertex
 10
161.5122775203858
 20
-160.7571125900191
 30
0.0
  0
SEQEND
  5
707
330
704
100
AcDbEntity
  8
Ebene 1
370
    13
  0
POLYLINE
  5
708
330
700
100
AcDbEntity
  8
Ebene 1
 62
   179
420
  1709851
370
    13
100
AcDb2dPolyline
 66
     1
 10
0.0
 20
0.0
 30
0.0
  0
VERTEX
  5
709
330
708
100
AcDbEntity
  8
Ebene 1
 62
   179
420
  1709851
370
    13
100
AcDbVertex
100
AcDb2dVertex
 10
145.5101535009489
 20
-141.4743963947529
 30
0.0
  0
VERTEX
  5
70A
330
708
100
AcDbEntity
  8
Ebene 1
 62
   179
420
  1709851
370
    13
100
AcDbVertex
100
AcDb2dVertex
 10
161.5122775203858
 20
-146.4697848483652
 30
0.0
  0
VERTEX
  5
70B
330
708
100
AcDbEntity
  8
Ebene 1
 62
   179
420
  1709851
370
    13
100
AcDbVertex
100
AcDb2dVertex
 10
145.5101535009489
 20
-151.4650010472032
 30
0.0
  0
VERTEX
  5
70C
330
708
100
AcDbEntity
  8
Ebene 1
 62
   179
420
  1709851
370
    13
100
AcDbVertex
100
AcDb2dVertex
 10
161.5122775203858
 20
-156.4603895008155
 30
0.0
  0
VERTEX
  5
70D
330
708
100
AcDbEntity
  8
Ebene 1
 62
   179
420
  1709851
370
    13
100
AcDbVertex
100
AcDb2dVertex
 10
147.097653500552
 20
-160.9693304719104
 30
0.0
  0
SEQEND
  5
70E
330
708
100
AcDbEntity
  8
Ebene 1
370
    13
  0
POLYLINE
  5
70F
330
700
100
AcDbEntity
  8
Ebene 1
 62
   179
420
  1709851
370
    13
100
AcDb2dPolyline
 66
     1
 10
0.0
 20
0.0
 30
0.0
  0
VERTEX
  5
710
330
70F
100
AcDbEntity
  8
Ebene 1
 62
   179
420
  1709851
370
    13
100
AcDbVertex
100
AcDb2dVertex
 10
145.5101535009489
 20
-81.46703421357422
 30
0.0
  0
VERTEX
  5
711
330
70F
100
AcDbEntity
  8
Ebene 1
 62
   179
420
  1709851
370
    13
100
AcDbVertex
100
AcDb2dVertex
 10
161.5122775203858
 20
-86.46242266718649
 30
0.0
  0
VERTEX
  5
712
330
70F
100
AcDbEntity
  8
Ebene 1
 62
   179
420
  1709851
370
    13
100
AcDbVertex
100
AcDb2dVertex
 10
145.5101535009489
 20
-91.47882620325878
 30
0.0
  0
SEQEND
  5
713
330
70F
100
AcDbEntity
  8
Ebene 1
370
    13
  0
POLYLINE
  5
714
330
700
100
AcDbEntity
  8
Ebene 1
 62
   179
420
  1709851
370
    13
100
AcDb2dPolyline
 66
     1
 10
0.0
 20
0.0
 30
0.0
  0
VERTEX
  5
715
330
714
100
AcDbEntity
  8
Ebene 1
 62
   179
420
  1709851
370
    13
100
AcDbVertex
100
AcDb2dVertex
 10
145.5101535009489
 20
-91.47882620325878
 30
0.0
  0
VERTEX
  5
716
330
714
100
AcDbEntity
  8
Ebene 1
 62
   179
420
  1709851
370
    13
100
AcDbVertex
100
AcDb2dVertex
 10
161.5122775203858
 20
-96.47421465687104
 30
0.0
  0
VERTEX
  5
717
330
714
100
AcDbEntity
  8
Ebene 1
 62
   179
420
  1709851
370
    13
100
AcDbVertex
100
AcDb2dVertex
 10
145.5101535009489
 20
-101.4696031104833
 30
0.0
  0
SEQEND
  5
718
330
714
100
AcDbEntity
  8
Ebene 1
370
    13
  0
POLYLINE
  5
719
330
700
100
AcDbEntity
  8
Ebene 1
 62
   179
420
  1709851
370
    13
100
AcDb2dPolyline
 66
     1
 10
0.0
 20
0.0
 30
0.0
  0
VERTEX
  5
71A
330
719
100
AcDbEntity
  8
Ebene 1
 62
   179
420
  1709851
370
    13
100
AcDbVertex
100
AcDb2dVertex
 10
145.5101535009489
 20
-101.4696031104833
 30
0.0
  0
VERTEX
  5
71B
330
719
100
AcDbEntity
  8
Ebene 1
 62
   179
420
  1709851
370
    13
100
AcDbVertex
100
AcDb2dVertex
 10
161.5122775203858
 20
-106.4649915640956
 30
0.0
  0
VERTEX
  5
71C
330
719
100
AcDbEntity
  8
Ebene 1
 62
   179
420
  1709851
370
    13
100
AcDbVertex
100
AcDb2dVertex
 10
145.5101535009489
 20
-111.4603800177078
 30
0.0
  0
SEQEND
  5
71D
330
719
100
AcDbEntity
  8
Ebene 1
370
    13
  0
POLYLINE
  5
71E
330
700
100
AcDbEntity
  8
Ebene 1
 62
   179
420
  1709851
370
    13
100
AcDb2dPolyline
 66
     1
 10
0.0
 20
0.0
 30
0.0
  0
VERTEX
  5
71F
330
71E
100
AcDbEntity
  8
Ebene 1
 62
   179
420
  1709851
370
    13
100
AcDbVertex
100
AcDb2dVertex
 10
145.5101535009489
 20
-111.4603800177078
 30
0.0
  0
VERTEX
  5
720
330
71E
100
AcDbEntity
  8
Ebene 1
 62
   179
420
  1709851
370
    13
100
AcDbVertex
100
AcDb2dVertex
 10
161.5122775203858
 20
-116.4767835537801
 30
0.0
  0
VERTEX
  5
721
330
71E
100
AcDbEntity
  8
Ebene 1
 62
   179
420
  1709851
370
    13
100
AcDbVertex
100
AcDb2dVertex
 10
145.5101535009489
 20
-121.4721720073924
 30
0.0
  0
SEQEND
  5
722
330
71E
100
AcDbEntity
  8
Ebene 1
370
    13
  0
POLYLINE
  5
723
330
700
100
AcDbEntity
  8
Ebene 1
 62
   179
420
  1709851
370
    13
100
AcDb2dPolyline
 66
     1
 10
0.0
 20
0.0
 30
0.0
  0
VERTEX
  5
724
330
723
100
AcDbEntity
  8
Ebene 1
 62
   179
420
  1709851
370
    13
100
AcDbVertex
100
AcDb2dVertex
 10
145.5101535009489
 20
-121.4721720073924
 30
0.0
  0
VERTEX
  5
725
330
723
100
AcDbEntity
  8
Ebene 1
 62
   179
420
  1709851
370
    13
100
AcDbVertex
100
AcDb2dVertex
 10
161.5122775203858
 20
-126.4672159514561
 30
0.0
  0
VERTEX
  5
726
330
723
100
AcDbEntity
  8
Ebene 1
 62
   179
420
  1709851
370
    13
100
AcDbVertex
100
AcDb2dVertex
 10
145.5101535009489
 20
-131.4626044050684
 30
0.0
  0
SEQEND
  5
727
330
723
100
AcDbEntity
  8
Ebene 1
370
    13
  0
POLYLINE
  5
728
330
700
100
AcDbEntity
  8
Ebene 1
 62
   179
420
  1709851
370
    13
100
AcDb2dPolyline
 66
     1
 10
0.0
 20
0.0
 30
0.0
  0
VERTEX
  5
729
330
728
100
AcDbEntity
  8
Ebene 1
 62
   179
420
  1709851
370
    13
100
AcDbVertex
100
AcDb2dVertex
 10
145.5101535009489
 20
-131.4626044050684
 30
0.0
  0
VERTEX
  5
72A
330
728
100
AcDbEntity
  8
Ebene 1
 62
   179
420
  1709851
370
    13
100
AcDbVertex
100
AcDb2dVertex
 10
161.5122775203858
 20
-136.4579928586807
 30
0.0
  0
VERTEX
  5
72B
330
728
100
AcDbEntity
  8
Ebene 1
 62
   179
420
  1709851
370
    13
100
AcDbVertex
100
AcDb2dVertex
 10
145.5101535009489
 20
-141.4743963947529
 30
0.0
  0
SEQEND
  5
72C
330
728
100
AcDbEntity
  8
Ebene 1
370
    13
  0
POLYLINE
  5
72D
330
700
100
AcDbEntity
  8
Ebene 1
 62
   179
420
  1709851
370
    13
100
AcDb2dPolyline
 66
     1
 10
0.0
 20
0.0
 30
0.0
  0
VERTEX
  5
72E
330
72D
100
AcDbEntity
  8
Ebene 1
 62
   179
420
  1709851
370
    13
100
AcDbVertex
100
AcDb2dVertex
 10
161.5126220299344
 20
-181.4586913608853
 30
0.0
  0
VERTEX
  5
72F
330
72D
100
AcDbEntity
  8
Ebene 1
 62
   179
420
  1709851
370
    13
100
AcDbVertex
100
AcDb2dVertex
 10
145.5101535009489
 20
-181.4586913608853
 30
0.0
  0
SEQEND
  5
730
330
72D
100
AcDbEntity
  8
Ebene 1
370
    13
  0
POLYLINE
  5
731
330
700
100
AcDbEntity
  8
Ebene 1
 62
   179
420
  1709851
370
    13
100
AcDb2dPolyline
 66
     1
 10
0.0
 20
0.0
 30
0.0
  0
VERTEX
  5
732
330
731
100
AcDbEntity
  8
Ebene 1
 62
   179
420
  1709851
370
    13
100
AcDbVertex
100
AcDb2dVertex
 10
151.5004855307013
 20
-181.4586913608853
 30
0.0
  0
VERTEX
  5
733
330
731
100
AcDbEntity
  8
Ebene 1
 62
   179
420
  1709851
370
    13
100
AcDbVertex
100
AcDb2dVertex
 10
156.4958739843135
 20
-197.4604708707738
 30
0.0
  0
SEQEND
  5
734
330
731
100
AcDbEntity
  8
Ebene 1
370
    13
  0
POLYLINE
  5
735
330
700
100
AcDbEntity
  8
Ebene 1
 62
   179
420
  1709851
370
    13
100
AcDb2dPolyline
 66
     1
 10
0.0
 20
0.0
 30
0.0
  0
VERTEX
  5
736
330
735
100
AcDbEntity
  8
Ebene 1
 62
   179
420
  1709851
370
    13
100
AcDbVertex
100
AcDb2dVertex
 10
147.097653500552
 20
-161.9635850289536
 30
0.0
  0
VERTEX
  5
737
330
735
100
AcDbEntity
  8
Ebene 1
 62
   179
420
  1709851
370
    13
100
AcDbVertex
100
AcDb2dVertex
 10
161.5122775203858
 20
-166.4725260000485
 30
0.0
  0
SEQEND
  5
738
330
735
100
AcDbEntity
  8
Ebene 1
370
    13
  0
POLYLINE
  5
739
330
700
100
AcDbEntity
  8
Ebene 1
 62
   179
420
  1709851
370
    13
100
AcDb2dPolyline
 66
     1
 10
0.0
 20
0.0
 30
0.0
  0
VERTEX
  5
73A
330
739
100
AcDbEntity
  8
Ebene 1
 62
   179
420
  1709851
370
    13
100
AcDbVertex
100
AcDb2dVertex
 10
161.5122775203858
 20
-166.4725260000485
 30
0.0
  0
VERTEX
  5
73B
330
739
100
AcDbEntity
  8
Ebene 1
 62
   179
420
  1709851
370
    13
100
AcDbVertex
100
AcDb2dVertex
 10
145.5101535009489
 20
-171.4672254345637
 30
0.0
  0
SEQEND
  5
73C
330
739
100
AcDbEntity
  8
Ebene 1
370
    13
  0
POLYLINE
  5
73D
330
700
100
AcDbEntity
  8
Ebene 1
 62
   179
420
  1709851
370
    13
100
AcDb2dPolyline
 66
     1
 10
0.0
 20
0.0
 30
0.0
  0
VERTEX
  5
73E
330
73D
100
AcDbEntity
  8
Ebene 1
 62
   179
420
  1709851
370
    13
100
AcDbVertex
100
AcDb2dVertex
 10
145.5101535009489
 20
-171.4672254345637
 30
0.0
  0
VERTEX
  5
73F
330
73D
100
AcDbEntity
  8
Ebene 1
 62
   179
420
  1709851
370
    13
100
AcDbVertex
100
AcDb2dVertex
 10
161.5122775203858
 20
-176.462613888176
 30
0.0
  0
VERTEX
  5
740
330
73D
100
AcDbEntity
  8
Ebene 1
 62
   179
420
  1709851
370
    13
100
AcDbVertex
100
AcDb2dVertex
 10
145.5101535009489
 20
-181.4586913608853
 30
0.0
  0
SEQEND
  5
741
330
73D
100
AcDbEntity
  8
Ebene 1
370
    13
  0
POLYLINE
  5
742
330
700
100
AcDbEntity
  8
Ebene 1
 62
   179
420
  1709851
370
    13
100
AcDb2dPolyline
 66
     1
 10
0.0
 20
0.0
 30
0.0
  0
VERTEX
  5
743
330
742
100
AcDbEntity
  8
Ebene 1
 62
   179
420
  1709851
370
    13
100
AcDbVertex
100
AcDb2dVertex
 10
126.0160806976627
 20
-195.8516112791621
 30
0.0
  0
VERTEX
  5
744
330
742
100
AcDbEntity
  8
Ebene 1
 62
   179
420
  1709851
370
    13
100
AcDbVertex
100
AcDb2dVertex
 10
126.5025281801799
 20
-197.4604708707738
 30
0.0
  0
SEQEND
  5
745
330
742
100
AcDbEntity
  8
Ebene 1
370
    13
  0
POLYLINE
  5
746
330
700
100
AcDbEntity
  8
Ebene 1
 62
   179
420
  1709851
370
    13
100
AcDb2dPolyline
 66
     1
 10
0.0
 20
0.0
 30
0.0
  0
VERTEX
  5
747
330
746
100
AcDbEntity
  8
Ebene 1
 62
   179
420
  1709851
370
    13
100
AcDbVertex
100
AcDb2dVertex
 10
41.51839598571415
 20
-197.4604708707738
 30
0.0
  0
VERTEX
  5
748
330
746
100
AcDbEntity
  8
Ebene 1
 62
   179
420
  1709851
370
    13
100
AcDbVertex
100
AcDb2dVertex
 10
124.8096082587282
 20
-197.4604708707738
 30
0.0
  0
SEQEND
  5
749
330
746
100
AcDbEntity
  8
Ebene 1
370
    13
  0
POLYLINE
  5
74A
330
700
100
AcDbEntity
  8
Ebene 1
 62
   179
420
  1709851
370
    13
100
AcDb2dPolyline
 66
     1
 10
0.0
 20
0.0
 30
0.0
  0
VERTEX
  5
74B
330
74A
100
AcDbEntity
  8
Ebene 1
 62
   179
420
  1709851
370
    13
100
AcDbVertex
100
AcDb2dVertex
 10
122.015291310642
 20
-183.0668619334
 30
0.0
  0
VERTEX
  5
74C
330
74A
100
AcDbEntity
  8
Ebene 1
 62
   179
420
  1709851
370
    13
100
AcDbVertex
100
AcDb2dVertex
 10
125.4018201726426
 20
-193.9464734758189
 30
0.0
  0
SEQEND
  5
74D
330
74A
100
AcDbEntity
  8
Ebene 1
370
    13
  0
POLYLINE
  5
74E
330
700
100
AcDbEntity
  8
Ebene 1
 62
   179
420
  1709851
370
    13
100
AcDb2dPolyline
 66
     1
 10
0.0
 20
0.0
 30
0.0
  0
VERTEX
  5
74F
330
74E
100
AcDbEntity
  8
Ebene 1
 62
   179
420
  1709851
370
    13
100
AcDbVertex
100
AcDb2dVertex
 10
111.5163628193431
 20
-181.4586913608853
 30
0.0
  0
VERTEX
  5
750
330
74E
100
AcDbEntity
  8
Ebene 1
 62
   179
420
  1709851
370
    13
100
AcDbVertex
100
AcDb2dVertex
 10
116.5117512729554
 20
-197.4604708707738
 30
0.0
  0
VERTEX
  5
751
330
74E
100
AcDbEntity
  8
Ebene 1
 62
   179
420
  1709851
370
    13
100
AcDbVertex
100
AcDb2dVertex
 10
120.9993326520418
 20
-183.0668619334
 30
0.0
  0
SEQEND
  5
752
330
74E
100
AcDbEntity
  8
Ebene 1
370
    13
  0
POLYLINE
  5
753
330
700
100
AcDbEntity
  8
Ebene 1
 62
   179
420
  1709851
370
    13
100
AcDb2dPolyline
 66
     1
 10
0.0
 20
0.0
 30
0.0
  0
VERTEX
  5
754
330
753
100
AcDbEntity
  8
Ebene 1
 62
   179
420
  1709851
370
    13
100
AcDbVertex
100
AcDb2dVertex
 10
41.51839598571415
 20
-181.4586913608853
 30
0.0
  0
VERTEX
  5
755
330
753
100
AcDbEntity
  8
Ebene 1
 62
   179
420
  1709851
370
    13
100
AcDbVertex
100
AcDb2dVertex
 10
46.51378443932641
 20
-197.4604708707738
 30
0.0
  0
VERTEX
  5
756
330
753
100
AcDbEntity
  8
Ebene 1
 62
   179
420
  1709851
370
    13
100
AcDbVertex
100
AcDb2dVertex
 10
51.50900063816442
 20
-181.4586913608853
 30
0.0
  0
SEQEND
  5
757
330
753
100
AcDbEntity
  8
Ebene 1
370
    13
  0
POLYLINE
  5
758
330
700
100
AcDbEntity
  8
Ebene 1
 62
   179
420
  1709851
370
    13
100
AcDb2dPolyline
 66
     1
 10
0.0
 20
0.0
 30
0.0
  0
VERTEX
  5
759
330
758
100
AcDbEntity
  8
Ebene 1
 62
   179
420
  1709851
370
    13
100
AcDbVertex
100
AcDb2dVertex
 10
51.50900063816442
 20
-181.4586913608853
 30
0.0
  0
VERTEX
  5
75A
330
758
100
AcDbEntity
  8
Ebene 1
 62
   179
420
  1709851
370
    13
100
AcDbVertex
100
AcDb2dVertex
 10
56.50438909177668
 20
-197.4604708707738
 30
0.0
  0
VERTEX
  5
75B
330
758
100
AcDbEntity
  8
Ebene 1
 62
   179
420
  1709851
370
    13
100
AcDbVertex
100
AcDb2dVertex
 10
61.52079262784897
 20
-181.4586913608853
 30
0.0
  0
SEQEND
  5
75C
330
758
100
AcDbEntity
  8
Ebene 1
370
    13
  0
POLYLINE
  5
75D
330
700
100
AcDbEntity
  8
Ebene 1
 62
   179
420
  1709851
370
    13
100
AcDb2dPolyline
 66
     1
 10
0.0
 20
0.0
 30
0.0
  0
VERTEX
  5
75E
330
75D
100
AcDbEntity
  8
Ebene 1
 62
   179
420
  1709851
370
    13
100
AcDbVertex
100
AcDb2dVertex
 10
61.52079262784897
 20
-181.4586913608853
 30
0.0
  0
VERTEX
  5
75F
330
75D
100
AcDbEntity
  8
Ebene 1
 62
   179
420
  1709851
370
    13
100
AcDbVertex
100
AcDb2dVertex
 10
66.51618108146124
 20
-197.4604708707738
 30
0.0
  0
VERTEX
  5
760
330
75D
100
AcDbEntity
  8
Ebene 1
 62
   179
420
  1709851
370
    13
100
AcDbVertex
100
AcDb2dVertex
 10
71.5115695350735
 20
-181.4586913608853
 30
0.0
  0
SEQEND
  5
761
330
75D
100
AcDbEntity
  8
Ebene 1
370
    13
  0
POLYLINE
  5
762
330
700
100
AcDbEntity
  8
Ebene 1
 62
   179
420
  1709851
370
    13
100
AcDb2dPolyline
 66
     1
 10
0.0
 20
0.0
 30
0.0
  0
VERTEX
  5
763
330
762
100
AcDbEntity
  8
Ebene 1
 62
   179
420
  1709851
370
    13
100
AcDbVertex
100
AcDb2dVertex
 10
71.5115695350735
 20
-181.4586913608853
 30
0.0
  0
VERTEX
  5
764
330
762
100
AcDbEntity
  8
Ebene 1
 62
   179
420
  1709851
370
    13
100
AcDbVertex
100
AcDb2dVertex
 10
76.50695798868577
 20
-197.4604708707738
 30
0.0
  0
VERTEX
  5
765
330
762
100
AcDbEntity
  8
Ebene 1
 62
   179
420
  1709851
370
    13
100
AcDbVertex
100
AcDb2dVertex
 10
81.50217418752376
 20
-181.4586913608853
 30
0.0
  0
SEQEND
  5
766
330
762
100
AcDbEntity
  8
Ebene 1
370
    13
  0
POLYLINE
  5
767
330
700
100
AcDbEntity
  8
Ebene 1
 62
   179
420
  1709851
370
    13
100
AcDb2dPolyline
 66
     1
 10
0.0
 20
0.0
 30
0.0
  0
VERTEX
  5
768
330
767
100
AcDbEntity
  8
Ebene 1
 62
   179
420
  1709851
370
    13
100
AcDbVertex
100
AcDb2dVertex
 10
81.50217418752376
 20
-181.4586913608853
 30
0.0
  0
VERTEX
  5
769
330
767
100
AcDbEntity
  8
Ebene 1
 62
   179
420
  1709851
370
    13
100
AcDbVertex
100
AcDb2dVertex
 10
86.51874997837032
 20
-197.4604708707738
 30
0.0
  0
VERTEX
  5
76A
330
767
100
AcDbEntity
  8
Ebene 1
 62
   179
420
  1709851
370
    13
100
AcDbVertex
100
AcDb2dVertex
 10
91.51396617720832
 20
-181.4586913608853
 30
0.0
  0
SEQEND
  5
76B
330
767
100
AcDbEntity
  8
Ebene 1
370
    13
  0
POLYLINE
  5
76C
330
700
100
AcDbEntity
  8
Ebene 1
 62
   179
420
  1709851
370
    13
100
AcDb2dPolyline
 66
     1
 10
0.0
 20
0.0
 30
0.0
  0
VERTEX
  5
76D
330
76C
100
AcDbEntity
  8
Ebene 1
 62
   179
420
  1709851
370
    13
100
AcDbVertex
100
AcDb2dVertex
 10
91.51396617720832
 20
-181.4586913608853
 30
0.0
  0
VERTEX
  5
76E
330
76C
100
AcDbEntity
  8
Ebene 1
 62
   179
420
  1709851
370
    13
100
AcDbVertex
100
AcDb2dVertex
 10
96.50969914036911
 20
-197.4604708707738
 30
0.0
  0
VERTEX
  5
76F
330
76C
100
AcDbEntity
  8
Ebene 1
 62
   179
420
  1709851
370
    13
100
AcDbVertex
100
AcDb2dVertex
 10
101.5047430844328
 20
-181.4586913608853
 30
0.0
  0
SEQEND
  5
770
330
76C
100
AcDbEntity
  8
Ebene 1
370
    13
  0
POLYLINE
  5
771
330
700
100
AcDbEntity
  8
Ebene 1
 62
   179
420
  1709851
370
    13
100
AcDb2dPolyline
 66
     1
 10
0.0
 20
0.0
 30
0.0
  0
VERTEX
  5
772
330
771
100
AcDbEntity
  8
Ebene 1
 62
   179
420
  1709851
370
    13
100
AcDbVertex
100
AcDb2dVertex
 10
101.5047430844328
 20
-181.4586913608853
 30
0.0
  0
VERTEX
  5
773
330
771
100
AcDbEntity
  8
Ebene 1
 62
   179
420
  1709851
370
    13
100
AcDbVertex
100
AcDb2dVertex
 10
106.4999592832709
 20
-197.4604708707738
 30
0.0
  0
VERTEX
  5
774
330
771
100
AcDbEntity
  8
Ebene 1
 62
   179
420
  1709851
370
    13
100
AcDbVertex
100
AcDb2dVertex
 10
111.5163628193431
 20
-181.4586913608853
 30
0.0
  0
SEQEND
  5
775
330
771
100
AcDbEntity
  8
Ebene 1
370
    13
  0
POLYLINE
  5
776
330
700
100
AcDbEntity
  8
Ebene 1
 62
   179
420
  1709851
370
    13
100
AcDb2dPolyline
 66
     1
 10
0.0
 20
0.0
 30
0.0
  0
VERTEX
  5
777
330
776
100
AcDbEntity
  8
Ebene 1
 62
   179
420
  1709851
370
    13
100
AcDbVertex
100
AcDb2dVertex
 10
126.5025281801799
 20
-197.4604708707738
 30
0.0
  0
VERTEX
  5
778
330
776
100
AcDbEntity
  8
Ebene 1
 62
   179
420
  1709851
370
    13
100
AcDbVertex
100
AcDb2dVertex
 10
131.4982611433407
 20
-181.4586913608853
 30
0.0
  0
SEQEND
  5
779
330
776
100
AcDbEntity
  8
Ebene 1
370
    13
  0
POLYLINE
  5
77A
330
700
100
AcDbEntity
  8
Ebene 1
 62
   179
420
  1709851
370
    13
100
AcDb2dPolyline
 66
     1
 10
0.0
 20
0.0
 30
0.0
  0
VERTEX
  5
77B
330
77A
100
AcDbEntity
  8
Ebene 1
 62
   179
420
  1709851
370
    13
100
AcDbVertex
100
AcDb2dVertex
 10
131.4982611433407
 20
-181.4586913608853
 30
0.0
  0
VERTEX
  5
77C
330
77A
100
AcDbEntity
  8
Ebene 1
 62
   179
420
  1709851
370
    13
100
AcDbVertex
100
AcDb2dVertex
 10
136.5143201698645
 20
-197.4604708707738
 30
0.0
  0
VERTEX
  5
77D
330
77A
100
AcDbEntity
  8
Ebene 1
 62
   179
420
  1709851
370
    13
100
AcDbVertex
100
AcDb2dVertex
 10
141.5100531330253
 20
-181.4586913608853
 30
0.0
  0
SEQEND
  5
77E
330
77A
100
AcDbEntity
  8
Ebene 1
370
    13
  0
POLYLINE
  5
77F
330
700
100
AcDbEntity
  8
Ebene 1
 62
   179
420
  1709851
370
    13
100
AcDb2dPolyline
 66
     1
 10
0.0
 20
0.0
 30
0.0
  0
VERTEX
  5
780
330
77F
100
AcDbEntity
  8
Ebene 1
 62
   179
420
  1709851
370
    13
100
AcDbVertex
100
AcDb2dVertex
 10
161.5126220299344
 20
-161.9635850289536
 30
0.0
  0
VERTEX
  5
781
330
77F
100
AcDbEntity
  8
Ebene 1
 62
   179
420
  1709851
370
    13
100
AcDbVertex
100
AcDb2dVertex
 10
161.5126220299344
 20
-197.4604708707738
 30
0.0
  0
SEQEND
  5
782
330
77F
100
AcDbEntity
  8
Ebene 1
370
    13
  0
POLYLINE
  5
783
330
700
100
AcDbEntity
  8
Ebene 1
 62
   179
420
  1709851
370
    13
100
AcDb2dPolyline
 66
     1
 10
0.0
 20
0.0
 30
0.0
  0
VERTEX
  5
784
330
783
100
AcDbEntity
  8
Ebene 1
 62
   179
420
  1709851
370
    13
100
AcDbVertex
100
AcDb2dVertex
 10
126.0160806976627
 20
-197.4604708707738
 30
0.0
  0
VERTEX
  5
785
330
783
100
AcDbEntity
  8
Ebene 1
 62
   179
420
  1709851
370
    13
100
AcDbVertex
100
AcDb2dVertex
 10
161.5126220299344
 20
-197.4604708707738
 30
0.0
  0
SEQEND
  5
786
330
783
100
AcDbEntity
  8
Ebene 1
370
    13
  0
POLYLINE
  5
787
330
700
100
AcDbEntity
  8
Ebene 1
 62
   179
420
  1709851
370
    13
100
AcDb2dPolyline
 66
     1
 10
0.0
 20
0.0
 30
0.0
  0
VERTEX
  5
788
330
787
100
AcDbEntity
  8
Ebene 1
 62
   179
420
  1709851
370
    13
100
AcDbVertex
100
AcDb2dVertex
 10
141.5100531330253
 20
-181.4586913608853
 30
0.0
  0
VERTEX
  5
789
330
787
100
AcDbEntity
  8
Ebene 1
 62
   179
420
  1709851
370
    13
100
AcDbVertex
100
AcDb2dVertex
 10
146.5054415866375
 20
-197.4604708707738
 30
0.0
  0
VERTEX
  5
78A
330
787
100
AcDbEntity
  8
Ebene 1
 62
   179
420
  1709851
370
    13
100
AcDbVertex
100
AcDb2dVertex
 10
151.5004855307013
 20
-181.4586913608853
 30
0.0
  0
SEQEND
  5
78B
330
787
100
AcDbEntity
  8
Ebene 1
370
    13
  0
POLYLINE
  5
78C
330
700
100
AcDbEntity
  8
Ebene 1
 62
   179
420
  1709851
370
    13
100
AcDb2dPolyline
 66
     1
 10
0.0
 20
0.0
 30
0.0
  0
VERTEX
  5
78D
330
78C
100
AcDbEntity
  8
Ebene 1
 62
   179
420
  1709851
370
    13
100
AcDbVertex
100
AcDb2dVertex
 10
156.4958739843135
 20
-197.4604708707738
 30
0.0
  0
VERTEX
  5
78E
330
78C
100
AcDbEntity
  8
Ebene 1
 62
   179
420
  1709851
370
    13
100
AcDbVertex
100
AcDb2dVertex
 10
161.5126220299344
 20
-181.4586913608853
 30
0.0
  0
SEQEND
  5
78F
330
78C
100
AcDbEntity
  8
Ebene 1
370
    13
  0
POLYLINE
  5
790
330
700
100
AcDbEntity
  8
Ebene 1
370
     0
100
AcDb2dPolyline
 66
     1
 10
0.0
 20
0.0
 30
0.0
  0
VERTEX
  5
791
330
790
100
AcDbEntity
  8
Ebene 1
370
     0
100
AcDbVertex
100
AcDb2dVertex
 10
41.27499998968126
 20
-219.389192653486
 30
0.0
  0
VERTEX
  5
792
330
790
100
AcDbEntity
  8
Ebene 1
370
     0
100
AcDbVertex
100
AcDb2dVertex
 10
183.4413438126466
 20
-219.389192653486
 30
0.0
  0
VERTEX
  5
793
330
790
100
AcDbEntity
  8
Ebene 1
370
     0
100
AcDbVertex
100
AcDb2dVertex
 10
183.4413438126466
 20
-81.22346596276705
 30
0.0
  0
VERTEX
  5
794
330
790
100
AcDbEntity
  8
Ebene 1
370
     0
100
AcDbVertex
100
AcDb2dVertex
 10
41.27499998968126
 20
-81.22346596276705
 30
0.0
  0
VERTEX
  5
795
330
790
100
AcDbEntity
  8
Ebene 1
370
     0
100
AcDbVertex
100
AcDb2dVertex
 10
41.27499998968126
 20
-219.389192653486
 30
0.0
  0
SEQEND
  5
796
330
790
100
AcDbEntity
  8
Ebene 1
370
     0
  0
ENDBLK
  5
703
330
700
100
AcDbEntity
  8
0
100
AcDbBlockEnd
  0
ENDSEC
  0
SECTION
  2
ENTITIES
  0
INSERT
  5
3D
330
1F
100
AcDbEntity
  8
Ebene 1
100
AcDbBlockReference
  2
block 2
 10
0.0
 20
0.0
 30
0.0
  0
POLYLINE
  5
BF
330
1F
100
AcDbEntity
  8
Ebene 1
370
     0
100
AcDb2dPolyline
 66
     1
 10
0.0
 20
0.0
 30
0.0
  0
VERTEX
  5
C0
330
BF
100
AcDbEntity
  8
Ebene 1
370
     0
100
AcDbVertex
100
AcDb2dVertex
 10
131.1168890731236
 20
-204.6565863203636
 30
0.0
  0
VERTEX
  5
C1
330
BF
100
AcDbEntity
  8
Ebene 1
370
     0
100
AcDbVertex
100
AcDb2dVertex
 10
119.1152099311587
 20
-204.0640298969007
 30
0.0
  0
VERTEX
  5
C2
330
BF
100
AcDbEntity
  8
Ebene 1
370
     0
100
AcDbVertex
100
AcDb2dVertex
 10
119.1152099311587
 20
-204.6565863203636
 30
0.0
  0
VERTEX
  5
C3
330
BF
100
AcDbEntity
  8
Ebene 1
370
     0
100
AcDbVertex
100
AcDb2dVertex
 10
131.1168890731236
 20
-204.6565863203636
 30
0.0
  0
SEQEND
  5
C4
330
BF
100
AcDbEntity
  8
Ebene 1
370
     0
  0
HATCH
  5
C5
330
1F
100
AcDbEntity
  8
Ebene 1
 62
   179
420
  1709851
100
AcDbHatch
 10
0.0
 20
0.0
 30
0.0
210
0.0
220
0.0
230
1.0
  2
SOLID
 70
     1
 71
     0
 91
        1
 92
        1
 93
        3
 72
     1
 10
131.1168890731236
 20
-204.6565863203636
 11
119.1152099311587
 21
-204.0640298969007
 72
     1
 10
119.1152099311587
 20
-204.0640298969007
 11
119.1152099311587
 21
-204.6565863203636
 72
     1
 10
119.1152099311587
 20
-204.6565863203636
 11
131.1168890731236
 21
-204.6565863203636
 97
        0
 75
     2
 76
     1
 98
        0
  0
POLYLINE
  5
C6
330
1F
100
AcDbEntity
  8
Ebene 1
370
     0
100
AcDb2dPolyline
 66
     1
 10
0.0
 20
0.0
 30
0.0
  0
VERTEX
  5
C7
330
C6
100
AcDbEntity
  8
Ebene 1
370
     0
100
AcDbVertex
100
AcDb2dVertex
 10
119.1155544407072
 20
-204.0640298969007
 30
0.0
  0
VERTEX
  5
C8
330
C6
100
AcDbEntity
  8
Ebene 1
370
     0
100
AcDbVertex
100
AcDb2dVertex
 10
131.1172335826721
 20
-204.6572753394607
 30
0.0
  0
VERTEX
  5
C9
330
C6
100
AcDbEntity
  8
Ebene 1
370
     0
100
AcDbVertex
100
AcDb2dVertex
 10
124.8096082587282
 20
-204.0640298969007
 30
0.0
  0
VERTEX
  5
CA
330
C6
100
AcDbEntity
  8
Ebene 1
370
     0
100
AcDbVertex
100
AcDb2dVertex
 10
119.1155544407072
 20
-204.0640298969007
 30
0.0
  0
SEQEND
  5
CB
330
C6
100
AcDbEntity
  8
Ebene 1
370
     0
  0
HATCH
  5
CC
330
1F
100
AcDbEntity
  8
Ebene 1
 62
   179
420
  1709851
100
AcDbHatch
 10
0.0
 20
0.0
 30
0.0
210
0.0
220
0.0
230
1.0
  2
SOLID
 70
     1
 71
     0
 91
        1
 92
        1
 93
        3
 72
     1
 10
119.1155544407072
 20
-204.0640298969007
 11
131.1172335826721
 21
-204.6572753394607
 72
     1
 10
131.1172335826721
 20
-204.6572753394607
 11
124.8096082587282
 21
-204.0640298969007
 72
     1
 10
124.8096082587282
 20
-204.0640298969007
 11
119.1155544407072
 21
-204.0640298969007
 97
        0
 75
     2
 76
     1
 98
        0
  0
POLYLINE
  5
CD
330
1F
100
AcDbEntity
  8
Ebene 1
370
     0
100
AcDb2dPolyline
 66
     1
 10
0.0
 20
0.0
 30
0.0
  0
VERTEX
  5
CE
330
CD
100
AcDbEntity
  8
Ebene 1
370
     0
100
AcDbVertex
100
AcDb2dVertex
 10
124.8096082587282
 20
-204.0640298969007
 30
0.0
  0
VERTEX
  5
CF
330
CD
100
AcDbEntity
  8
Ebene 1
370
     0
100
AcDbVertex
100
AcDb2dVertex
 10
131.1168890731236
 20
-204.6572753394607
 30
0.0
  0
VERTEX
  5
D0
330
CD
100
AcDbEntity
  8
Ebene 1
370
     0
100
AcDbVertex
100
AcDb2dVertex
 10
125.4021646821911
 20
-204.0640298969007
 30
0.0
  0
VERTEX
  5
D1
330
CD
100
AcDbEntity
  8
Ebene 1
370
     0
100
AcDbVertex
100
AcDb2dVertex
 10
124.8096082587282
 20
-204.0640298969007
 30
0.0
  0
SEQEND
  5
D2
330
CD
100
AcDbEntity
  8
Ebene 1
370
     0
  0
HATCH
  5
D3
330
1F
100
AcDbEntity
  8
Ebene 1
 62
   179
420
  1709851
100
AcDbHatch
 10
0.0
 20
0.0
 30
0.0
210
0.0
220
0.0
230
1.0
  2
SOLID
 70
     1
 71
     0
 91
        1
 92
        1
 93
        3
 72
     1
 10
124.8096082587282
 20
-204.0640298969007
 11
131.1168890731236
 21
-204.6572753394607
 72
     1
 10
131.1168890731236
 20
-204.6572753394607
 11
125.4021646821911
 21
-204.0640298969007
 72
     1
 10
125.4021646821911
 20
-204.0640298969007
 11
124.8096082587282
 21
-204.0640298969007
 97
        0
 75
     2
 76
     1
 98
        0
  0
POLYLINE
  5
D4
330
1F
100
AcDbEntity
  8
Ebene 1
370
     0
100
AcDb2dPolyline
 66
     1
 10
0.0
 20
0.0
 30
0.0
  0
VERTEX
  5
D5
330
D4
100
AcDbEntity
  8
Ebene 1
370
     0
100
AcDbVertex
100
AcDb2dVertex
 10
124.8096082587282
 20
-204.0640298969007
 30
0.0
  0
VERTEX
  5
D6
330
D4
100
AcDbEntity
  8
Ebene 1
370
     0
100
AcDbVertex
100
AcDb2dVertex
 10
125.4021646821911
 20
-204.0640298969007
 30
0.0
  0
VERTEX
  5
D7
330
D4
100
AcDbEntity
  8
Ebene 1
370
     0
100
AcDbVertex
100
AcDb2dVertex
 10
124.8096082587282
 20
-194.6664984322362
 30
0.0
  0
VERTEX
  5
D8
330
D4
100
AcDbEntity
  8
Ebene 1
370
     0
100
AcDbVertex
100
AcDb2dVertex
 10
124.8096082587282
 20
-204.0640298969007
 30
0.0
  0
SEQEND
  5
D9
330
D4
100
AcDbEntity
  8
Ebene 1
370
     0
  0
HATCH
  5
DA
330
1F
100
AcDbEntity
  8
Ebene 1
 62
   179
420
  1709851
100
AcDbHatch
 10
0.0
 20
0.0
 30
0.0
210
0.0
220
0.0
230
1.0
  2
SOLID
 70
     1
 71
     0
 91
        1
 92
        1
 93
        3
 72
     1
 10
124.8096082587282
 20
-204.0640298969007
 11
125.4021646821911
 21
-204.0640298969007
 72
     1
 10
125.4021646821911
 20
-204.0640298969007
 11
124.8096082587282
 21
-194.6664984322362
 72
     1
 10
124.8096082587282
 20
-194.6664984322362
 11
124.8096082587282
 21
-204.0640298969007
 97
        0
 75
     2
 76
     1
 98
        0
  0
POLYLINE
  5
DB
330
1F
100
AcDbEntity
  8
Ebene 1
370
     0
100
AcDb2dPolyline
 66
     1
 10
0.0
 20
0.0
 30
0.0
  0
VERTEX
  5
DC
330
DB
100
AcDbEntity
  8
Ebene 1
370
     0
100
AcDbVertex
100
AcDb2dVertex
 10
125.4021646821911
 20
-204.0640298969007
 30
0.0
  0
VERTEX
  5
DD
330
DB
100
AcDbEntity
  8
Ebene 1
370
     0
100
AcDbVertex
100
AcDb2dVertex
 10
131.1168890731236
 20
-204.6572753394607
 30
0.0
  0
VERTEX
  5
DE
330
DB
100
AcDbEntity
  8
Ebene 1
370
     0
100
AcDbVertex
100
AcDb2dVertex
 10
131.1168890731236
 20
-204.0640298969007
 30
0.0
  0
VERTEX
  5
DF
330
DB
100
AcDbEntity
  8
Ebene 1
370
     0
100
AcDbVertex
100
AcDb2dVertex
 10
125.4021646821911
 20
-204.0640298969007
 30
0.0
  0
SEQEND
  5
E0
330
DB
100
AcDbEntity
  8
Ebene 1
370
     0
  0
HATCH
  5
E1
330
1F
100
AcDbEntity
  8
Ebene 1
 62
   179
420
  1709851
100
AcDbHatch
 10
0.0
 20
0.0
 30
0.0
210
0.0
220
0.0
230
1.0
  2
SOLID
 70
     1
 71
     0
 91
        1
 92
        1
 93
        3
 72
     1
 10
125.4021646821911
 20
-204.0640298969007
 11
131.1168890731236
 21
-204.6572753394607
 72
     1
 10
131.1168890731236
 20
-204.6572753394607
 11
131.1168890731236
 21
-204.0640298969007
 72
     1
 10
131.1168890731236
 20
-204.0640298969007
 11
125.4021646821911
 21
-204.0640298969007
 97
        0
 75
     2
 76
     1
 98
        0
  0
POLYLINE
  5
E2
330
1F
100
AcDbEntity
  8
Ebene 1
370
     0
100
AcDb2dPolyline
 66
     1
 10
0.0
 20
0.0
 30
0.0
  0
VERTEX
  5
E3
330
E2
100
AcDbEntity
  8
Ebene 1
370
     0
100
AcDbVertex
100
AcDb2dVertex
 10
125.4021646821911
 20
-194.6664984322362
 30
0.0
  0
VERTEX
  5
E4
330
E2
100
AcDbEntity
  8
Ebene 1
370
     0
100
AcDbVertex
100
AcDb2dVertex
 10
124.8096082587282
 20
-194.6664984322362
 30
0.0
  0
VERTEX
  5
E5
330
E2
100
AcDbEntity
  8
Ebene 1
370
     0
100
AcDbVertex
100
AcDb2dVertex
 10
125.4021646821911
 20
-204.0647189159977
 30
0.0
  0
VERTEX
  5
E6
330
E2
100
AcDbEntity
  8
Ebene 1
370
     0
100
AcDbVertex
100
AcDb2dVertex
 10
125.4021646821911
 20
-194.6664984322362
 30
0.0
  0
SEQEND
  5
E7
330
E2
100
AcDbEntity
  8
Ebene 1
370
     0
  0
HATCH
  5
E8
330
1F
100
AcDbEntity
  8
Ebene 1
 62
   179
420
  1709851
100
AcDbHatch
 10
0.0
 20
0.0
 30
0.0
210
0.0
220
0.0
230
1.0
  2
SOLID
 70
     1
 71
     0
 91
        1
 92
        1
 93
        3
 72
     1
 10
125.4021646821911
 20
-194.6664984322362
 11
124.8096082587282
 21
-194.6664984322362
 72
     1
 10
124.8096082587282
 20
-194.6664984322362
 11
125.4021646821911
 21
-204.0647189159977
 72
     1
 10
125.4021646821911
 20
-204.0647189159977
 11
125.4021646821911
 21
-194.6664984322362
 97
        0
 75
     2
 76
     1
 98
        0
  0
POLYLINE
  5
E9
330
1F
100
AcDbEntity
  8
Ebene 1
370
     0
100
AcDb2dPolyline
 66
     1
 10
0.0
 20
0.0
 30
0.0
  0
VERTEX
  5
EA
330
E9
100
AcDbEntity
  8
Ebene 1
370
     0
100
AcDbVertex
100
AcDb2dVertex
 10
168.7090819890727
 20
-155.0630587719981
 30
0.0
  0
VERTEX
  5
EB
330
E9
100
AcDbEntity
  8
Ebene 1
370
     0
100
AcDbVertex
100
AcDb2dVertex
 10
168.0951659736012
 20
-160.7578016091161
 30
0.0
  0
VERTEX
  5
EC
330
E9
100
AcDbEntity
  8
Ebene 1
370
     0
100
AcDbVertex
100
AcDb2dVertex
 10
168.0951659736012
 20
-155.0630587719981
 30
0.0
  0
VERTEX
  5
ED
330
E9
100
AcDbEntity
  8
Ebene 1
370
     0
100
AcDbVertex
100
AcDb2dVertex
 10
168.7090819890727
 20
-155.0630587719981
 30
0.0
  0
SEQEND
  5
EE
330
E9
100
AcDbEntity
  8
Ebene 1
370
     0
  0
HATCH
  5
EF
330
1F
100
AcDbEntity
  8
Ebene 1
 62
   179
420
  1709851
100
AcDbHatch
 10
0.0
 20
0.0
 30
0.0
210
0.0
220
0.0
230
1.0
  2
SOLID
 70
     1
 71
     0
 91
        1
 92
        1
 93
        3
 72
     1
 10
168.7090819890727
 20
-155.0630587719981
 11
168.0951659736012
 21
-160.7578016091161
 72
     1
 10
168.0951659736012
 20
-160.7578016091161
 11
168.0951659736012
 21
-155.0630587719981
 72
     1
 10
168.0951659736012
 20
-155.0630587719981
 11
168.7090819890727
 21
-155.0630587719981
 97
        0
 75
     2
 76
     1
 98
        0
  0
POLYLINE
  5
F0
330
1F
100
AcDbEntity
  8
Ebene 1
370
     0
100
AcDb2dPolyline
 66
     1
 10
0.0
 20
0.0
 30
0.0
  0
VERTEX
  5
F1
330
F0
100
AcDbEntity
  8
Ebene 1
370
     0
100
AcDbVertex
100
AcDb2dVertex
 10
168.0951659736012
 20
-160.7571125900191
 30
0.0
  0
VERTEX
  5
F2
330
F0
100
AcDbEntity
  8
Ebene 1
370
     0
100
AcDbVertex
100
AcDb2dVertex
 10
168.7087374795242
 20
-155.0630587719981
 30
0.0
  0
VERTEX
  5
F3
330
F0
100
AcDbEntity
  8
Ebene 1
370
     0
100
AcDbVertex
100
AcDb2dVertex
 10
168.0951659736012
 20
-161.3710286054906
 30
0.0
  0
VERTEX
  5
F4
330
F0
100
AcDbEntity
  8
Ebene 1
370
     0
100
AcDbVertex
100
AcDb2dVertex
 10
168.0951659736012
 20
-160.7571125900191
 30
0.0
  0
SEQEND
  5
F5
330
F0
100
AcDbEntity
  8
Ebene 1
370
     0
  0
HATCH
  5
F6
330
1F
100
AcDbEntity
  8
Ebene 1
 62
   179
420
  1709851
100
AcDbHatch
 10
0.0
 20
0.0
 30
0.0
210
0.0
220
0.0
230
1.0
  2
SOLID
 70
     1
 71
     0
 91
        1
 92
        1
 93
        3
 72
     1
 10
168.0951659736012
 20
-160.7571125900191
 11
168.7087374795242
 21
-155.0630587719981
 72
     1
 10
168.7087374795242
 20
-155.0630587719981
 11
168.0951659736012
 21
-161.3710286054906
 72
     1
 10
168.0951659736012
 20
-161.3710286054906
 11
168.0951659736012
 21
-160.7571125900191
 97
        0
 75
     2
 76
     1
 98
        0
  0
POLYLINE
  5
F7
330
1F
100
AcDbEntity
  8
Ebene 1
370
     0
100
AcDb2dPolyline
 66
     1
 10
0.0
 20
0.0
 30
0.0
  0
VERTEX
  5
F8
330
F7
100
AcDbEntity
  8
Ebene 1
370
     0
100
AcDbVertex
100
AcDb2dVertex
 10
168.0951659736012
 20
-161.3710286054906
 30
0.0
  0
VERTEX
  5
F9
330
F7
100
AcDbEntity
  8
Ebene 1
370
     0
100
AcDbVertex
100
AcDb2dVertex
 10
168.7087374795242
 20
-155.0630587719981
 30
0.0
  0
VERTEX
  5
FA
330
F7
100
AcDbEntity
  8
Ebene 1
370
     0
100
AcDbVertex
100
AcDb2dVertex
 10
168.0951659736012
 20
-167.0650824235115
 30
0.0
  0
VERTEX
  5
FB
330
F7
100
AcDbEntity
  8
Ebene 1
370
     0
100
AcDbVertex
100
AcDb2dVertex
 10
168.0951659736012
 20
-161.3710286054906
 30
0.0
  0
SEQEND
  5
FC
330
F7
100
AcDbEntity
  8
Ebene 1
370
     0
  0
HATCH
  5
FD
330
1F
100
AcDbEntity
  8
Ebene 1
 62
   179
420
  1709851
100
AcDbHatch
 10
0.0
 20
0.0
 30
0.0
210
0.0
220
0.0
230
1.0
  2
SOLID
 70
     1
 71
     0
 91
        1
 92
        1
 93
        3
 72
     1
 10
168.0951659736012
 20
-161.3710286054906
 11
168.7087374795242
 21
-155.0630587719981
 72
     1
 10
168.7087374795242
 20
-155.0630587719981
 11
168.0951659736012
 21
-167.0650824235115
 72
     1
 10
168.0951659736012
 20
-167.0650824235115
 11
168.0951659736012
 21
-161.3710286054906
 97
        0
 75
     2
 76
     1
 98
        0
  0
POLYLINE
  5
FE
330
1F
100
AcDbEntity
  8
Ebene 1
370
     0
100
AcDb2dPolyline
 66
     1
 10
0.0
 20
0.0
 30
0.0
  0
VERTEX
  5
FF
330
FE
100
AcDbEntity
  8
Ebene 1
370
     0
100
AcDbVertex
100
AcDb2dVertex
 10
168.0951659736012
 20
-167.0650824235115
 30
0.0
  0
VERTEX
  5
100
330
FE
100
AcDbEntity
  8
Ebene 1
370
     0
100
AcDbVertex
100
AcDb2dVertex
 10
168.7087374795242
 20
-155.0630587719981
 30
0.0
  0
VERTEX
  5
101
330
FE
100
AcDbEntity
  8
Ebene 1
370
     0
100
AcDbVertex
100
AcDb2dVertex
 10
168.7087374795242
 20
-167.0650824235115
 30
0.0
  0
VERTEX
  5
102
330
FE
100
AcDbEntity
  8
Ebene 1
370
     0
100
AcDbVertex
100
AcDb2dVertex
 10
168.0951659736012
 20
-167.0650824235115
 30
0.0
  0
SEQEND
  5
103
330
FE
100
AcDbEntity
  8
Ebene 1
370
     0
  0
HATCH
  5
104
330
1F
100
AcDbEntity
  8
Ebene 1
 62
   179
420
  1709851
100
AcDbHatch
 10
0.0
 20
0.0
 30
0.0
210
0.0
220
0.0
230
1.0
  2
SOLID
 70
     1
 71
     0
 91
        1
 92
        1
 93
        3
 72
     1
 10
168.0951659736012
 20
-167.0650824235115
 11
168.7087374795242
 21
-155.0630587719981
 72
     1
 10
168.7087374795242
 20
-155.0630587719981
 11
168.7087374795242
 21
-167.0650824235115
 72
     1
 10
168.7087374795242
 20
-167.0650824235115
 11
168.0951659736012
 21
-167.0650824235115
 97
        0
 75
     2
 76
     1
 98
        0
  0
POLYLINE
  5
105
330
1F
100
AcDbEntity
  8
Ebene 1
370
     0
100
AcDb2dPolyline
 66
     1
 10
0.0
 20
0.0
 30
0.0
  0
VERTEX
  5
106
330
105
100
AcDbEntity
  8
Ebene 1
370
     0
100
AcDbVertex
100
AcDb2dVertex
 10
168.0951659736012
 20
-160.7571125900191
 30
0.0
  0
VERTEX
  5
107
330
105
100
AcDbEntity
  8
Ebene 1
370
     0
100
AcDbVertex
100
AcDb2dVertex
 10
158.6969454898397
 20
-161.3710286054906
 30
0.0
  0
VERTEX
  5
108
330
105
100
AcDbEntity
  8
Ebene 1
370
     0
100
AcDbVertex
100
AcDb2dVertex
 10
158.6969454898397
 20
-160.7571125900191
 30
0.0
  0
VERTEX
  5
109
330
105
100
AcDbEntity
  8
Ebene 1
370
     0
100
AcDbVertex
100
AcDb2dVertex
 10
168.0951659736012
 20
-160.7571125900191
 30
0.0
  0
SEQEND
  5
10A
330
105
100
AcDbEntity
  8
Ebene 1
370
     0
  0
HATCH
  5
10B
330
1F
100
AcDbEntity
  8
Ebene 1
 62
   179
420
  1709851
100
AcDbHatch
 10
0.0
 20
0.0
 30
0.0
210
0.0
220
0.0
230
1.0
  2
SOLID
 70
     1
 71
     0
 91
        1
 92
        1
 93
        3
 72
     1
 10
168.0951659736012
 20
-160.7571125900191
 11
158.6969454898397
 21
-161.3710286054906
 72
     1
 10
158.6969454898397
 20
-161.3710286054906
 11
158.6969454898397
 21
-160.7571125900191
 72
     1
 10
158.6969454898397
 20
-160.7571125900191
 11
168.0951659736012
 21
-160.7571125900191
 97
        0
 75
     2
 76
     1
 98
        0
  0
POLYLINE
  5
10C
330
1F
100
AcDbEntity
  8
Ebene 1
370
     0
100
AcDb2dPolyline
 66
     1
 10
0.0
 20
0.0
 30
0.0
  0
VERTEX
  5
10D
330
10C
100
AcDbEntity
  8
Ebene 1
370
     0
100
AcDbVertex
100
AcDb2dVertex
 10
158.6972899993882
 20
-161.3710286054906
 30
0.0
  0
VERTEX
  5
10E
330
10C
100
AcDbEntity
  8
Ebene 1
370
     0
100
AcDbVertex
100
AcDb2dVertex
 10
168.0951659736012
 20
-160.7578016091161
 30
0.0
  0
VERTEX
  5
10F
330
10C
100
AcDbEntity
  8
Ebene 1
370
     0
100
AcDbVertex
100
AcDb2dVertex
 10
168.0951659736012
 20
-161.3710286054906
 30
0.0
  0
VERTEX
  5
110
330
10C
100
AcDbEntity
  8
Ebene 1
370
     0
100
AcDbVertex
100
AcDb2dVertex
 10
158.6972899993882
 20
-161.3710286054906
 30
0.0
  0
SEQEND
  5
111
330
10C
100
AcDbEntity
  8
Ebene 1
370
     0
  0
HATCH
  5
112
330
1F
100
AcDbEntity
  8
Ebene 1
 62
   179
420
  1709851
100
AcDbHatch
 10
0.0
 20
0.0
 30
0.0
210
0.0
220
0.0
230
1.0
  2
SOLID
 70
     1
 71
     0
 91
        1
 92
        1
 93
        3
 72
     1
 10
158.6972899993882
 20
-161.3710286054906
 11
168.0951659736012
 21
-160.7578016091161
 72
     1
 10
168.0951659736012
 20
-160.7578016091161
 11
168.0951659736012
 21
-161.3710286054906
 72
     1
 10
168.0951659736012
 20
-161.3710286054906
 11
158.6972899993882
 21
-161.3710286054906
 97
        0
 75
     2
 76
     1
 98
        0
  0
POLYLINE
  5
113
330
1F
100
AcDbEntity
  8
Ebene 1
370
     0
100
AcDb2dPolyline
 66
     1
 10
0.0
 20
0.0
 30
0.0
  0
VERTEX
  5
114
330
113
100
AcDbEntity
  8
Ebene 1
370
     0
100
AcDbVertex
100
AcDb2dVertex
 10
175.3129855247481
 20
-209.6519747739759
 30
0.0
  0
VERTEX
  5
115
330
113
100
AcDbEntity
  8
Ebene 1
370
     0
100
AcDbVertex
100
AcDb2dVertex
 10
177.4082925988771
 20
-91.26695283091591
 30
0.0
  0
VERTEX
  5
116
330
113
100
AcDbEntity
  8
Ebene 1
370
     0
100
AcDbVertex
100
AcDb2dVertex
 10
175.3129855247481
 20
-91.26695283091591
 30
0.0
  0
VERTEX
  5
117
330
113
100
AcDbEntity
  8
Ebene 1
370
     0
100
AcDbVertex
100
AcDb2dVertex
 10
175.3129855247481
 20
-209.6519747739759
 30
0.0
  0
SEQEND
  5
118
330
113
100
AcDbEntity
  8
Ebene 1
370
     0
  0
HATCH
  5
119
330
1F
100
AcDbEntity
  8
Ebene 1
 62
   254
420
 14803683
100
AcDbHatch
 10
0.0
 20
0.0
 30
0.0
210
0.0
220
0.0
230
1.0
  2
SOLID
 70
     1
 71
     0
 91
        1
 92
        1
 93
        3
 72
     1
 10
175.3129855247481
 20
-209.6519747739759
 11
177.4082925988771
 21
-91.26695283091591
 72
     1
 10
177.4082925988771
 20
-91.26695283091591
 11
175.3129855247481
 21
-91.26695283091591
 72
     1
 10
175.3129855247481
 20
-91.26695283091591
 11
175.3129855247481
 21
-209.6519747739759
 97
        0
 75
     2
 76
     1
 98
        0
  0
POLYLINE
  5
11A
330
1F
100
AcDbEntity
  8
Ebene 1
370
     0
100
AcDb2dPolyline
 66
     1
 10
0.0
 20
0.0
 30
0.0
  0
VERTEX
  5
11B
330
11A
100
AcDbEntity
  8
Ebene 1
370
     0
100
AcDbVertex
100
AcDb2dVertex
 10
177.4086371084256
 20
-91.26729734046442
 30
0.0
  0
VERTEX
  5
11C
330
11A
100
AcDbEntity
  8
Ebene 1
370
     0
100
AcDbVertex
100
AcDb2dVertex
 10
175.3129855247481
 20
-209.6526637930729
 30
0.0
  0
VERTEX
  5
11D
330
11A
100
AcDbEntity
  8
Ebene 1
370
     0
100
AcDbVertex
100
AcDb2dVertex
 10
177.4086371084256
 20
-209.6526637930729
 30
0.0
  0
VERTEX
  5
11E
330
11A
100
AcDbEntity
  8
Ebene 1
370
     0
100
AcDbVertex
100
AcDb2dVertex
 10
177.4086371084256
 20
-91.26729734046442
 30
0.0
  0
SEQEND
  5
11F
330
11A
100
AcDbEntity
  8
Ebene 1
370
     0
  0
HATCH
  5
120
330
1F
100
AcDbEntity
  8
Ebene 1
 62
   254
420
 14803683
100
AcDbHatch
 10
0.0
 20
0.0
 30
0.0
210
0.0
220
0.0
230
1.0
  2
SOLID
 70
     1
 71
     0
 91
        1
 92
        1
 93
        3
 72
     1
 10
177.4086371084256
 20
-91.26729734046442
 11
175.3129855247481
 21
-209.6526637930729
 72
     1
 10
175.3129855247481
 20
-209.6526637930729
 11
177.4086371084256
 21
-209.6526637930729
 72
     1
 10
177.4086371084256
 20
-209.6526637930729
 11
177.4086371084256
 21
-91.26729734046442
 97
        0
 75
     2
 76
     1
 98
        0
  0
POLYLINE
  5
121
330
1F
100
AcDbEntity
  8
Ebene 1
370
     0
100
AcDb2dPolyline
 66
     1
 10
0.0
 20
0.0
 30
0.0
  0
VERTEX
  5
122
330
121
100
AcDbEntity
  8
Ebene 1
370
     0
100
AcDbVertex
100
AcDb2dVertex
 10
177.4086371084256
 20
-213.3561414397165
 30
0.0
  0
VERTEX
  5
123
330
121
100
AcDbEntity
  8
Ebene 1
370
     0
100
AcDbVertex
100
AcDb2dVertex
 10
59.0232706558171
 20
-211.2615233846846
 30
0.0
  0
VERTEX
  5
124
330
121
100
AcDbEntity
  8
Ebene 1
370
     0
100
AcDbVertex
100
AcDb2dVertex
 10
59.0232706558171
 20
-213.3561414397165
 30
0.0
  0
VERTEX
  5
125
330
121
100
AcDbEntity
  8
Ebene 1
370
     0
100
AcDbVertex
100
AcDb2dVertex
 10
177.4086371084256
 20
-213.3561414397165
 30
0.0
  0
SEQEND
  5
126
330
121
100
AcDbEntity
  8
Ebene 1
370
     0
  0
HATCH
  5
127
330
1F
100
AcDbEntity
  8
Ebene 1
 62
   254
420
 14803683
100
AcDbHatch
 10
0.0
 20
0.0
 30
0.0
210
0.0
220
0.0
230
1.0
  2
SOLID
 70
     1
 71
     0
 91
        1
 92
        1
 93
        3
 72
     1
 10
177.4086371084256
 20
-213.3561414397165
 11
59.0232706558171
 21
-211.2615233846846
 72
     1
 10
59.0232706558171
 20
-211.2615233846846
 11
59.0232706558171
 21
-213.3561414397165
 72
     1
 10
59.0232706558171
 20
-213.3561414397165
 11
177.4086371084256
 21
-213.3561414397165
 97
        0
 75
     2
 76
     1
 98
        0
  0
POLYLINE
  5
128
330
1F
100
AcDbEntity
  8
Ebene 1
370
     0
100
AcDb2dPolyline
 66
     1
 10
0.0
 20
0.0
 30
0.0
  0
VERTEX
  5
129
330
128
100
AcDbEntity
  8
Ebene 1
370
     0
100
AcDbVertex
100
AcDb2dVertex
 10
59.0232706558171
 20
-211.2608343655876
 30
0.0
  0
VERTEX
  5
12A
330
128
100
AcDbEntity
  8
Ebene 1
370
     0
100
AcDbVertex
100
AcDb2dVertex
 10
177.4082925988771
 20
-213.3561414397165
 30
0.0
  0
VERTEX
  5
12B
330
128
100
AcDbEntity
  8
Ebene 1
370
     0
100
AcDbVertex
100
AcDb2dVertex
 10
177.4082925988771
 20
-211.2608343655876
 30
0.0
  0
VERTEX
  5
12C
330
128
100
AcDbEntity
  8
Ebene 1
370
     0
100
AcDbVertex
100
AcDb2dVertex
 10
59.0232706558171
 20
-211.2608343655876
 30
0.0
  0
SEQEND
  5
12D
330
128
100
AcDbEntity
  8
Ebene 1
370
     0
  0
HATCH
  5
12E
330
1F
100
AcDbEntity
  8
Ebene 1
 62
   254
420
 14803683
100
AcDbHatch
 10
0.0
 20
0.0
 30
0.0
210
0.0
220
0.0
230
1.0
  2
SOLID
 70
     1
 71
     0
 91
        1
 92
        1
 93
        3
 72
     1
 10
59.0232706558171
 20
-211.2608343655876
 11
177.4082925988771
 21
-213.3561414397165
 72
     1
 10
177.4082925988771
 20
-213.3561414397165
 11
177.4082925988771
 21
-211.2608343655876
 72
     1
 10
177.4082925988771
 20
-211.2608343655876
 11
59.0232706558171
 21
-211.2608343655876
 97
        0
 75
     2
 76
     1
 98
        0
  0
POLYLINE
  5
12F
330
1F
100
AcDbEntity
  8
Ebene 1
370
     0
100
AcDb2dPolyline
 66
     1
 10
0.0
 20
0.0
 30
0.0
  0
VERTEX
  5
130
330
12F
100
AcDbEntity
  8
Ebene 1
370
     0
100
AcDbVertex
100
AcDb2dVertex
 10
41.51856824048841
 20
-213.3568304588136
 30
0.0
  0
VERTEX
  5
131
330
12F
100
AcDbEntity
  8
Ebene 1
370
     0
100
AcDbVertex
100
AcDb2dVertex
 10
57.41441106420542
 20
-213.3568304588136
 30
0.0
  0
VERTEX
  5
132
330
12F
100
AcDbEntity
  8
Ebene 1
370
     0
100
AcDbVertex
100
AcDb2dVertex
 10
41.51856824048841
 20
-211.2608343655876
 30
0.0
  0
VERTEX
  5
133
330
12F
100
AcDbEntity
  8
Ebene 1
370
     0
100
AcDbVertex
100
AcDb2dVertex
 10
41.51856824048841
 20
-213.3568304588136
 30
0.0
  0
SEQEND
  5
134
330
12F
100
AcDbEntity
  8
Ebene 1
370
     0
  0
HATCH
  5
135
330
1F
100
AcDbEntity
  8
Ebene 1
 62
   254
420
 14803683
100
AcDbHatch
 10
0.0
 20
0.0
 30
0.0
210
0.0
220
0.0
230
1.0
  2
SOLID
 70
     1
 71
     0
 91
        1
 92
        1
 93
        3
 72
     1
 10
41.51856824048841
 20
-213.3568304588136
 11
57.41441106420542
 21
-213.3568304588136
 72
     1
 10
57.41441106420542
 20
-213.3568304588136
 11
41.51856824048841
 21
-211.2608343655876
 72
     1
 10
41.51856824048841
 20
-211.2608343655876
 11
41.51856824048841
 21
-213.3568304588136
 97
        0
 75
     2
 76
     1
 98
        0
  0
POLYLINE
  5
136
330
1F
100
AcDbEntity
  8
Ebene 1
370
     0
100
AcDb2dPolyline
 66
     1
 10
0.0
 20
0.0
 30
0.0
  0
VERTEX
  5
137
330
136
100
AcDbEntity
  8
Ebene 1
370
     0
100
AcDbVertex
100
AcDb2dVertex
 10
41.51856824048841
 20
-211.2608343655876
 30
0.0
  0
VERTEX
  5
138
330
136
100
AcDbEntity
  8
Ebene 1
370
     0
100
AcDbVertex
100
AcDb2dVertex
 10
57.41441106420542
 20
-213.3568304588136
 30
0.0
  0
VERTEX
  5
139
330
136
100
AcDbEntity
  8
Ebene 1
370
     0
100
AcDbVertex
100
AcDb2dVertex
 10
57.41441106420542
 20
-211.2608343655876
 30
0.0
  0
VERTEX
  5
13A
330
136
100
AcDbEntity
  8
Ebene 1
370
     0
100
AcDbVertex
100
AcDb2dVertex
 10
41.51856824048841
 20
-211.2608343655876
 30
0.0
  0
SEQEND
  5
13B
330
136
100
AcDbEntity
  8
Ebene 1
370
     0
  0
HATCH
  5
13C
330
1F
100
AcDbEntity
  8
Ebene 1
 62
   254
420
 14803683
100
AcDbHatch
 10
0.0
 20
0.0
 30
0.0
210
0.0
220
0.0
230
1.0
  2
SOLID
 70
     1
 71
     0
 91
        1
 92
        1
 93
        3
 72
     1
 10
41.51856824048841
 20
-211.2608343655876
 11
57.41441106420542
 21
-213.3568304588136
 72
     1
 10
57.41441106420542
 20
-213.3568304588136
 11
57.41441106420542
 21
-211.2608343655876
 72
     1
 10
57.41441106420542
 20
-211.2608343655876
 11
41.51856824048841
 21
-211.2608343655876
 97
        0
 75
     2
 76
     1
 98
        0
  0
POLYLINE
  5
13D
330
1F
100
AcDbEntity
  8
Ebene 1
370
     0
100
AcDb2dPolyline
 66
     1
 10
0.0
 20
0.0
 30
0.0
  0
VERTEX
  5
13E
330
13D
100
AcDbEntity
  8
Ebene 1
370
     0
100
AcDbVertex
100
AcDb2dVertex
 10
177.4086371084256
 20
-89.6797973408613
 30
0.0
  0
VERTEX
  5
13F
330
13D
100
AcDbEntity
  8
Ebene 1
370
     0
100
AcDbVertex
100
AcDb2dVertex
 10
175.3129855247481
 20
-81.46703421357422
 30
0.0
  0
VERTEX
  5
140
330
13D
100
AcDbEntity
  8
Ebene 1
370
     0
100
AcDbVertex
100
AcDb2dVertex
 10
175.3129855247481
 20
-89.6797973408613
 30
0.0
  0
VERTEX
  5
141
330
13D
100
AcDbEntity
  8
Ebene 1
370
     0
100
AcDbVertex
100
AcDb2dVertex
 10
177.4086371084256
 20
-89.6797973408613
 30
0.0
  0
SEQEND
  5
142
330
13D
100
AcDbEntity
  8
Ebene 1
370
     0
  0
HATCH
  5
143
330
1F
100
AcDbEntity
  8
Ebene 1
 62
   254
420
 14803683
100
AcDbHatch
 10
0.0
 20
0.0
 30
0.0
210
0.0
220
0.0
230
1.0
  2
SOLID
 70
     1
 71
     0
 91
        1
 92
        1
 93
        3
 72
     1
 10
177.4086371084256
 20
-89.6797973408613
 11
175.3129855247481
 21
-81.46703421357422
 72
     1
 10
175.3129855247481
 20
-81.46703421357422
 11
175.3129855247481
 21
-89.6797973408613
 72
     1
 10
175.3129855247481
 20
-89.6797973408613
 11
177.4086371084256
 21
-89.6797973408613
 97
        0
 75
     2
 76
     1
 98
        0
  0
POLYLINE
  5
144
330
1F
100
AcDbEntity
  8
Ebene 1
370
     0
100
AcDb2dPolyline
 66
     1
 10
0.0
 20
0.0
 30
0.0
  0
VERTEX
  5
145
330
144
100
AcDbEntity
  8
Ebene 1
370
     0
100
AcDbVertex
100
AcDb2dVertex
 10
175.3129855247481
 20
-81.46703421357422
 30
0.0
  0
VERTEX
  5
146
330
144
100
AcDbEntity
  8
Ebene 1
370
     0
100
AcDbVertex
100
AcDb2dVertex
 10
177.4082925988771
 20
-89.6797973408613
 30
0.0
  0
VERTEX
  5
147
330
144
100
AcDbEntity
  8
Ebene 1
370
     0
100
AcDbVertex
100
AcDb2dVertex
 10
177.4082925988771
 20
-81.46703421357422
 30
0.0
  0
VERTEX
  5
148
330
144
100
AcDbEntity
  8
Ebene 1
370
     0
100
AcDbVertex
100
AcDb2dVertex
 10
175.3129855247481
 20
-81.46703421357422
 30
0.0
  0
SEQEND
  5
149
330
144
100
AcDbEntity
  8
Ebene 1
370
     0
  0
HATCH
  5
14A
330
1F
100
AcDbEntity
  8
Ebene 1
 62
   254
420
 14803683
100
AcDbHatch
 10
0.0
 20
0.0
 30
0.0
210
0.0
220
0.0
230
1.0
  2
SOLID
 70
     1
 71
     0
 91
        1
 92
        1
 93
        3
 72
     1
 10
175.3129855247481
 20
-81.46703421357422
 11
177.4082925988771
 21
-89.6797973408613
 72
     1
 10
177.4082925988771
 20
-89.6797973408613
 11
177.4082925988771
 21
-81.46703421357422
 72
     1
 10
177.4082925988771
 20
-81.46703421357422
 11
175.3129855247481
 21
-81.46703421357422
 97
        0
 75
     2
 76
     1
 98
        0
  0
INSERT
  5
14C
330
1F
100
AcDbEntity
  8
Ebene 1
100
AcDbBlockReference
  2
block 3
 10
0.0
 20
0.0
 30
0.0
  0
POLYLINE
  5
166
330
1F
100
AcDbEntity
  8
Ebene 1
 62
   179
420
  1709851
370
    35
100
AcDb2dPolyline
 66
     1
 10
0.0
 20
0.0
 30
0.0
  0
VERTEX
  5
167
330
166
100
AcDbEntity
  8
Ebene 1
 62
   179
420
  1709851
370
    35
100
AcDbVertex
100
AcDb2dVertex
 10
121.5071397265677
 20
-162.1330837268278
 30
0.0
  0
VERTEX
  5
168
330
166
100
AcDbEntity
  8
Ebene 1
 62
   179
420
  1709851
370
    35
100
AcDbVertex
100
AcDb2dVertex
 10
121.5071397265677
 20
-161.4557779544277
 30
0.0
  0
SEQEND
  5
169
330
166
100
AcDbEntity
  8
Ebene 1
370
    35
  0
POLYLINE
  5
16A
330
1F
100
AcDbEntity
  8
Ebene 1
 62
   179
420
  1709851
370
    35
100
AcDb2dPolyline
 66
     1
 10
0.0
 20
0.0
 30
0.0
  0
VERTEX
  5
16B
330
16A
100
AcDbEntity
  8
Ebene 1
 62
   179
420
  1709851
370
    35
100
AcDbVertex
100
AcDb2dVertex
 10
121.5071397265677
 20
-170.1339734817721
 30
0.0
  0
VERTEX
  5
16C
330
16A
100
AcDbEntity
  8
Ebene 1
 62
   179
420
  1709851
370
    35
100
AcDbVertex
100
AcDb2dVertex
 10
121.5071397265677
 20
-163.128027302968
 30
0.0
  0
SEQEND
  5
16D
330
16A
100
AcDbEntity
  8
Ebene 1
370
    35
  0
POLYLINE
  5
16E
330
1F
100
AcDbEntity
  8
Ebene 1
 62
   179
420
  1709851
370
    35
100
AcDb2dPolyline
 66
     1
 10
0.0
 20
0.0
 30
0.0
  0
VERTEX
  5
16F
330
16E
100
AcDbEntity
  8
Ebene 1
 62
   179
420
  1709851
370
    35
100
AcDbVertex
100
AcDb2dVertex
 10
121.5071397265677
 20
-172.1238606340524
 30
0.0
  0
VERTEX
  5
170
330
16E
100
AcDbEntity
  8
Ebene 1
 62
   179
420
  1709851
370
    35
100
AcDbVertex
100
AcDb2dVertex
 10
121.5071397265677
 20
-171.1289170579122
 30
0.0
  0
SEQEND
  5
171
330
16E
100
AcDbEntity
  8
Ebene 1
370
    35
  0
POLYLINE
  5
172
330
1F
100
AcDbEntity
  8
Ebene 1
 62
   179
420
  1709851
370
    35
100
AcDb2dPolyline
 66
     1
 10
0.0
 20
0.0
 30
0.0
  0
VERTEX
  5
173
330
172
100
AcDbEntity
  8
Ebene 1
 62
   179
420
  1709851
370
    35
100
AcDbVertex
100
AcDb2dVertex
 10
121.5071397265677
 20
-180.1247503889966
 30
0.0
  0
VERTEX
  5
174
330
172
100
AcDbEntity
  8
Ebene 1
 62
   179
420
  1709851
370
    35
100
AcDbVertex
100
AcDb2dVertex
 10
121.5071397265677
 20
-173.1188042101925
 30
0.0
  0
SEQEND
  5
175
330
172
100
AcDbEntity
  8
Ebene 1
370
    35
  0
POLYLINE
  5
176
330
1F
100
AcDbEntity
  8
Ebene 1
 62
   179
420
  1709851
370
    35
100
AcDb2dPolyline
 66
     1
 10
0.0
 20
0.0
 30
0.0
  0
VERTEX
  5
177
330
176
100
AcDbEntity
  8
Ebene 1
 62
   179
420
  1709851
370
    35
100
AcDbVertex
100
AcDb2dVertex
 10
121.5071397265677
 20
-182.1146375412769
 30
0.0
  0
VERTEX
  5
178
330
176
100
AcDbEntity
  8
Ebene 1
 62
   179
420
  1709851
370
    35
100
AcDbVertex
100
AcDb2dVertex
 10
121.5071397265677
 20
-181.1196939651367
 30
0.0
  0
SEQEND
  5
179
330
176
100
AcDbEntity
  8
Ebene 1
370
    35
  0
POLYLINE
  5
17A
330
1F
100
AcDbEntity
  8
Ebene 1
 62
   179
420
  1709851
370
    35
100
AcDb2dPolyline
 66
     1
 10
0.0
 20
0.0
 30
0.0
  0
VERTEX
  5
17B
330
17A
100
AcDbEntity
  8
Ebene 1
 62
   179
420
  1709851
370
    35
100
AcDbVertex
100
AcDb2dVertex
 10
121.5071397265677
 20
-185.0567490856803
 30
0.0
  0
VERTEX
  5
17C
330
17A
100
AcDbEntity
  8
Ebene 1
 62
   179
420
  1709851
370
    35
100
AcDbVertex
100
AcDb2dVertex
 10
121.5071397265677
 20
-183.1302516903285
 30
0.0
  0
SEQEND
  5
17D
330
17A
100
AcDbEntity
  8
Ebene 1
370
    35
  0
POLYLINE
  5
17E
330
1F
100
AcDbEntity
  8
Ebene 1
 62
   179
420
  1709851
370
    18
100
AcDb2dPolyline
 66
     1
 10
0.0
 20
0.0
 30
0.0
  0
VERTEX
  5
17F
330
17E
100
AcDbEntity
  8
Ebene 1
 62
   179
420
  1709851
370
    18
100
AcDbVertex
100
AcDb2dVertex
 10
127.0103352547058
 20
-198.4547254278169
 30
0.0
  0
VERTEX
  5
180
330
17E
100
AcDbEntity
  8
Ebene 1
 62
   179
420
  1709851
370
    18
100
AcDbVertex
100
AcDb2dVertex
 10
123.814664682588
 20
-198.4547254278169
 30
0.0
  0
SEQEND
  5
181
330
17E
100
AcDbEntity
  8
Ebene 1
370
    18
  0
POLYLINE
  5
182
330
1F
100
AcDbEntity
  8
Ebene 1
 62
   179
420
  1709851
370
    18
100
AcDb2dPolyline
 66
     1
 10
0.0
 20
0.0
 30
0.0
  0
VERTEX
  5
183
330
182
100
AcDbEntity
  8
Ebene 1
 62
   179
420
  1709851
370
    18
100
AcDbVertex
100
AcDb2dVertex
 10
125.4021646821911
 20
-204.0647189159977
 30
0.0
  0
VERTEX
  5
184
330
182
100
AcDbEntity
  8
Ebene 1
 62
   179
420
  1709851
370
    18
100
AcDbVertex
100
AcDb2dVertex
 10
125.4021646821911
 20
-200.4659721721058
 30
0.0
  0
VERTEX
  5
185
330
182
100
AcDbEntity
  8
Ebene 1
 62
   179
420
  1709851
370
    18
100
AcDbVertex
100
AcDb2dVertex
 10
126.0157361881141
 20
-200.4659721721058
 30
0.0
  0
VERTEX
  5
186
330
182
100
AcDbEntity
  8
Ebene 1
 62
   179
420
  1709851
370
    18
100
AcDbVertex
100
AcDb2dVertex
 10
126.0157361881141
 20
-181.4586913608853
 30
0.0
  0
SEQEND
  5
187
330
182
100
AcDbEntity
  8
Ebene 1
370
    18
  0
POLYLINE
  5
188
330
1F
100
AcDbEntity
  8
Ebene 1
 62
   179
420
  1709851
370
    18
100
AcDb2dPolyline
 66
     1
 10
0.0
 20
0.0
 30
0.0
  0
VERTEX
  5
189
330
188
100
AcDbEntity
  8
Ebene 1
 62
   179
420
  1709851
370
    18
100
AcDbVertex
100
AcDb2dVertex
 10
125.4021646821911
 20
-183.0668619334
 30
0.0
  0
VERTEX
  5
18A
330
188
100
AcDbEntity
  8
Ebene 1
 62
   179
420
  1709851
370
    18
100
AcDbVertex
100
AcDb2dVertex
 10
125.4021646821911
 20
-200.4659721721058
 30
0.0
  0
SEQEND
  5
18B
330
188
100
AcDbEntity
  8
Ebene 1
370
    18
  0
POLYLINE
  5
18C
330
1F
100
AcDbEntity
  8
Ebene 1
 62
   179
420
  1709851
370
    18
100
AcDb2dPolyline
 66
     1
 10
0.0
 20
0.0
 30
0.0
  0
VERTEX
  5
18D
330
18C
100
AcDbEntity
  8
Ebene 1
 62
   179
420
  1709851
370
    18
100
AcDbVertex
100
AcDb2dVertex
 10
124.2163628161681
 20
-205.6522189156009
 30
0.0
  0
VERTEX
  5
18E
330
18C
100
AcDbEntity
  8
Ebene 1
 62
   179
420
  1709851
370
    18
100
AcDbVertex
100
AcDb2dVertex
 10
124.2163628161681
 20
-203.0690863207605
 30
0.0
  0
SEQEND
  5
18F
330
18C
100
AcDbEntity
  8
Ebene 1
370
    18
  0
POLYLINE
  5
190
330
1F
100
AcDbEntity
  8
Ebene 1
 62
   179
420
  1709851
370
    18
100
AcDb2dPolyline
 66
     1
 10
0.0
 20
0.0
 30
0.0
  0
VERTEX
  5
191
330
190
100
AcDbEntity
  8
Ebene 1
 62
   179
420
  1709851
370
    18
100
AcDbVertex
100
AcDb2dVertex
 10
119.1155544407072
 20
-204.6565863203636
 30
0.0
  0
VERTEX
  5
192
330
190
100
AcDbEntity
  8
Ebene 1
 62
   179
420
  1709851
370
    18
100
AcDbVertex
100
AcDb2dVertex
 10
131.1168890731236
 20
-204.6565863203636
 30
0.0
  0
SEQEND
  5
193
330
190
100
AcDbEntity
  8
Ebene 1
370
    18
  0
POLYLINE
  5
194
330
1F
100
AcDbEntity
  8
Ebene 1
 62
   179
420
  1709851
370
    18
100
AcDb2dPolyline
 66
     1
 10
0.0
 20
0.0
 30
0.0
  0
VERTEX
  5
195
330
194
100
AcDbEntity
  8
Ebene 1
 62
   179
420
  1709851
370
    18
100
AcDbVertex
100
AcDb2dVertex
 10
124.8096082587282
 20
-204.0647189159977
 30
0.0
  0
VERTEX
  5
196
330
194
100
AcDbEntity
  8
Ebene 1
 62
   179
420
  1709851
370
    18
100
AcDbVertex
100
AcDb2dVertex
 10
119.1155544407072
 20
-204.0647189159977
 30
0.0
  0
SEQEND
  5
197
330
194
100
AcDbEntity
  8
Ebene 1
370
    18
  0
POLYLINE
  5
198
330
1F
100
AcDbEntity
  8
Ebene 1
 62
   179
420
  1709851
370
    18
100
AcDb2dPolyline
 66
     1
 10
0.0
 20
0.0
 30
0.0
  0
VERTEX
  5
199
330
198
100
AcDbEntity
  8
Ebene 1
 62
   179
420
  1709851
370
    18
100
AcDbVertex
100
AcDb2dVertex
 10
119.1155544407072
 20
-204.0647189159977
 30
0.0
  0
VERTEX
  5
19A
330
198
100
AcDbEntity
  8
Ebene 1
 62
   179
420
  1709851
370
    18
100
AcDbVertex
100
AcDb2dVertex
 10
119.1155544407072
 20
-204.6565863203636
 30
0.0
  0
SEQEND
  5
19B
330
198
100
AcDbEntity
  8
Ebene 1
370
    18
  0
POLYLINE
  5
19C
330
1F
100
AcDbEntity
  8
Ebene 1
 62
   179
420
  1709851
370
    18
100
AcDb2dPolyline
 66
     1
 10
0.0
 20
0.0
 30
0.0
  0
VERTEX
  5
19D
330
19C
100
AcDbEntity
  8
Ebene 1
 62
   179
420
  1709851
370
    18
100
AcDbVertex
100
AcDb2dVertex
 10
131.1168890731236
 20
-204.6565863203636
 30
0.0
  0
VERTEX
  5
19E
330
19C
100
AcDbEntity
  8
Ebene 1
 62
   179
420
  1709851
370
    18
100
AcDbVertex
100
AcDb2dVertex
 10
131.1168890731236
 20
-204.0647189159977
 30
0.0
  0
SEQEND
  5
19F
330
19C
100
AcDbEntity
  8
Ebene 1
370
    18
  0
POLYLINE
  5
1A0
330
1F
100
AcDbEntity
  8
Ebene 1
 62
   179
420
  1709851
370
    18
100
AcDb2dPolyline
 66
     1
 10
0.0
 20
0.0
 30
0.0
  0
VERTEX
  5
1A1
330
1A0
100
AcDbEntity
  8
Ebene 1
 62
   179
420
  1709851
370
    18
100
AcDbVertex
100
AcDb2dVertex
 10
131.1168890731236
 20
-204.0647189159977
 30
0.0
  0
VERTEX
  5
1A2
330
1A0
100
AcDbEntity
  8
Ebene 1
 62
   179
420
  1709851
370
    18
100
AcDbVertex
100
AcDb2dVertex
 10
125.4021646821911
 20
-204.0647189159977
 30
0.0
  0
SEQEND
  5
1A3
330
1A0
100
AcDbEntity
  8
Ebene 1
370
    18
  0
POLYLINE
  5
1A4
330
1F
100
AcDbEntity
  8
Ebene 1
 62
   179
420
  1709851
370
    18
100
AcDb2dPolyline
 66
     1
 10
0.0
 20
0.0
 30
0.0
  0
VERTEX
  5
1A5
330
1A4
100
AcDbEntity
  8
Ebene 1
 62
   179
420
  1709851
370
    18
100
AcDbVertex
100
AcDb2dVertex
 10
117.9090820017727
 20
-182.4529459179284
 30
0.0
  0
VERTEX
  5
1A6
330
1A4
100
AcDbEntity
  8
Ebene 1
 62
   179
420
  1709851
370
    18
100
AcDbVertex
100
AcDb2dVertex
 10
126.0157361881141
 20
-182.4529459179284
 30
0.0
  0
SEQEND
  5
1A7
330
1A4
100
AcDbEntity
  8
Ebene 1
370
    18
  0
POLYLINE
  5
1A8
330
1F
100
AcDbEntity
  8
Ebene 1
 62
   179
420
  1709851
370
    18
100
AcDb2dPolyline
 66
     1
 10
0.0
 20
0.0
 30
0.0
  0
VERTEX
  5
1A9
330
1A8
100
AcDbEntity
  8
Ebene 1
 62
   179
420
  1709851
370
    18
100
AcDbVertex
100
AcDb2dVertex
 10
125.4021646821911
 20
-194.6664984322362
 30
0.0
  0
VERTEX
  5
1AA
330
1A8
100
AcDbEntity
  8
Ebene 1
 62
   179
420
  1709851
370
    18
100
AcDbVertex
100
AcDb2dVertex
 10
124.8096082587282
 20
-194.6664984322362
 30
0.0
  0
VERTEX
  5
1AB
330
1A8
100
AcDbEntity
  8
Ebene 1
 62
   179
420
  1709851
370
    18
100
AcDbVertex
100
AcDb2dVertex
 10
124.8096082587282
 20
-204.0647189159977
 30
0.0
  0
SEQEND
  5
1AC
330
1A8
100
AcDbEntity
  8
Ebene 1
370
    18
  0
POLYLINE
  5
1AD
330
1F
100
AcDbEntity
  8
Ebene 1
 62
   179
420
  1709851
370
    18
100
AcDb2dPolyline
 66
     1
 10
0.0
 20
0.0
 30
0.0
  0
VERTEX
  5
1AE
330
1AD
100
AcDbEntity
  8
Ebene 1
 62
   179
420
  1709851
370
    18
100
AcDbVertex
100
AcDb2dVertex
 10
117.9090820017727
 20
-182.4529459179284
 30
0.0
  0
VERTEX
  5
1AF
330
1AD
100
AcDbEntity
  8
Ebene 1
 62
   179
420
  1709851
370
    18
100
AcDbVertex
100
AcDb2dVertex
 10
117.9090820017727
 20
-181.4586913608853
 30
0.0
  0
SEQEND
  5
1B0
330
1AD
100
AcDbEntity
  8
Ebene 1
370
    18
  0
POLYLINE
  5
1B1
330
1F
100
AcDbEntity
  8
Ebene 1
 62
   179
420
  1709851
370
    18
100
AcDb2dPolyline
 66
     1
 10
0.0
 20
0.0
 30
0.0
  0
VERTEX
  5
1B2
330
1B1
100
AcDbEntity
  8
Ebene 1
 62
   179
420
  1709851
370
    18
100
AcDbVertex
100
AcDb2dVertex
 10
117.9090820017727
 20
-182.4529459179284
 30
0.0
  0
VERTEX
  5
1B3
330
1B1
100
AcDbEntity
  8
Ebene 1
 62
   179
420
  1709851
370
    18
100
AcDbVertex
100
AcDb2dVertex
 10
117.9090820017727
 20
-183.0668619334
 30
0.0
  0
VERTEX
  5
1B4
330
1B1
100
AcDbEntity
  8
Ebene 1
 62
   179
420
  1709851
370
    18
100
AcDbVertex
100
AcDb2dVertex
 10
125.4021646821911
 20
-183.0668619334
 30
0.0
  0
SEQEND
  5
1B5
330
1B1
100
AcDbEntity
  8
Ebene 1
370
    18
  0
POLYLINE
  5
1B6
330
1F
100
AcDbEntity
  8
Ebene 1
 62
   179
420
  1709851
370
    35
100
AcDb2dPolyline
 66
     1
 10
0.0
 20
0.0
 30
0.0
  0
VERTEX
  5
1B7
330
1B6
100
AcDbEntity
  8
Ebene 1
 62
   179
420
  1709851
370
    35
100
AcDbVertex
100
AcDb2dVertex
 10
148.8336371155694
 20
-157.4553330769556
 30
0.0
  0
VERTEX
  5
1B8
330
1B6
100
AcDbEntity
  8
Ebene 1
 62
   179
420
  1709851
370
    35
100
AcDbVertex
100
AcDb2dVertex
 10
149.1089002448408
 20
-157.4553330769556
 30
0.0
  0
SEQEND
  5
1B9
330
1B6
100
AcDbEntity
  8
Ebene 1
370
    35
  0
POLYLINE
  5
1BA
330
1F
100
AcDbEntity
  8
Ebene 1
 62
   179
420
  1709851
370
    35
100
AcDb2dPolyline
 66
     1
 10
0.0
 20
0.0
 30
0.0
  0
VERTEX
  5
1BB
330
1BA
100
AcDbEntity
  8
Ebene 1
 62
   179
420
  1709851
370
    35
100
AcDbVertex
100
AcDb2dVertex
 10
146.8437499632891
 20
-157.4553330769556
 30
0.0
  0
VERTEX
  5
1BC
330
1BA
100
AcDbEntity
  8
Ebene 1
 62
   179
420
  1709851
370
    35
100
AcDbVertex
100
AcDb2dVertex
 10
147.8383490298807
 20
-157.4553330769556
 30
0.0
  0
SEQEND
  5
1BD
330
1BA
100
AcDbEntity
  8
Ebene 1
370
    35
  0
POLYLINE
  5
1BE
330
1F
100
AcDbEntity
  8
Ebene 1
 62
   179
420
  1709851
370
    35
100
AcDb2dPolyline
 66
     1
 10
0.0
 20
0.0
 30
0.0
  0
VERTEX
  5
1BF
330
1BE
100
AcDbEntity
  8
Ebene 1
 62
   179
420
  1709851
370
    35
100
AcDbVertex
100
AcDb2dVertex
 10
138.8425156987963
 20
-157.4553330769556
 30
0.0
  0
VERTEX
  5
1C0
330
1BE
100
AcDbEntity
  8
Ebene 1
 62
   179
420
  1709851
370
    35
100
AcDbVertex
100
AcDb2dVertex
 10
145.8281358142374
 20
-157.4553330769556
 30
0.0
  0
SEQEND
  5
1C1
330
1BE
100
AcDbEntity
  8
Ebene 1
370
    35
  0
POLYLINE
  5
1C2
330
1F
100
AcDbEntity
  8
Ebene 1
 62
   179
420
  1709851
370
    35
100
AcDb2dPolyline
 66
     1
 10
0.0
 20
0.0
 30
0.0
  0
VERTEX
  5
1C3
330
1C2
100
AcDbEntity
  8
Ebene 1
 62
   179
420
  1709851
370
    35
100
AcDbVertex
100
AcDb2dVertex
 10
136.832302483153
 20
-157.4553330769556
 30
0.0
  0
VERTEX
  5
1C4
330
1C2
100
AcDbEntity
  8
Ebene 1
 62
   179
420
  1709851
370
    35
100
AcDbVertex
100
AcDb2dVertex
 10
137.8479166322047
 20
-157.4553330769556
 30
0.0
  0
SEQEND
  5
1C5
330
1C2
100
AcDbEntity
  8
Ebene 1
370
    35
  0
POLYLINE
  5
1C6
330
1F
100
AcDbEntity
  8
Ebene 1
 62
   179
420
  1709851
370
    35
100
AcDb2dPolyline
 66
     1
 10
0.0
 20
0.0
 30
0.0
  0
VERTEX
  5
1C7
330
1C6
100
AcDbEntity
  8
Ebene 1
 62
   179
420
  1709851
370
    35
100
AcDbVertex
100
AcDb2dVertex
 10
128.8310682186603
 20
-157.4553330769556
 30
0.0
  0
VERTEX
  5
1C8
330
1C6
100
AcDbEntity
  8
Ebene 1
 62
   179
420
  1709851
370
    35
100
AcDbVertex
100
AcDb2dVertex
 10
135.8373589070129
 20
-157.4553330769556
 30
0.0
  0
SEQEND
  5
1C9
330
1C6
100
AcDbEntity
  8
Ebene 1
370
    35
  0
POLYLINE
  5
1CA
330
1F
100
AcDbEntity
  8
Ebene 1
 62
   179
420
  1709851
370
    35
100
AcDb2dPolyline
 66
     1
 10
0.0
 20
0.0
 30
0.0
  0
VERTEX
  5
1CB
330
1CA
100
AcDbEntity
  8
Ebene 1
 62
   179
420
  1709851
370
    35
100
AcDbVertex
100
AcDb2dVertex
 10
126.8415255759285
 20
-157.4553330769556
 30
0.0
  0
VERTEX
  5
1CC
330
1CA
100
AcDbEntity
  8
Ebene 1
 62
   179
420
  1709851
370
    35
100
AcDbVertex
100
AcDb2dVertex
 10
127.8364691520687
 20
-157.4553330769556
 30
0.0
  0
SEQEND
  5
1CD
330
1CA
100
AcDbEntity
  8
Ebene 1
370
    35
  0
POLYLINE
  5
1CE
330
1F
100
AcDbEntity
  8
Ebene 1
 62
   179
420
  1709851
370
    35
100
AcDb2dPolyline
 66
     1
 10
0.0
 20
0.0
 30
0.0
  0
VERTEX
  5
1CF
330
1CE
100
AcDbEntity
  8
Ebene 1
 62
   179
420
  1709851
370
    35
100
AcDbVertex
100
AcDb2dVertex
 10
125.5079291135883
 20
-157.4553330769556
 30
0.0
  0
VERTEX
  5
1D0
330
1CE
100
AcDbEntity
  8
Ebene 1
 62
   179
420
  1709851
370
    35
100
AcDbVertex
100
AcDb2dVertex
 10
125.5079291135883
 20
-157.4553330769556
 30
0.0
  0
VERTEX
  5
1D1
330
1CE
100
AcDbEntity
  8
Ebene 1
 62
   179
420
  1709851
370
    35
100
AcDbVertex
100
AcDb2dVertex
 10
125.8465819997884
 20
-157.4553330769556
 30
0.0
  0
SEQEND
  5
1D2
330
1CE
100
AcDbEntity
  8
Ebene 1
370
    35
  0
INSERT
  5
1D4
330
1F
100
AcDbEntity
  8
Ebene 1
100
AcDbBlockReference
  2
block 4
 10
0.0
 20
0.0
 30
0.0
  0
POLYLINE
  5
403
330
1F
100
AcDbEntity
  8
Ebene 1
 62
   179
420
  1709851
370
    25
100
AcDb2dPolyline
 66
     1
 10
0.0
 20
0.0
 30
0.0
  0
VERTEX
  5
404
330
403
100
AcDbEntity
  8
Ebene 1
 62
   179
420
  1709851
370
    25
100
AcDbVertex
100
AcDb2dVertex
 10
177.4086371084256
 20
-91.26729734046442
 30
0.0
  0
VERTEX
  5
405
330
403
100
AcDbEntity
  8
Ebene 1
 62
   179
420
  1709851
370
    25
100
AcDbVertex
100
AcDb2dVertex
 10
177.4086371084256
 20
-209.6526637930729
 30
0.0
  0
SEQEND
  5
406
330
403
100
AcDbEntity
  8
Ebene 1
370
    25
  0
POLYLINE
  5
407
330
1F
100
AcDbEntity
  8
Ebene 1
 62
   179
420
  1709851
370
    25
100
AcDb2dPolyline
 66
     1
 10
0.0
 20
0.0
 30
0.0
  0
VERTEX
  5
408
330
407
100
AcDbEntity
  8
Ebene 1
 62
   179
420
  1709851
370
    25
100
AcDbVertex
100
AcDb2dVertex
 10
177.4086371084256
 20
-209.6526637930729
 30
0.0
  0
VERTEX
  5
409
330
407
100
AcDbEntity
  8
Ebene 1
 62
   179
420
  1709851
370
    25
100
AcDbVertex
100
AcDb2dVertex
 10
175.3129855247481
 20
-209.6526637930729
 30
0.0
  0
SEQEND
  5
40A
330
407
100
AcDbEntity
  8
Ebene 1
370
    25
  0
POLYLINE
  5
40B
330
1F
100
AcDbEntity
  8
Ebene 1
 62
   179
420
  1709851
370
    25
100
AcDb2dPolyline
 66
     1
 10
0.0
 20
0.0
 30
0.0
  0
VERTEX
  5
40C
330
40B
100
AcDbEntity
  8
Ebene 1
 62
   179
420
  1709851
370
    25
100
AcDbVertex
100
AcDb2dVertex
 10
177.4086371084256
 20
-91.26729734046442
 30
0.0
  0
VERTEX
  5
40D
330
40B
100
AcDbEntity
  8
Ebene 1
 62
   179
420
  1709851
370
    25
100
AcDbVertex
100
AcDb2dVertex
 10
175.3129855247481
 20
-91.26729734046442
 30
0.0
  0
SEQEND
  5
40E
330
40B
100
AcDbEntity
  8
Ebene 1
370
    25
  0
POLYLINE
  5
40F
330
1F
100
AcDbEntity
  8
Ebene 1
 62
   179
420
  1709851
370
    13
100
AcDb2dPolyline
 66
     1
 10
0.0
 20
0.0
 30
0.0
  0
VERTEX
  5
410
330
40F
100
AcDbEntity
  8
Ebene 1
 62
   179
420
  1709851
370
    13
100
AcDbVertex
100
AcDb2dVertex
 10
175.3126410151996
 20
-185.5652451793031
 30
0.0
  0
VERTEX
  5
411
330
40F
100
AcDbEntity
  8
Ebene 1
 62
   179
420
  1709851
370
    13
100
AcDbVertex
100
AcDb2dVertex
 10
176.3503037753569
 20
-185.5652451793031
 30
0.0
  0
SEQEND
  5
412
330
40F
100
AcDbEntity
  8
Ebene 1
370
    13
  0
POLYLINE
  5
413
330
1F
100
AcDbEntity
  8
Ebene 1
 62
   179
420
  1709851
370
    13
100
AcDb2dPolyline
 66
     1
 10
0.0
 20
0.0
 30
0.0
  0
VERTEX
  5
414
330
413
100
AcDbEntity
  8
Ebene 1
 62
   179
420
  1709851
370
    13
100
AcDbVertex
100
AcDb2dVertex
 10
176.6462374775398
 20
-185.7554144500889
 30
0.0
  0
VERTEX
  5
415
330
413
100
AcDbEntity
  8
Ebene 1
 62
   179
420
  1709851
370
    13
100
AcDbVertex
100
AcDb2dVertex
 10
176.7096272344684
 20
-185.7126952660718
 30
0.0
  0
VERTEX
  5
416
330
413
100
AcDbEntity
  8
Ebene 1
 62
   179
420
  1709851
370
    13
100
AcDbVertex
100
AcDb2dVertex
 10
176.7096272344684
 20
-185.6913356740633
 30
0.0
  0
SEQEND
  5
417
330
413
100
AcDbEntity
  8
Ebene 1
370
    13
  0
POLYLINE
  5
418
330
1F
100
AcDbEntity
  8
Ebene 1
 62
   179
420
  1709851
370
    13
100
AcDb2dPolyline
 66
     1
 10
0.0
 20
0.0
 30
0.0
  0
VERTEX
  5
419
330
418
100
AcDbEntity
  8
Ebene 1
 62
   179
420
  1709851
370
    13
100
AcDbVertex
100
AcDb2dVertex
 10
176.7096272344684
 20
-184.0197753446201
 30
0.0
  0
VERTEX
  5
41A
330
418
100
AcDbEntity
  8
Ebene 1
 62
   179
420
  1709851
370
    13
100
AcDbVertex
100
AcDb2dVertex
 10
176.6679415790969
 20
-183.9556965685944
 30
0.0
  0
VERTEX
  5
41B
330
418
100
AcDbEntity
  8
Ebene 1
 62
   179
420
  1709851
370
    13
100
AcDbVertex
100
AcDb2dVertex
 10
176.6462374775398
 20
-183.9556965685944
 30
0.0
  0
SEQEND
  5
41C
330
418
100
AcDbEntity
  8
Ebene 1
370
    13
  0
POLYLINE
  5
41D
330
1F
100
AcDbEntity
  8
Ebene 1
 62
   179
420
  1709851
370
    13
100
AcDb2dPolyline
 66
     1
 10
0.0
 20
0.0
 30
0.0
  0
VERTEX
  5
41E
330
41D
100
AcDbEntity
  8
Ebene 1
 62
   179
420
  1709851
370
    13
100
AcDbVertex
100
AcDb2dVertex
 10
176.5831922301598
 20
-185.0567490856803
 30
0.0
  0
VERTEX
  5
41F
330
41D
100
AcDbEntity
  8
Ebene 1
 62
   179
420
  1709851
370
    13
100
AcDbVertex
100
AcDb2dVertex
 10
176.5831922301598
 20
-184.6543619330031
 30
0.0
  0
SEQEND
  5
420
330
41D
100
AcDbEntity
  8
Ebene 1
370
    13
  0
POLYLINE
  5
421
330
1F
100
AcDbEntity
  8
Ebene 1
 62
   179
420
  1709851
370
    13
100
AcDb2dPolyline
 66
     1
 10
0.0
 20
0.0
 30
0.0
  0
VERTEX
  5
422
330
421
100
AcDbEntity
  8
Ebene 1
 62
   179
420
  1709851
370
    13
100
AcDbVertex
100
AcDb2dVertex
 10
176.4774277987626
 20
-185.0567490856803
 30
0.0
  0
VERTEX
  5
423
330
421
100
AcDbEntity
  8
Ebene 1
 62
   179
420
  1709851
370
    13
100
AcDbVertex
100
AcDb2dVertex
 10
176.4774277987626
 20
-184.6543619330031
 30
0.0
  0
SEQEND
  5
424
330
421
100
AcDbEntity
  8
Ebene 1
370
    13
  0
POLYLINE
  5
425
330
1F
100
AcDbEntity
  8
Ebene 1
 62
   179
420
  1709851
370
    13
100
AcDb2dPolyline
 66
     1
 10
0.0
 20
0.0
 30
0.0
  0
VERTEX
  5
426
330
425
100
AcDbEntity
  8
Ebene 1
 62
   179
420
  1709851
370
    13
100
AcDbVertex
100
AcDb2dVertex
 10
176.413349022737
 20
-185.0567490856803
 30
0.0
  0
VERTEX
  5
427
330
425
100
AcDbEntity
  8
Ebene 1
 62
   179
420
  1709851
370
    13
100
AcDbVertex
100
AcDb2dVertex
 10
176.4557236972055
 20
-184.6543619330031
 30
0.0
  0
SEQEND
  5
428
330
425
100
AcDbEntity
  8
Ebene 1
370
    13
  0
POLYLINE
  5
429
330
1F
100
AcDbEntity
  8
Ebene 1
 62
   179
420
  1709851
370
    13
100
AcDb2dPolyline
 66
     1
 10
0.0
 20
0.0
 30
0.0
  0
VERTEX
  5
42A
330
429
100
AcDbEntity
  8
Ebene 1
 62
   179
420
  1709851
370
    13
100
AcDbVertex
100
AcDb2dVertex
 10
176.3079291008883
 20
-185.0567490856803
 30
0.0
  0
VERTEX
  5
42B
330
429
100
AcDbEntity
  8
Ebene 1
 62
   179
420
  1709851
370
    13
100
AcDbVertex
100
AcDb2dVertex
 10
176.3503037753569
 20
-184.6543619330031
 30
0.0
  0
SEQEND
  5
42C
330
429
100
AcDbEntity
  8
Ebene 1
370
    13
  0
POLYLINE
  5
42D
330
1F
100
AcDbEntity
  8
Ebene 1
 62
   179
420
  1709851
370
    13
100
AcDb2dPolyline
 66
     1
 10
0.0
 20
0.0
 30
0.0
  0
VERTEX
  5
42E
330
42D
100
AcDbEntity
  8
Ebene 1
 62
   179
420
  1709851
370
    13
100
AcDbVertex
100
AcDb2dVertex
 10
176.2021646694911
 20
-185.0567490856803
 30
0.0
  0
VERTEX
  5
42F
330
42D
100
AcDbEntity
  8
Ebene 1
 62
   179
420
  1709851
370
    13
100
AcDbVertex
100
AcDb2dVertex
 10
176.2445393439597
 20
-184.6543619330031
 30
0.0
  0
SEQEND
  5
430
330
42D
100
AcDbEntity
  8
Ebene 1
370
    13
  0
POLYLINE
  5
431
330
1F
100
AcDbEntity
  8
Ebene 1
 62
   179
420
  1709851
370
    13
100
AcDb2dPolyline
 66
     1
 10
0.0
 20
0.0
 30
0.0
  0
VERTEX
  5
432
330
431
100
AcDbEntity
  8
Ebene 1
 62
   179
420
  1709851
370
    13
100
AcDbVertex
100
AcDb2dVertex
 10
176.096400238094
 20
-185.0567490856803
 30
0.0
  0
VERTEX
  5
433
330
431
100
AcDbEntity
  8
Ebene 1
 62
   179
420
  1709851
370
    13
100
AcDbVertex
100
AcDb2dVertex
 10
176.1387749125625
 20
-184.6543619330031
 30
0.0
  0
SEQEND
  5
434
330
431
100
AcDbEntity
  8
Ebene 1
370
    13
  0
POLYLINE
  5
435
330
1F
100
AcDbEntity
  8
Ebene 1
 62
   179
420
  1709851
370
    13
100
AcDb2dPolyline
 66
     1
 10
0.0
 20
0.0
 30
0.0
  0
VERTEX
  5
436
330
435
100
AcDbEntity
  8
Ebene 1
 62
   179
420
  1709851
370
    13
100
AcDbVertex
100
AcDb2dVertex
 10
175.9906358066968
 20
-185.0567490856803
 30
0.0
  0
VERTEX
  5
437
330
435
100
AcDbEntity
  8
Ebene 1
 62
   179
420
  1709851
370
    13
100
AcDbVertex
100
AcDb2dVertex
 10
176.0323214620683
 20
-184.6543619330031
 30
0.0
  0
SEQEND
  5
438
330
435
100
AcDbEntity
  8
Ebene 1
370
    13
  0
POLYLINE
  5
439
330
1F
100
AcDbEntity
  8
Ebene 1
 62
   179
420
  1709851
370
    13
100
AcDb2dPolyline
 66
     1
 10
0.0
 20
0.0
 30
0.0
  0
VERTEX
  5
43A
330
439
100
AcDbEntity
  8
Ebene 1
 62
   179
420
  1709851
370
    13
100
AcDbVertex
100
AcDb2dVertex
 10
175.8841823562026
 20
-185.0567490856803
 30
0.0
  0
VERTEX
  5
43B
330
439
100
AcDbEntity
  8
Ebene 1
 62
   179
420
  1709851
370
    13
100
AcDbVertex
100
AcDb2dVertex
 10
175.9265570306711
 20
-184.6543619330031
 30
0.0
  0
SEQEND
  5
43C
330
439
100
AcDbEntity
  8
Ebene 1
370
    13
  0
POLYLINE
  5
43D
330
1F
100
AcDbEntity
  8
Ebene 1
 62
   179
420
  1709851
370
    13
100
AcDb2dPolyline
 66
     1
 10
0.0
 20
0.0
 30
0.0
  0
VERTEX
  5
43E
330
43D
100
AcDbEntity
  8
Ebene 1
 62
   179
420
  1709851
370
    13
100
AcDbVertex
100
AcDb2dVertex
 10
175.7787624343539
 20
-185.0567490856803
 30
0.0
  0
VERTEX
  5
43F
330
43D
100
AcDbEntity
  8
Ebene 1
 62
   179
420
  1709851
370
    13
100
AcDbVertex
100
AcDb2dVertex
 10
175.8211371088225
 20
-184.6543619330031
 30
0.0
  0
SEQEND
  5
440
330
43D
100
AcDbEntity
  8
Ebene 1
370
    13
  0
POLYLINE
  5
441
330
1F
100
AcDbEntity
  8
Ebene 1
 62
   179
420
  1709851
370
    13
100
AcDb2dPolyline
 66
     1
 10
0.0
 20
0.0
 30
0.0
  0
VERTEX
  5
442
330
441
100
AcDbEntity
  8
Ebene 1
 62
   179
420
  1709851
370
    13
100
AcDbVertex
100
AcDb2dVertex
 10
175.6729980029567
 20
-185.0567490856803
 30
0.0
  0
VERTEX
  5
443
330
441
100
AcDbEntity
  8
Ebene 1
 62
   179
420
  1709851
370
    13
100
AcDbVertex
100
AcDb2dVertex
 10
175.7153726774253
 20
-184.6543619330031
 30
0.0
  0
SEQEND
  5
444
330
441
100
AcDbEntity
  8
Ebene 1
370
    13
  0
POLYLINE
  5
445
330
1F
100
AcDbEntity
  8
Ebene 1
 62
   179
420
  1709851
370
    13
100
AcDb2dPolyline
 66
     1
 10
0.0
 20
0.0
 30
0.0
  0
VERTEX
  5
446
330
445
100
AcDbEntity
  8
Ebene 1
 62
   179
420
  1709851
370
    13
100
AcDbVertex
100
AcDb2dVertex
 10
175.5672335715596
 20
-185.0567490856803
 30
0.0
  0
VERTEX
  5
447
330
445
100
AcDbEntity
  8
Ebene 1
 62
   179
420
  1709851
370
    13
100
AcDbVertex
100
AcDb2dVertex
 10
175.6096082460282
 20
-184.6543619330031
 30
0.0
  0
SEQEND
  5
448
330
445
100
AcDbEntity
  8
Ebene 1
370
    13
  0
POLYLINE
  5
449
330
1F
100
AcDbEntity
  8
Ebene 1
 62
   179
420
  1709851
370
    13
100
AcDb2dPolyline
 66
     1
 10
0.0
 20
0.0
 30
0.0
  0
VERTEX
  5
44A
330
449
100
AcDbEntity
  8
Ebene 1
 62
   179
420
  1709851
370
    13
100
AcDbVertex
100
AcDb2dVertex
 10
175.4614691401624
 20
-185.0567490856803
 30
0.0
  0
VERTEX
  5
44B
330
449
100
AcDbEntity
  8
Ebene 1
 62
   179
420
  1709851
370
    13
100
AcDbVertex
100
AcDb2dVertex
 10
175.5031547955339
 20
-184.6543619330031
 30
0.0
  0
SEQEND
  5
44C
330
449
100
AcDbEntity
  8
Ebene 1
370
    13
  0
POLYLINE
  5
44D
330
1F
100
AcDbEntity
  8
Ebene 1
 62
   179
420
  1709851
370
    13
100
AcDb2dPolyline
 66
     1
 10
0.0
 20
0.0
 30
0.0
  0
VERTEX
  5
44E
330
44D
100
AcDbEntity
  8
Ebene 1
 62
   179
420
  1709851
370
    13
100
AcDbVertex
100
AcDb2dVertex
 10
175.3550156896682
 20
-185.0567490856803
 30
0.0
  0
VERTEX
  5
44F
330
44D
100
AcDbEntity
  8
Ebene 1
 62
   179
420
  1709851
370
    13
100
AcDbVertex
100
AcDb2dVertex
 10
175.3973903641368
 20
-184.6543619330031
 30
0.0
  0
SEQEND
  5
450
330
44D
100
AcDbEntity
  8
Ebene 1
370
    13
  0
POLYLINE
  5
451
330
1F
100
AcDbEntity
  8
Ebene 1
 62
   179
420
  1709851
370
    13
100
AcDb2dPolyline
 66
     1
 10
0.0
 20
0.0
 30
0.0
  0
VERTEX
  5
452
330
451
100
AcDbEntity
  8
Ebene 1
 62
   179
420
  1709851
370
    13
100
AcDbVertex
100
AcDb2dVertex
 10
175.3129855247481
 20
-185.0567490856803
 30
0.0
  0
VERTEX
  5
453
330
451
100
AcDbEntity
  8
Ebene 1
 62
   179
420
  1709851
370
    13
100
AcDbVertex
100
AcDb2dVertex
 10
176.709971744017
 20
-185.0567490856803
 30
0.0
  0
SEQEND
  5
454
330
451
100
AcDbEntity
  8
Ebene 1
370
    13
  0
POLYLINE
  5
455
330
1F
100
AcDbEntity
  8
Ebene 1
 62
   179
420
  1709851
370
    13
100
AcDb2dPolyline
 66
     1
 10
0.0
 20
0.0
 30
0.0
  0
VERTEX
  5
456
330
455
100
AcDbEntity
  8
Ebene 1
 62
   179
420
  1709851
370
    13
100
AcDbVertex
100
AcDb2dVertex
 10
175.3129855247481
 20
-184.6543619330031
 30
0.0
  0
VERTEX
  5
457
330
455
100
AcDbEntity
  8
Ebene 1
 62
   179
420
  1709851
370
    13
100
AcDbVertex
100
AcDb2dVertex
 10
176.709971744017
 20
-184.6543619330031
 30
0.0
  0
SEQEND
  5
458
330
455
100
AcDbEntity
  8
Ebene 1
370
    13
  0
POLYLINE
  5
459
330
1F
100
AcDbEntity
  8
Ebene 1
 62
   179
420
  1709851
370
    13
100
AcDb2dPolyline
 66
     1
 10
0.0
 20
0.0
 30
0.0
  0
VERTEX
  5
45A
330
459
100
AcDbEntity
  8
Ebene 1
 62
   179
420
  1709851
370
    13
100
AcDbVertex
100
AcDb2dVertex
 10
176.3503037753569
 20
-184.1679144504858
 30
0.0
  0
VERTEX
  5
45B
330
459
100
AcDbEntity
  8
Ebene 1
 62
   179
420
  1709851
370
    13
100
AcDbVertex
100
AcDb2dVertex
 10
175.3129855247481
 20
-184.1679144504858
 30
0.0
  0
SEQEND
  5
45C
330
459
100
AcDbEntity
  8
Ebene 1
370
    13
  0
POLYLINE
  5
45D
330
1F
100
AcDbEntity
  8
Ebene 1
 62
   179
420
  1709851
370
    13
100
AcDb2dPolyline
 66
     1
 10
0.0
 20
0.0
 30
0.0
  0
VERTEX
  5
45E
330
45D
100
AcDbEntity
  8
Ebene 1
 62
   179
420
  1709851
370
    13
100
AcDbVertex
100
AcDb2dVertex
 10
176.3503037753569
 20
-185.0567490856803
 30
0.0
  0
VERTEX
  5
45F
330
45D
100
AcDbEntity
  8
Ebene 1
 62
   179
420
  1709851
370
    13
100
AcDbVertex
100
AcDb2dVertex
 10
176.3503037753569
 20
-185.5652451793031
 30
0.0
  0
SEQEND
  5
460
330
45D
100
AcDbEntity
  8
Ebene 1
370
    13
  0
POLYLINE
  5
461
330
1F
100
AcDbEntity
  8
Ebene 1
 62
   179
420
  1709851
370
    13
100
AcDb2dPolyline
 66
     1
 10
0.0
 20
0.0
 30
0.0
  0
VERTEX
  5
462
330
461
100
AcDbEntity
  8
Ebene 1
 62
   179
420
  1709851
370
    13
100
AcDbVertex
100
AcDb2dVertex
 10
176.3503037753569
 20
-184.1679144504858
 30
0.0
  0
VERTEX
  5
463
330
461
100
AcDbEntity
  8
Ebene 1
 62
   179
420
  1709851
370
    13
100
AcDbVertex
100
AcDb2dVertex
 10
176.3503037753569
 20
-184.6543619330031
 30
0.0
  0
SEQEND
  5
464
330
461
100
AcDbEntity
  8
Ebene 1
370
    13
  0
POLYLINE
  5
465
330
1F
100
AcDbEntity
  8
Ebene 1
 62
   179
420
  1709851
370
    13
100
AcDb2dPolyline
 66
     1
 10
0.0
 20
0.0
 30
0.0
  0
VERTEX
  5
466
330
465
100
AcDbEntity
  8
Ebene 1
 62
   179
420
  1709851
370
    13
100
AcDbVertex
100
AcDb2dVertex
 10
176.3503037753569
 20
-184.1679144504858
 30
0.0
  0
VERTEX
  5
467
330
465
100
AcDbEntity
  8
Ebene 1
 62
   179
420
  1709851
370
    13
100
AcDbVertex
100
AcDb2dVertex
 10
176.5408175556912
 20
-183.9556965685944
 30
0.0
  0
VERTEX
  5
468
330
465
100
AcDbEntity
  8
Ebene 1
 62
   179
420
  1709851
370
    13
100
AcDbVertex
100
AcDb2dVertex
 10
176.6462374775398
 20
-183.9556965685944
 30
0.0
  0
SEQEND
  5
469
330
465
100
AcDbEntity
  8
Ebene 1
370
    13
  0
POLYLINE
  5
46A
330
1F
100
AcDbEntity
  8
Ebene 1
 62
   179
420
  1709851
370
    13
100
AcDb2dPolyline
 66
     1
 10
0.0
 20
0.0
 30
0.0
  0
VERTEX
  5
46B
330
46A
100
AcDbEntity
  8
Ebene 1
 62
   179
420
  1709851
370
    13
100
AcDbVertex
100
AcDb2dVertex
 10
176.5408175556912
 20
-184.6543619330031
 30
0.0
  0
VERTEX
  5
46C
330
46A
100
AcDbEntity
  8
Ebene 1
 62
   179
420
  1709851
370
    13
100
AcDbVertex
100
AcDb2dVertex
 10
176.5408175556912
 20
-183.9556965685944
 30
0.0
  0
SEQEND
  5
46D
330
46A
100
AcDbEntity
  8
Ebene 1
370
    13
  0
POLYLINE
  5
46E
330
1F
100
AcDbEntity
  8
Ebene 1
 62
   179
420
  1709851
370
    13
100
AcDb2dPolyline
 66
     1
 10
0.0
 20
0.0
 30
0.0
  0
VERTEX
  5
46F
330
46E
100
AcDbEntity
  8
Ebene 1
 62
   179
420
  1709851
370
    13
100
AcDbVertex
100
AcDb2dVertex
 10
176.5408175556912
 20
-185.7554144500889
 30
0.0
  0
VERTEX
  5
470
330
46E
100
AcDbEntity
  8
Ebene 1
 62
   179
420
  1709851
370
    13
100
AcDbVertex
100
AcDb2dVertex
 10
176.5408175556912
 20
-185.0567490856803
 30
0.0
  0
SEQEND
  5
471
330
46E
100
AcDbEntity
  8
Ebene 1
370
    13
  0
POLYLINE
  5
472
330
1F
100
AcDbEntity
  8
Ebene 1
 62
   179
420
  1709851
370
    13
100
AcDb2dPolyline
 66
     1
 10
0.0
 20
0.0
 30
0.0
  0
VERTEX
  5
473
330
472
100
AcDbEntity
  8
Ebene 1
 62
   179
420
  1709851
370
    13
100
AcDbVertex
100
AcDb2dVertex
 10
176.709971744017
 20
-185.6913356740633
 30
0.0
  0
VERTEX
  5
474
330
472
100
AcDbEntity
  8
Ebene 1
 62
   179
420
  1709851
370
    13
100
AcDbVertex
100
AcDb2dVertex
 10
176.709971744017
 20
-184.0197753446201
 30
0.0
  0
SEQEND
  5
475
330
472
100
AcDbEntity
  8
Ebene 1
370
    13
  0
POLYLINE
  5
476
330
1F
100
AcDbEntity
  8
Ebene 1
 62
   179
420
  1709851
370
    13
100
AcDb2dPolyline
 66
     1
 10
0.0
 20
0.0
 30
0.0
  0
VERTEX
  5
477
330
476
100
AcDbEntity
  8
Ebene 1
 62
   179
420
  1709851
370
    13
100
AcDbVertex
100
AcDb2dVertex
 10
176.3503037753569
 20
-185.5652451793031
 30
0.0
  0
VERTEX
  5
478
330
476
100
AcDbEntity
  8
Ebene 1
 62
   179
420
  1709851
370
    13
100
AcDbVertex
100
AcDb2dVertex
 10
176.5408175556912
 20
-185.7554144500889
 30
0.0
  0
VERTEX
  5
479
330
476
100
AcDbEntity
  8
Ebene 1
 62
   179
420
  1709851
370
    13
100
AcDbVertex
100
AcDb2dVertex
 10
176.6462374775398
 20
-185.7554144500889
 30
0.0
  0
SEQEND
  5
47A
330
476
100
AcDbEntity
  8
Ebene 1
370
    13
  0
POLYLINE
  5
47B
330
1F
100
AcDbEntity
  8
Ebene 1
 62
   179
420
  1709851
370
    13
100
AcDb2dPolyline
 66
     1
 10
0.0
 20
0.0
 30
0.0
  0
VERTEX
  5
47C
330
47B
100
AcDbEntity
  8
Ebene 1
 62
   179
420
  1709851
370
    13
100
AcDbVertex
100
AcDb2dVertex
 10
176.096400238094
 20
-185.0567490856803
 30
0.0
  0
VERTEX
  5
47D
330
47B
100
AcDbEntity
  8
Ebene 1
 62
   179
420
  1709851
370
    13
100
AcDbVertex
100
AcDb2dVertex
 10
176.096400238094
 20
-185.0567490856803
 30
0.0
  0
VERTEX
  5
47E
330
47B
100
AcDbEntity
  8
Ebene 1
 62
   179
420
  1709851
370
    13
100
AcDbVertex
100
AcDb2dVertex
 10
176.1387749125625
 20
-184.7177516899317
 30
0.0
  0
SEQEND
  5
47F
330
47B
100
AcDbEntity
  8
Ebene 1
370
    13
  0
POLYLINE
  5
480
330
1F
100
AcDbEntity
  8
Ebene 1
 62
   179
420
  1709851
370
    13
100
AcDb2dPolyline
 66
     1
 10
0.0
 20
0.0
 30
0.0
  0
VERTEX
  5
481
330
480
100
AcDbEntity
  8
Ebene 1
 62
   179
420
  1709851
370
    13
100
AcDbVertex
100
AcDb2dVertex
 10
175.9906358066968
 20
-185.0567490856803
 30
0.0
  0
VERTEX
  5
482
330
480
100
AcDbEntity
  8
Ebene 1
 62
   179
420
  1709851
370
    13
100
AcDbVertex
100
AcDb2dVertex
 10
175.9906358066968
 20
-185.0567490856803
 30
0.0
  0
VERTEX
  5
483
330
480
100
AcDbEntity
  8
Ebene 1
 62
   179
420
  1709851
370
    13
100
AcDbVertex
100
AcDb2dVertex
 10
176.0116508891568
 20
-184.7177516899317
 30
0.0
  0
SEQEND
  5
484
330
480
100
AcDbEntity
  8
Ebene 1
370
    13
  0
POLYLINE
  5
485
330
1F
100
AcDbEntity
  8
Ebene 1
 62
   179
420
  1709851
370
    13
100
AcDb2dPolyline
 66
     1
 10
0.0
 20
0.0
 30
0.0
  0
VERTEX
  5
486
330
485
100
AcDbEntity
  8
Ebene 1
 62
   179
420
  1709851
370
    13
100
AcDbVertex
100
AcDb2dVertex
 10
175.8841823562026
 20
-185.0567490856803
 30
0.0
  0
VERTEX
  5
487
330
485
100
AcDbEntity
  8
Ebene 1
 62
   179
420
  1709851
370
    13
100
AcDbVertex
100
AcDb2dVertex
 10
175.8841823562026
 20
-185.0567490856803
 30
0.0
  0
VERTEX
  5
488
330
485
100
AcDbEntity
  8
Ebene 1
 62
   179
420
  1709851
370
    13
100
AcDbVertex
100
AcDb2dVertex
 10
175.9058864577596
 20
-184.6970811170202
 30
0.0
  0
SEQEND
  5
489
330
485
100
AcDbEntity
  8
Ebene 1
370
    13
  0
POLYLINE
  5
48A
330
1F
100
AcDbEntity
  8
Ebene 1
 62
   179
420
  1709851
370
    13
100
AcDb2dPolyline
 66
     1
 10
0.0
 20
0.0
 30
0.0
  0
VERTEX
  5
48B
330
48A
100
AcDbEntity
  8
Ebene 1
 62
   179
420
  1709851
370
    13
100
AcDbVertex
100
AcDb2dVertex
 10
176.3079291008883
 20
-185.0567490856803
 30
0.0
  0
VERTEX
  5
48C
330
48A
100
AcDbEntity
  8
Ebene 1
 62
   179
420
  1709851
370
    13
100
AcDbVertex
100
AcDb2dVertex
 10
176.3079291008883
 20
-185.0567490856803
 30
0.0
  0
VERTEX
  5
48D
330
48A
100
AcDbEntity
  8
Ebene 1
 62
   179
420
  1709851
370
    13
100
AcDbVertex
100
AcDb2dVertex
 10
176.3503037753569
 20
-184.7391112819402
 30
0.0
  0
SEQEND
  5
48E
330
48A
100
AcDbEntity
  8
Ebene 1
370
    13
  0
POLYLINE
  5
48F
330
1F
100
AcDbEntity
  8
Ebene 1
 62
   179
420
  1709851
370
    13
100
AcDb2dPolyline
 66
     1
 10
0.0
 20
0.0
 30
0.0
  0
VERTEX
  5
490
330
48F
100
AcDbEntity
  8
Ebene 1
 62
   179
420
  1709851
370
    13
100
AcDbVertex
100
AcDb2dVertex
 10
176.2021646694911
 20
-185.0567490856803
 30
0.0
  0
VERTEX
  5
491
330
48F
100
AcDbEntity
  8
Ebene 1
 62
   179
420
  1709851
370
    13
100
AcDbVertex
100
AcDb2dVertex
 10
176.2021646694911
 20
-185.0567490856803
 30
0.0
  0
VERTEX
  5
492
330
48F
100
AcDbEntity
  8
Ebene 1
 62
   179
420
  1709851
370
    13
100
AcDbVertex
100
AcDb2dVertex
 10
176.2445393439597
 20
-184.7391112819402
 30
0.0
  0
SEQEND
  5
493
330
48F
100
AcDbEntity
  8
Ebene 1
370
    13
  0
POLYLINE
  5
494
330
1F
100
AcDbEntity
  8
Ebene 1
 62
   179
420
  1709851
370
    13
100
AcDb2dPolyline
 66
     1
 10
0.0
 20
0.0
 30
0.0
  0
VERTEX
  5
495
330
494
100
AcDbEntity
  8
Ebene 1
 62
   179
420
  1709851
370
    13
100
AcDbVertex
100
AcDb2dVertex
 10
175.7787624343539
 20
-185.0567490856803
 30
0.0
  0
VERTEX
  5
496
330
494
100
AcDbEntity
  8
Ebene 1
 62
   179
420
  1709851
370
    13
100
AcDbVertex
100
AcDb2dVertex
 10
175.7787624343539
 20
-185.0567490856803
 30
0.0
  0
VERTEX
  5
497
330
494
100
AcDbEntity
  8
Ebene 1
 62
   179
420
  1709851
370
    13
100
AcDbVertex
100
AcDb2dVertex
 10
175.8211371088225
 20
-184.6970811170202
 30
0.0
  0
SEQEND
  5
498
330
494
100
AcDbEntity
  8
Ebene 1
370
    13
  0
POLYLINE
  5
499
330
1F
100
AcDbEntity
  8
Ebene 1
 62
   179
420
  1709851
370
    13
100
AcDb2dPolyline
 66
     1
 10
0.0
 20
0.0
 30
0.0
  0
VERTEX
  5
49A
330
499
100
AcDbEntity
  8
Ebene 1
 62
   179
420
  1709851
370
    13
100
AcDbVertex
100
AcDb2dVertex
 10
175.6729980029567
 20
-185.0567490856803
 30
0.0
  0
VERTEX
  5
49B
330
499
100
AcDbEntity
  8
Ebene 1
 62
   179
420
  1709851
370
    13
100
AcDbVertex
100
AcDb2dVertex
 10
175.6729980029567
 20
-185.0567490856803
 30
0.0
  0
VERTEX
  5
49C
330
499
100
AcDbEntity
  8
Ebene 1
 62
   179
420
  1709851
370
    13
100
AcDbVertex
100
AcDb2dVertex
 10
175.7153726774253
 20
-184.6757215250116
 30
0.0
  0
SEQEND
  5
49D
330
499
100
AcDbEntity
  8
Ebene 1
370
    13
  0
POLYLINE
  5
49E
330
1F
100
AcDbEntity
  8
Ebene 1
 62
   179
420
  1709851
370
    13
100
AcDb2dPolyline
 66
     1
 10
0.0
 20
0.0
 30
0.0
  0
VERTEX
  5
49F
330
49E
100
AcDbEntity
  8
Ebene 1
 62
   179
420
  1709851
370
    13
100
AcDbVertex
100
AcDb2dVertex
 10
175.5672335715596
 20
-185.0567490856803
 30
0.0
  0
VERTEX
  5
4A0
330
49E
100
AcDbEntity
  8
Ebene 1
 62
   179
420
  1709851
370
    13
100
AcDbVertex
100
AcDb2dVertex
 10
175.5672335715596
 20
-185.0567490856803
 30
0.0
  0
VERTEX
  5
4A1
330
49E
100
AcDbEntity
  8
Ebene 1
 62
   179
420
  1709851
370
    13
100
AcDbVertex
100
AcDb2dVertex
 10
175.6096082460282
 20
-184.6757215250116
 30
0.0
  0
SEQEND
  5
4A2
330
49E
100
AcDbEntity
  8
Ebene 1
370
    13
  0
POLYLINE
  5
4A3
330
1F
100
AcDbEntity
  8
Ebene 1
 62
   179
420
  1709851
370
    13
100
AcDb2dPolyline
 66
     1
 10
0.0
 20
0.0
 30
0.0
  0
VERTEX
  5
4A4
330
4A3
100
AcDbEntity
  8
Ebene 1
 62
   179
420
  1709851
370
    13
100
AcDbVertex
100
AcDb2dVertex
 10
175.4614691401624
 20
-185.0567490856803
 30
0.0
  0
VERTEX
  5
4A5
330
4A3
100
AcDbEntity
  8
Ebene 1
 62
   179
420
  1709851
370
    13
100
AcDbVertex
100
AcDb2dVertex
 10
175.4614691401624
 20
-185.0567490856803
 30
0.0
  0
VERTEX
  5
4A6
330
4A3
100
AcDbEntity
  8
Ebene 1
 62
   179
420
  1709851
370
    13
100
AcDbVertex
100
AcDb2dVertex
 10
175.5031547955339
 20
-184.6757215250116
 30
0.0
  0
SEQEND
  5
4A7
330
4A3
100
AcDbEntity
  8
Ebene 1
370
    13
  0
POLYLINE
  5
4A8
330
1F
100
AcDbEntity
  8
Ebene 1
 62
   179
420
  1709851
370
    13
100
AcDb2dPolyline
 66
     1
 10
0.0
 20
0.0
 30
0.0
  0
VERTEX
  5
4A9
330
4A8
100
AcDbEntity
  8
Ebene 1
 62
   179
420
  1709851
370
    13
100
AcDbVertex
100
AcDb2dVertex
 10
175.3550156896682
 20
-185.0567490856803
 30
0.0
  0
VERTEX
  5
4AA
330
4A8
100
AcDbEntity
  8
Ebene 1
 62
   179
420
  1709851
370
    13
100
AcDbVertex
100
AcDb2dVertex
 10
175.3550156896682
 20
-185.0567490856803
 30
0.0
  0
VERTEX
  5
4AB
330
4A8
100
AcDbEntity
  8
Ebene 1
 62
   179
420
  1709851
370
    13
100
AcDbVertex
100
AcDb2dVertex
 10
175.3973903641368
 20
-184.6543619330031
 30
0.0
  0
SEQEND
  5
4AC
330
4A8
100
AcDbEntity
  8
Ebene 1
370
    13
  0
POLYLINE
  5
4AD
330
1F
100
AcDbEntity
  8
Ebene 1
 62
   179
420
  1709851
370
    13
100
AcDb2dPolyline
 66
     1
 10
0.0
 20
0.0
 30
0.0
  0
VERTEX
  5
4AE
330
4AD
100
AcDbEntity
  8
Ebene 1
 62
   179
420
  1709851
370
    13
100
AcDbVertex
100
AcDb2dVertex
 10
176.413349022737
 20
-185.0567490856803
 30
0.0
  0
VERTEX
  5
4AF
330
4AD
100
AcDbEntity
  8
Ebene 1
 62
   179
420
  1709851
370
    13
100
AcDbVertex
100
AcDb2dVertex
 10
176.413349022737
 20
-185.0567490856803
 30
0.0
  0
VERTEX
  5
4B0
330
4AD
100
AcDbEntity
  8
Ebene 1
 62
   179
420
  1709851
370
    13
100
AcDbVertex
100
AcDb2dVertex
 10
176.4557236972055
 20
-184.6543619330031
 30
0.0
  0
SEQEND
  5
4B1
330
4AD
100
AcDbEntity
  8
Ebene 1
370
    13
  0
POLYLINE
  5
4B2
330
1F
100
AcDbEntity
  8
Ebene 1
 62
   179
420
  1709851
370
    13
100
AcDb2dPolyline
 66
     1
 10
0.0
 20
0.0
 30
0.0
  0
VERTEX
  5
4B3
330
4B2
100
AcDbEntity
  8
Ebene 1
 62
   179
420
  1709851
370
    13
100
AcDbVertex
100
AcDb2dVertex
 10
176.5831922301598
 20
-185.0567490856803
 30
0.0
  0
VERTEX
  5
4B4
330
4B2
100
AcDbEntity
  8
Ebene 1
 62
   179
420
  1709851
370
    13
100
AcDbVertex
100
AcDb2dVertex
 10
176.5831922301598
 20
-185.0567490856803
 30
0.0
  0
VERTEX
  5
4B5
330
4B2
100
AcDbEntity
  8
Ebene 1
 62
   179
420
  1709851
370
    13
100
AcDbVertex
100
AcDb2dVertex
 10
176.5831922301598
 20
-184.6543619330031
 30
0.0
  0
SEQEND
  5
4B6
330
4B2
100
AcDbEntity
  8
Ebene 1
370
    13
  0
POLYLINE
  5
4B7
330
1F
100
AcDbEntity
  8
Ebene 1
 62
   179
420
  1709851
370
    13
100
AcDb2dPolyline
 66
     1
 10
0.0
 20
0.0
 30
0.0
  0
VERTEX
  5
4B8
330
4B7
100
AcDbEntity
  8
Ebene 1
 62
   179
420
  1709851
370
    13
100
AcDbVertex
100
AcDb2dVertex
 10
176.4774277987626
 20
-185.0567490856803
 30
0.0
  0
VERTEX
  5
4B9
330
4B7
100
AcDbEntity
  8
Ebene 1
 62
   179
420
  1709851
370
    13
100
AcDbVertex
100
AcDb2dVertex
 10
176.4774277987626
 20
-185.0567490856803
 30
0.0
  0
VERTEX
  5
4BA
330
4B7
100
AcDbEntity
  8
Ebene 1
 62
   179
420
  1709851
370
    13
100
AcDbVertex
100
AcDb2dVertex
 10
176.4774277987626
 20
-184.6543619330031
 30
0.0
  0
SEQEND
  5
4BB
330
4B7
100
AcDbEntity
  8
Ebene 1
370
    13
  0
POLYLINE
  5
4BC
330
1F
100
AcDbEntity
  8
Ebene 1
 62
   179
420
  1709851
370
    13
100
AcDb2dPolyline
 66
     1
 10
0.0
 20
0.0
 30
0.0
  0
VERTEX
  5
4BD
330
4BC
100
AcDbEntity
  8
Ebene 1
 62
   179
420
  1709851
370
    13
100
AcDbVertex
100
AcDb2dVertex
 10
176.6462374775398
 20
-116.9635755458459
 30
0.0
  0
VERTEX
  5
4BE
330
4BC
100
AcDbEntity
  8
Ebene 1
 62
   179
420
  1709851
370
    13
100
AcDbVertex
100
AcDb2dVertex
 10
176.7096272344684
 20
-116.9212008713773
 30
0.0
  0
VERTEX
  5
4BF
330
4BC
100
AcDbEntity
  8
Ebene 1
 62
   179
420
  1709851
370
    13
100
AcDbVertex
100
AcDb2dVertex
 10
176.7096272344684
 20
-116.8998412793688
 30
0.0
  0
SEQEND
  5
4C0
330
4BC
100
AcDbEntity
  8
Ebene 1
370
    13
  0
POLYLINE
  5
4C1
330
1F
100
AcDbEntity
  8
Ebene 1
 62
   179
420
  1709851
370
    13
100
AcDb2dPolyline
 66
     1
 10
0.0
 20
0.0
 30
0.0
  0
VERTEX
  5
4C2
330
4C1
100
AcDbEntity
  8
Ebene 1
 62
   179
420
  1709851
370
    13
100
AcDbVertex
100
AcDb2dVertex
 10
176.7096272344684
 20
-115.2279364403771
 30
0.0
  0
VERTEX
  5
4C3
330
4C1
100
AcDbEntity
  8
Ebene 1
 62
   179
420
  1709851
370
    13
100
AcDbVertex
100
AcDb2dVertex
 10
176.6679415790969
 20
-115.1642021738999
 30
0.0
  0
VERTEX
  5
4C4
330
4C1
100
AcDbEntity
  8
Ebene 1
 62
   179
420
  1709851
370
    13
100
AcDbVertex
100
AcDb2dVertex
 10
176.6462374775398
 20
-115.1642021738999
 30
0.0
  0
SEQEND
  5
4C5
330
4C1
100
AcDbEntity
  8
Ebene 1
370
    13
  0
POLYLINE
  5
4C6
330
1F
100
AcDbEntity
  8
Ebene 1
 62
   179
420
  1709851
370
    13
100
AcDb2dPolyline
 66
     1
 10
0.0
 20
0.0
 30
0.0
  0
VERTEX
  5
4C7
330
4C6
100
AcDbEntity
  8
Ebene 1
 62
   179
420
  1709851
370
    13
100
AcDbVertex
100
AcDb2dVertex
 10
176.5831922301598
 20
-116.2649101814372
 30
0.0
  0
VERTEX
  5
4C8
330
4C6
100
AcDbEntity
  8
Ebene 1
 62
   179
420
  1709851
370
    13
100
AcDbVertex
100
AcDb2dVertex
 10
176.5831922301598
 20
-115.8628675383086
 30
0.0
  0
SEQEND
  5
4C9
330
4C6
100
AcDbEntity
  8
Ebene 1
370
    13
  0
POLYLINE
  5
4CA
330
1F
100
AcDbEntity
  8
Ebene 1
 62
   179
420
  1709851
370
    13
100
AcDb2dPolyline
 66
     1
 10
0.0
 20
0.0
 30
0.0
  0
VERTEX
  5
4CB
330
4CA
100
AcDbEntity
  8
Ebene 1
 62
   179
420
  1709851
370
    13
100
AcDbVertex
100
AcDb2dVertex
 10
176.4774277987626
 20
-116.2649101814372
 30
0.0
  0
VERTEX
  5
4CC
330
4CA
100
AcDbEntity
  8
Ebene 1
 62
   179
420
  1709851
370
    13
100
AcDbVertex
100
AcDb2dVertex
 10
176.4774277987626
 20
-115.8628675383086
 30
0.0
  0
SEQEND
  5
4CD
330
4CA
100
AcDbEntity
  8
Ebene 1
370
    13
  0
POLYLINE
  5
4CE
330
1F
100
AcDbEntity
  8
Ebene 1
 62
   179
420
  1709851
370
    13
100
AcDb2dPolyline
 66
     1
 10
0.0
 20
0.0
 30
0.0
  0
VERTEX
  5
4CF
330
4CE
100
AcDbEntity
  8
Ebene 1
 62
   179
420
  1709851
370
    13
100
AcDbVertex
100
AcDb2dVertex
 10
176.413349022737
 20
-116.2649101814372
 30
0.0
  0
VERTEX
  5
4D0
330
4CE
100
AcDbEntity
  8
Ebene 1
 62
   179
420
  1709851
370
    13
100
AcDbVertex
100
AcDb2dVertex
 10
176.4557236972055
 20
-115.8628675383086
 30
0.0
  0
SEQEND
  5
4D1
330
4CE
100
AcDbEntity
  8
Ebene 1
370
    13
  0
POLYLINE
  5
4D2
330
1F
100
AcDbEntity
  8
Ebene 1
 62
   179
420
  1709851
370
    13
100
AcDb2dPolyline
 66
     1
 10
0.0
 20
0.0
 30
0.0
  0
VERTEX
  5
4D3
330
4D2
100
AcDbEntity
  8
Ebene 1
 62
   179
420
  1709851
370
    13
100
AcDbVertex
100
AcDb2dVertex
 10
176.3079291008883
 20
-116.2649101814372
 30
0.0
  0
VERTEX
  5
4D4
330
4D2
100
AcDbEntity
  8
Ebene 1
 62
   179
420
  1709851
370
    13
100
AcDbVertex
100
AcDb2dVertex
 10
176.3503037753569
 20
-115.8628675383086
 30
0.0
  0
SEQEND
  5
4D5
330
4D2
100
AcDbEntity
  8
Ebene 1
370
    13
  0
POLYLINE
  5
4D6
330
1F
100
AcDbEntity
  8
Ebene 1
 62
   179
420
  1709851
370
    13
100
AcDb2dPolyline
 66
     1
 10
0.0
 20
0.0
 30
0.0
  0
VERTEX
  5
4D7
330
4D6
100
AcDbEntity
  8
Ebene 1
 62
   179
420
  1709851
370
    13
100
AcDbVertex
100
AcDb2dVertex
 10
176.2021646694911
 20
-116.2649101814372
 30
0.0
  0
VERTEX
  5
4D8
330
4D6
100
AcDbEntity
  8
Ebene 1
 62
   179
420
  1709851
370
    13
100
AcDbVertex
100
AcDb2dVertex
 10
176.2445393439597
 20
-115.8628675383086
 30
0.0
  0
SEQEND
  5
4D9
330
4D6
100
AcDbEntity
  8
Ebene 1
370
    13
  0
POLYLINE
  5
4DA
330
1F
100
AcDbEntity
  8
Ebene 1
 62
   179
420
  1709851
370
    13
100
AcDb2dPolyline
 66
     1
 10
0.0
 20
0.0
 30
0.0
  0
VERTEX
  5
4DB
330
4DA
100
AcDbEntity
  8
Ebene 1
 62
   179
420
  1709851
370
    13
100
AcDbVertex
100
AcDb2dVertex
 10
176.096400238094
 20
-116.2649101814372
 30
0.0
  0
VERTEX
  5
4DC
330
4DA
100
AcDbEntity
  8
Ebene 1
 62
   179
420
  1709851
370
    13
100
AcDbVertex
100
AcDb2dVertex
 10
176.1387749125625
 20
-115.8628675383086
 30
0.0
  0
SEQEND
  5
4DD
330
4DA
100
AcDbEntity
  8
Ebene 1
370
    13
  0
POLYLINE
  5
4DE
330
1F
100
AcDbEntity
  8
Ebene 1
 62
   179
420
  1709851
370
    13
100
AcDb2dPolyline
 66
     1
 10
0.0
 20
0.0
 30
0.0
  0
VERTEX
  5
4DF
330
4DE
100
AcDbEntity
  8
Ebene 1
 62
   179
420
  1709851
370
    13
100
AcDbVertex
100
AcDb2dVertex
 10
175.9906358066968
 20
-116.2649101814372
 30
0.0
  0
VERTEX
  5
4E0
330
4DE
100
AcDbEntity
  8
Ebene 1
 62
   179
420
  1709851
370
    13
100
AcDbVertex
100
AcDb2dVertex
 10
176.0323214620683
 20
-115.8628675383086
 30
0.0
  0
SEQEND
  5
4E1
330
4DE
100
AcDbEntity
  8
Ebene 1
370
    13
  0
POLYLINE
  5
4E2
330
1F
100
AcDbEntity
  8
Ebene 1
 62
   179
420
  1709851
370
    13
100
AcDb2dPolyline
 66
     1
 10
0.0
 20
0.0
 30
0.0
  0
VERTEX
  5
4E3
330
4E2
100
AcDbEntity
  8
Ebene 1
 62
   179
420
  1709851
370
    13
100
AcDbVertex
100
AcDb2dVertex
 10
175.8841823562026
 20
-116.2649101814372
 30
0.0
  0
VERTEX
  5
4E4
330
4E2
100
AcDbEntity
  8
Ebene 1
 62
   179
420
  1709851
370
    13
100
AcDbVertex
100
AcDb2dVertex
 10
175.9265570306711
 20
-115.8628675383086
 30
0.0
  0
SEQEND
  5
4E5
330
4E2
100
AcDbEntity
  8
Ebene 1
370
    13
  0
POLYLINE
  5
4E6
330
1F
100
AcDbEntity
  8
Ebene 1
 62
   179
420
  1709851
370
    13
100
AcDb2dPolyline
 66
     1
 10
0.0
 20
0.0
 30
0.0
  0
VERTEX
  5
4E7
330
4E6
100
AcDbEntity
  8
Ebene 1
 62
   179
420
  1709851
370
    13
100
AcDbVertex
100
AcDb2dVertex
 10
175.7787624343539
 20
-116.2649101814372
 30
0.0
  0
VERTEX
  5
4E8
330
4E6
100
AcDbEntity
  8
Ebene 1
 62
   179
420
  1709851
370
    13
100
AcDbVertex
100
AcDb2dVertex
 10
175.8211371088225
 20
-115.8628675383086
 30
0.0
  0
SEQEND
  5
4E9
330
4E6
100
AcDbEntity
  8
Ebene 1
370
    13
  0
POLYLINE
  5
4EA
330
1F
100
AcDbEntity
  8
Ebene 1
 62
   179
420
  1709851
370
    13
100
AcDb2dPolyline
 66
     1
 10
0.0
 20
0.0
 30
0.0
  0
VERTEX
  5
4EB
330
4EA
100
AcDbEntity
  8
Ebene 1
 62
   179
420
  1709851
370
    13
100
AcDbVertex
100
AcDb2dVertex
 10
175.6729980029567
 20
-116.2649101814372
 30
0.0
  0
VERTEX
  5
4EC
330
4EA
100
AcDbEntity
  8
Ebene 1
 62
   179
420
  1709851
370
    13
100
AcDbVertex
100
AcDb2dVertex
 10
175.7153726774253
 20
-115.8628675383086
 30
0.0
  0
SEQEND
  5
4ED
330
4EA
100
AcDbEntity
  8
Ebene 1
370
    13
  0
POLYLINE
  5
4EE
330
1F
100
AcDbEntity
  8
Ebene 1
 62
   179
420
  1709851
370
    13
100
AcDb2dPolyline
 66
     1
 10
0.0
 20
0.0
 30
0.0
  0
VERTEX
  5
4EF
330
4EE
100
AcDbEntity
  8
Ebene 1
 62
   179
420
  1709851
370
    13
100
AcDbVertex
100
AcDb2dVertex
 10
175.5672335715596
 20
-116.2649101814372
 30
0.0
  0
VERTEX
  5
4F0
330
4EE
100
AcDbEntity
  8
Ebene 1
 62
   179
420
  1709851
370
    13
100
AcDbVertex
100
AcDb2dVertex
 10
175.6096082460282
 20
-115.8628675383086
 30
0.0
  0
SEQEND
  5
4F1
330
4EE
100
AcDbEntity
  8
Ebene 1
370
    13
  0
POLYLINE
  5
4F2
330
1F
100
AcDbEntity
  8
Ebene 1
 62
   179
420
  1709851
370
    13
100
AcDb2dPolyline
 66
     1
 10
0.0
 20
0.0
 30
0.0
  0
VERTEX
  5
4F3
330
4F2
100
AcDbEntity
  8
Ebene 1
 62
   179
420
  1709851
370
    13
100
AcDbVertex
100
AcDb2dVertex
 10
175.4614691401624
 20
-116.2649101814372
 30
0.0
  0
VERTEX
  5
4F4
330
4F2
100
AcDbEntity
  8
Ebene 1
 62
   179
420
  1709851
370
    13
100
AcDbVertex
100
AcDb2dVertex
 10
175.5034993050825
 20
-115.8628675383086
 30
0.0
  0
SEQEND
  5
4F5
330
4F2
100
AcDbEntity
  8
Ebene 1
370
    13
  0
POLYLINE
  5
4F6
330
1F
100
AcDbEntity
  8
Ebene 1
 62
   179
420
  1709851
370
    13
100
AcDb2dPolyline
 66
     1
 10
0.0
 20
0.0
 30
0.0
  0
VERTEX
  5
4F7
330
4F6
100
AcDbEntity
  8
Ebene 1
 62
   179
420
  1709851
370
    13
100
AcDbVertex
100
AcDb2dVertex
 10
175.3129855247481
 20
-116.2649101814372
 30
0.0
  0
VERTEX
  5
4F8
330
4F6
100
AcDbEntity
  8
Ebene 1
 62
   179
420
  1709851
370
    13
100
AcDbVertex
100
AcDb2dVertex
 10
176.709971744017
 20
-116.2649101814372
 30
0.0
  0
SEQEND
  5
4F9
330
4F6
100
AcDbEntity
  8
Ebene 1
370
    13
  0
POLYLINE
  5
4FA
330
1F
100
AcDbEntity
  8
Ebene 1
 62
   179
420
  1709851
370
    13
100
AcDb2dPolyline
 66
     1
 10
0.0
 20
0.0
 30
0.0
  0
VERTEX
  5
4FB
330
4FA
100
AcDbEntity
  8
Ebene 1
 62
   179
420
  1709851
370
    13
100
AcDbVertex
100
AcDb2dVertex
 10
175.3129855247481
 20
-115.8628675383086
 30
0.0
  0
VERTEX
  5
4FC
330
4FA
100
AcDbEntity
  8
Ebene 1
 62
   179
420
  1709851
370
    13
100
AcDbVertex
100
AcDb2dVertex
 10
176.709971744017
 20
-115.8628675383086
 30
0.0
  0
SEQEND
  5
4FD
330
4FA
100
AcDbEntity
  8
Ebene 1
370
    13
  0
POLYLINE
  5
4FE
330
1F
100
AcDbEntity
  8
Ebene 1
 62
   179
420
  1709851
370
    13
100
AcDb2dPolyline
 66
     1
 10
0.0
 20
0.0
 30
0.0
  0
VERTEX
  5
4FF
330
4FE
100
AcDbEntity
  8
Ebene 1
 62
   179
420
  1709851
370
    13
100
AcDbVertex
100
AcDb2dVertex
 10
176.3503037753569
 20
-115.3760755462428
 30
0.0
  0
VERTEX
  5
500
330
4FE
100
AcDbEntity
  8
Ebene 1
 62
   179
420
  1709851
370
    13
100
AcDbVertex
100
AcDb2dVertex
 10
175.3129855247481
 20
-115.3760755462428
 30
0.0
  0
SEQEND
  5
501
330
4FE
100
AcDbEntity
  8
Ebene 1
370
    13
  0
POLYLINE
  5
502
330
1F
100
AcDbEntity
  8
Ebene 1
 62
   179
420
  1709851
370
    13
100
AcDb2dPolyline
 66
     1
 10
0.0
 20
0.0
 30
0.0
  0
VERTEX
  5
503
330
502
100
AcDbEntity
  8
Ebene 1
 62
   179
420
  1709851
370
    13
100
AcDbVertex
100
AcDb2dVertex
 10
176.3503037753569
 20
-116.2649101814372
 30
0.0
  0
VERTEX
  5
504
330
502
100
AcDbEntity
  8
Ebene 1
 62
   179
420
  1709851
370
    13
100
AcDbVertex
100
AcDb2dVertex
 10
176.3503037753569
 20
-116.7730617655116
 30
0.0
  0
SEQEND
  5
505
330
502
100
AcDbEntity
  8
Ebene 1
370
    13
  0
POLYLINE
  5
506
330
1F
100
AcDbEntity
  8
Ebene 1
 62
   179
420
  1709851
370
    13
100
AcDb2dPolyline
 66
     1
 10
0.0
 20
0.0
 30
0.0
  0
VERTEX
  5
507
330
506
100
AcDbEntity
  8
Ebene 1
 62
   179
420
  1709851
370
    13
100
AcDbVertex
100
AcDb2dVertex
 10
176.3503037753569
 20
-115.3760755462428
 30
0.0
  0
VERTEX
  5
508
330
506
100
AcDbEntity
  8
Ebene 1
 62
   179
420
  1709851
370
    13
100
AcDbVertex
100
AcDb2dVertex
 10
176.3503037753569
 20
-115.8628675383086
 30
0.0
  0
SEQEND
  5
509
330
506
100
AcDbEntity
  8
Ebene 1
370
    13
  0
POLYLINE
  5
50A
330
1F
100
AcDbEntity
  8
Ebene 1
 62
   179
420
  1709851
370
    13
100
AcDb2dPolyline
 66
     1
 10
0.0
 20
0.0
 30
0.0
  0
VERTEX
  5
50B
330
50A
100
AcDbEntity
  8
Ebene 1
 62
   179
420
  1709851
370
    13
100
AcDbVertex
100
AcDb2dVertex
 10
176.3503037753569
 20
-115.3760755462428
 30
0.0
  0
VERTEX
  5
50C
330
50A
100
AcDbEntity
  8
Ebene 1
 62
   179
420
  1709851
370
    13
100
AcDbVertex
100
AcDb2dVertex
 10
176.5408175556912
 20
-115.1642021738999
 30
0.0
  0
VERTEX
  5
50D
330
50A
100
AcDbEntity
  8
Ebene 1
 62
   179
420
  1709851
370
    13
100
AcDbVertex
100
AcDb2dVertex
 10
176.6462374775398
 20
-115.1642021738999
 30
0.0
  0
SEQEND
  5
50E
330
50A
100
AcDbEntity
  8
Ebene 1
370
    13
  0
POLYLINE
  5
50F
330
1F
100
AcDbEntity
  8
Ebene 1
 62
   179
420
  1709851
370
    13
100
AcDb2dPolyline
 66
     1
 10
0.0
 20
0.0
 30
0.0
  0
VERTEX
  5
510
330
50F
100
AcDbEntity
  8
Ebene 1
 62
   179
420
  1709851
370
    13
100
AcDbVertex
100
AcDb2dVertex
 10
176.5408175556912
 20
-115.8628675383086
 30
0.0
  0
VERTEX
  5
511
330
50F
100
AcDbEntity
  8
Ebene 1
 62
   179
420
  1709851
370
    13
100
AcDbVertex
100
AcDb2dVertex
 10
176.5408175556912
 20
-115.1642021738999
 30
0.0
  0
SEQEND
  5
512
330
50F
100
AcDbEntity
  8
Ebene 1
370
    13
  0
POLYLINE
  5
513
330
1F
100
AcDbEntity
  8
Ebene 1
 62
   179
420
  1709851
370
    13
100
AcDb2dPolyline
 66
     1
 10
0.0
 20
0.0
 30
0.0
  0
VERTEX
  5
514
330
513
100
AcDbEntity
  8
Ebene 1
 62
   179
420
  1709851
370
    13
100
AcDbVertex
100
AcDb2dVertex
 10
176.5408175556912
 20
-116.9635755458459
 30
0.0
  0
VERTEX
  5
515
330
513
100
AcDbEntity
  8
Ebene 1
 62
   179
420
  1709851
370
    13
100
AcDbVertex
100
AcDb2dVertex
 10
176.5408175556912
 20
-116.2649101814372
 30
0.0
  0
SEQEND
  5
516
330
513
100
AcDbEntity
  8
Ebene 1
370
    13
  0
POLYLINE
  5
517
330
1F
100
AcDbEntity
  8
Ebene 1
 62
   179
420
  1709851
370
    13
100
AcDb2dPolyline
 66
     1
 10
0.0
 20
0.0
 30
0.0
  0
VERTEX
  5
518
330
517
100
AcDbEntity
  8
Ebene 1
 62
   179
420
  1709851
370
    13
100
AcDbVertex
100
AcDb2dVertex
 10
176.709971744017
 20
-116.8998412793688
 30
0.0
  0
VERTEX
  5
519
330
517
100
AcDbEntity
  8
Ebene 1
 62
   179
420
  1709851
370
    13
100
AcDbVertex
100
AcDb2dVertex
 10
176.709971744017
 20
-115.2279364403771
 30
0.0
  0
SEQEND
  5
51A
330
517
100
AcDbEntity
  8
Ebene 1
370
    13
  0
POLYLINE
  5
51B
330
1F
100
AcDbEntity
  8
Ebene 1
 62
   179
420
  1709851
370
    13
100
AcDb2dPolyline
 66
     1
 10
0.0
 20
0.0
 30
0.0
  0
VERTEX
  5
51C
330
51B
100
AcDbEntity
  8
Ebene 1
 62
   179
420
  1709851
370
    13
100
AcDbVertex
100
AcDb2dVertex
 10
175.3129855247481
 20
-116.7730617655116
 30
0.0
  0
VERTEX
  5
51D
330
51B
100
AcDbEntity
  8
Ebene 1
 62
   179
420
  1709851
370
    13
100
AcDbVertex
100
AcDb2dVertex
 10
176.3503037753569
 20
-116.7730617655116
 30
0.0
  0
VERTEX
  5
51E
330
51B
100
AcDbEntity
  8
Ebene 1
 62
   179
420
  1709851
370
    13
100
AcDbVertex
100
AcDb2dVertex
 10
176.5408175556912
 20
-116.9635755458459
 30
0.0
  0
VERTEX
  5
51F
330
51B
100
AcDbEntity
  8
Ebene 1
 62
   179
420
  1709851
370
    13
100
AcDbVertex
100
AcDb2dVertex
 10
176.6462374775398
 20
-116.9635755458459
 30
0.0
  0
SEQEND
  5
520
330
51B
100
AcDbEntity
  8
Ebene 1
370
    13
  0
POLYLINE
  5
521
330
1F
100
AcDbEntity
  8
Ebene 1
 62
   179
420
  1709851
370
    13
100
AcDb2dPolyline
 66
     1
 10
0.0
 20
0.0
 30
0.0
  0
VERTEX
  5
522
330
521
100
AcDbEntity
  8
Ebene 1
 62
   179
420
  1709851
370
    13
100
AcDbVertex
100
AcDb2dVertex
 10
176.096400238094
 20
-116.2649101814372
 30
0.0
  0
VERTEX
  5
523
330
521
100
AcDbEntity
  8
Ebene 1
 62
   179
420
  1709851
370
    13
100
AcDbVertex
100
AcDb2dVertex
 10
176.096400238094
 20
-116.2649101814372
 30
0.0
  0
VERTEX
  5
524
330
521
100
AcDbEntity
  8
Ebene 1
 62
   179
420
  1709851
370
    13
100
AcDbVertex
100
AcDb2dVertex
 10
176.1387749125625
 20
-115.8628675383086
 30
0.0
  0
SEQEND
  5
525
330
521
100
AcDbEntity
  8
Ebene 1
370
    13
  0
POLYLINE
  5
526
330
1F
100
AcDbEntity
  8
Ebene 1
 62
   179
420
  1709851
370
    13
100
AcDb2dPolyline
 66
     1
 10
0.0
 20
0.0
 30
0.0
  0
VERTEX
  5
527
330
526
100
AcDbEntity
  8
Ebene 1
 62
   179
420
  1709851
370
    13
100
AcDbVertex
100
AcDb2dVertex
 10
175.9906358066968
 20
-116.2649101814372
 30
0.0
  0
VERTEX
  5
528
330
526
100
AcDbEntity
  8
Ebene 1
 62
   179
420
  1709851
370
    13
100
AcDbVertex
100
AcDb2dVertex
 10
175.9906358066968
 20
-116.2649101814372
 30
0.0
  0
VERTEX
  5
529
330
526
100
AcDbEntity
  8
Ebene 1
 62
   179
420
  1709851
370
    13
100
AcDbVertex
100
AcDb2dVertex
 10
176.0326659716168
 20
-115.8628675383086
 30
0.0
  0
SEQEND
  5
52A
330
526
100
AcDbEntity
  8
Ebene 1
370
    13
  0
POLYLINE
  5
52B
330
1F
100
AcDbEntity
  8
Ebene 1
 62
   179
420
  1709851
370
    13
100
AcDb2dPolyline
 66
     1
 10
0.0
 20
0.0
 30
0.0
  0
VERTEX
  5
52C
330
52B
100
AcDbEntity
  8
Ebene 1
 62
   179
420
  1709851
370
    13
100
AcDbVertex
100
AcDb2dVertex
 10
175.8841823562026
 20
-116.2649101814372
 30
0.0
  0
VERTEX
  5
52D
330
52B
100
AcDbEntity
  8
Ebene 1
 62
   179
420
  1709851
370
    13
100
AcDbVertex
100
AcDb2dVertex
 10
175.8841823562026
 20
-116.2649101814372
 30
0.0
  0
VERTEX
  5
52E
330
52B
100
AcDbEntity
  8
Ebene 1
 62
   179
420
  1709851
370
    13
100
AcDbVertex
100
AcDb2dVertex
 10
175.9265570306711
 20
-115.8628675383086
 30
0.0
  0
SEQEND
  5
52F
330
52B
100
AcDbEntity
  8
Ebene 1
370
    13
  0
POLYLINE
  5
530
330
1F
100
AcDbEntity
  8
Ebene 1
 62
   179
420
  1709851
370
    13
100
AcDb2dPolyline
 66
     1
 10
0.0
 20
0.0
 30
0.0
  0
VERTEX
  5
531
330
530
100
AcDbEntity
  8
Ebene 1
 62
   179
420
  1709851
370
    13
100
AcDbVertex
100
AcDb2dVertex
 10
176.3079291008883
 20
-116.2649101814372
 30
0.0
  0
VERTEX
  5
532
330
530
100
AcDbEntity
  8
Ebene 1
 62
   179
420
  1709851
370
    13
100
AcDbVertex
100
AcDb2dVertex
 10
176.3079291008883
 20
-116.2649101814372
 30
0.0
  0
VERTEX
  5
533
330
530
100
AcDbEntity
  8
Ebene 1
 62
   179
420
  1709851
370
    13
100
AcDbVertex
100
AcDb2dVertex
 10
176.3503037753569
 20
-115.8628675383086
 30
0.0
  0
SEQEND
  5
534
330
530
100
AcDbEntity
  8
Ebene 1
370
    13
  0
POLYLINE
  5
535
330
1F
100
AcDbEntity
  8
Ebene 1
 62
   179
420
  1709851
370
    13
100
AcDb2dPolyline
 66
     1
 10
0.0
 20
0.0
 30
0.0
  0
VERTEX
  5
536
330
535
100
AcDbEntity
  8
Ebene 1
 62
   179
420
  1709851
370
    13
100
AcDbVertex
100
AcDb2dVertex
 10
176.2021646694911
 20
-116.2649101814372
 30
0.0
  0
VERTEX
  5
537
330
535
100
AcDbEntity
  8
Ebene 1
 62
   179
420
  1709851
370
    13
100
AcDbVertex
100
AcDb2dVertex
 10
176.2021646694911
 20
-116.2649101814372
 30
0.0
  0
VERTEX
  5
538
330
535
100
AcDbEntity
  8
Ebene 1
 62
   179
420
  1709851
370
    13
100
AcDbVertex
100
AcDb2dVertex
 10
176.2445393439597
 20
-115.8628675383086
 30
0.0
  0
SEQEND
  5
539
330
535
100
AcDbEntity
  8
Ebene 1
370
    13
  0
POLYLINE
  5
53A
330
1F
100
AcDbEntity
  8
Ebene 1
 62
   179
420
  1709851
370
    13
100
AcDb2dPolyline
 66
     1
 10
0.0
 20
0.0
 30
0.0
  0
VERTEX
  5
53B
330
53A
100
AcDbEntity
  8
Ebene 1
 62
   179
420
  1709851
370
    13
100
AcDbVertex
100
AcDb2dVertex
 10
175.7787624343539
 20
-116.2649101814372
 30
0.0
  0
VERTEX
  5
53C
330
53A
100
AcDbEntity
  8
Ebene 1
 62
   179
420
  1709851
370
    13
100
AcDbVertex
100
AcDb2dVertex
 10
175.7787624343539
 20
-116.2649101814372
 30
0.0
  0
VERTEX
  5
53D
330
53A
100
AcDbEntity
  8
Ebene 1
 62
   179
420
  1709851
370
    13
100
AcDbVertex
100
AcDb2dVertex
 10
175.8211371088225
 20
-115.8628675383086
 30
0.0
  0
SEQEND
  5
53E
330
53A
100
AcDbEntity
  8
Ebene 1
370
    13
  0
POLYLINE
  5
53F
330
1F
100
AcDbEntity
  8
Ebene 1
 62
   179
420
  1709851
370
    13
100
AcDb2dPolyline
 66
     1
 10
0.0
 20
0.0
 30
0.0
  0
VERTEX
  5
540
330
53F
100
AcDbEntity
  8
Ebene 1
 62
   179
420
  1709851
370
    13
100
AcDbVertex
100
AcDb2dVertex
 10
175.6729980029567
 20
-116.2649101814372
 30
0.0
  0
VERTEX
  5
541
330
53F
100
AcDbEntity
  8
Ebene 1
 62
   179
420
  1709851
370
    13
100
AcDbVertex
100
AcDb2dVertex
 10
175.6729980029567
 20
-116.2649101814372
 30
0.0
  0
VERTEX
  5
542
330
53F
100
AcDbEntity
  8
Ebene 1
 62
   179
420
  1709851
370
    13
100
AcDbVertex
100
AcDb2dVertex
 10
175.7153726774253
 20
-115.8628675383086
 30
0.0
  0
SEQEND
  5
543
330
53F
100
AcDbEntity
  8
Ebene 1
370
    13
  0
POLYLINE
  5
544
330
1F
100
AcDbEntity
  8
Ebene 1
 62
   179
420
  1709851
370
    13
100
AcDb2dPolyline
 66
     1
 10
0.0
 20
0.0
 30
0.0
  0
VERTEX
  5
545
330
544
100
AcDbEntity
  8
Ebene 1
 62
   179
420
  1709851
370
    13
100
AcDbVertex
100
AcDb2dVertex
 10
175.5672335715596
 20
-116.2649101814372
 30
0.0
  0
VERTEX
  5
546
330
544
100
AcDbEntity
  8
Ebene 1
 62
   179
420
  1709851
370
    13
100
AcDbVertex
100
AcDb2dVertex
 10
175.5672335715596
 20
-116.2649101814372
 30
0.0
  0
VERTEX
  5
547
330
544
100
AcDbEntity
  8
Ebene 1
 62
   179
420
  1709851
370
    13
100
AcDbVertex
100
AcDb2dVertex
 10
175.6096082460282
 20
-115.8628675383086
 30
0.0
  0
SEQEND
  5
548
330
544
100
AcDbEntity
  8
Ebene 1
370
    13
  0
POLYLINE
  5
549
330
1F
100
AcDbEntity
  8
Ebene 1
 62
   179
420
  1709851
370
    13
100
AcDb2dPolyline
 66
     1
 10
0.0
 20
0.0
 30
0.0
  0
VERTEX
  5
54A
330
549
100
AcDbEntity
  8
Ebene 1
 62
   179
420
  1709851
370
    13
100
AcDbVertex
100
AcDb2dVertex
 10
175.4614691401624
 20
-116.2649101814372
 30
0.0
  0
VERTEX
  5
54B
330
549
100
AcDbEntity
  8
Ebene 1
 62
   179
420
  1709851
370
    13
100
AcDbVertex
100
AcDb2dVertex
 10
175.4614691401624
 20
-116.2649101814372
 30
0.0
  0
VERTEX
  5
54C
330
549
100
AcDbEntity
  8
Ebene 1
 62
   179
420
  1709851
370
    13
100
AcDbVertex
100
AcDb2dVertex
 10
175.5031547955339
 20
-115.8628675383086
 30
0.0
  0
SEQEND
  5
54D
330
549
100
AcDbEntity
  8
Ebene 1
370
    13
  0
POLYLINE
  5
54E
330
1F
100
AcDbEntity
  8
Ebene 1
 62
   179
420
  1709851
370
    13
100
AcDb2dPolyline
 66
     1
 10
0.0
 20
0.0
 30
0.0
  0
VERTEX
  5
54F
330
54E
100
AcDbEntity
  8
Ebene 1
 62
   179
420
  1709851
370
    13
100
AcDbVertex
100
AcDb2dVertex
 10
176.413349022737
 20
-116.2649101814372
 30
0.0
  0
VERTEX
  5
550
330
54E
100
AcDbEntity
  8
Ebene 1
 62
   179
420
  1709851
370
    13
100
AcDbVertex
100
AcDb2dVertex
 10
176.413349022737
 20
-116.2649101814372
 30
0.0
  0
VERTEX
  5
551
330
54E
100
AcDbEntity
  8
Ebene 1
 62
   179
420
  1709851
370
    13
100
AcDbVertex
100
AcDb2dVertex
 10
176.4557236972055
 20
-115.8628675383086
 30
0.0
  0
SEQEND
  5
552
330
54E
100
AcDbEntity
  8
Ebene 1
370
    13
  0
POLYLINE
  5
553
330
1F
100
AcDbEntity
  8
Ebene 1
 62
   179
420
  1709851
370
    13
100
AcDb2dPolyline
 66
     1
 10
0.0
 20
0.0
 30
0.0
  0
VERTEX
  5
554
330
553
100
AcDbEntity
  8
Ebene 1
 62
   179
420
  1709851
370
    13
100
AcDbVertex
100
AcDb2dVertex
 10
176.5831922301598
 20
-116.1381306675801
 30
0.0
  0
VERTEX
  5
555
330
553
100
AcDbEntity
  8
Ebene 1
 62
   179
420
  1709851
370
    13
100
AcDbVertex
100
AcDb2dVertex
 10
176.5831922301598
 20
-115.8628675383086
 30
0.0
  0
SEQEND
  5
556
330
553
100
AcDbEntity
  8
Ebene 1
370
    13
  0
POLYLINE
  5
557
330
1F
100
AcDbEntity
  8
Ebene 1
 62
   179
420
  1709851
370
    13
100
AcDb2dPolyline
 66
     1
 10
0.0
 20
0.0
 30
0.0
  0
VERTEX
  5
558
330
557
100
AcDbEntity
  8
Ebene 1
 62
   179
420
  1709851
370
    13
100
AcDbVertex
100
AcDb2dVertex
 10
176.4774277987626
 20
-116.1381306675801
 30
0.0
  0
VERTEX
  5
559
330
557
100
AcDbEntity
  8
Ebene 1
 62
   179
420
  1709851
370
    13
100
AcDbVertex
100
AcDb2dVertex
 10
176.4774277987626
 20
-115.8628675383086
 30
0.0
  0
SEQEND
  5
55A
330
557
100
AcDbEntity
  8
Ebene 1
370
    13
  0
POLYLINE
  5
55B
330
1F
100
AcDbEntity
  8
Ebene 1
 62
   179
420
  1709851
370
    25
100
AcDb2dPolyline
 66
     1
 10
0.0
 20
0.0
 30
0.0
  0
VERTEX
  5
55C
330
55B
100
AcDbEntity
  8
Ebene 1
 62
   179
420
  1709851
370
    25
100
AcDbVertex
100
AcDb2dVertex
 10
177.4086371084256
 20
-213.3561414397165
 30
0.0
  0
VERTEX
  5
55D
330
55B
100
AcDbEntity
  8
Ebene 1
 62
   179
420
  1709851
370
    25
100
AcDbVertex
100
AcDb2dVertex
 10
59.0232706558171
 20
-213.3561414397165
 30
0.0
  0
SEQEND
  5
55E
330
55B
100
AcDbEntity
  8
Ebene 1
370
    25
  0
POLYLINE
  5
55F
330
1F
100
AcDbEntity
  8
Ebene 1
 62
   179
420
  1709851
370
    25
100
AcDb2dPolyline
 66
     1
 10
0.0
 20
0.0
 30
0.0
  0
VERTEX
  5
560
330
55F
100
AcDbEntity
  8
Ebene 1
 62
   179
420
  1709851
370
    25
100
AcDbVertex
100
AcDb2dVertex
 10
57.41458331897969
 20
-213.3561414397165
 30
0.0
  0
VERTEX
  5
561
330
55F
100
AcDbEntity
  8
Ebene 1
 62
   179
420
  1709851
370
    25
100
AcDbVertex
100
AcDb2dVertex
 10
57.41458331897969
 20
-211.2615233846846
 30
0.0
  0
SEQEND
  5
562
330
55F
100
AcDbEntity
  8
Ebene 1
370
    25
  0
POLYLINE
  5
563
330
1F
100
AcDbEntity
  8
Ebene 1
 62
   179
420
  1709851
370
    25
100
AcDb2dPolyline
 66
     1
 10
0.0
 20
0.0
 30
0.0
  0
VERTEX
  5
564
330
563
100
AcDbEntity
  8
Ebene 1
 62
   179
420
  1709851
370
    25
100
AcDbVertex
100
AcDb2dVertex
 10
59.0232706558171
 20
-213.3561414397165
 30
0.0
  0
VERTEX
  5
565
330
563
100
AcDbEntity
  8
Ebene 1
 62
   179
420
  1709851
370
    25
100
AcDbVertex
100
AcDb2dVertex
 10
59.0232706558171
 20
-211.2615233846846
 30
0.0
  0
SEQEND
  5
566
330
563
100
AcDbEntity
  8
Ebene 1
370
    25
  0
POLYLINE
  5
567
330
1F
100
AcDbEntity
  8
Ebene 1
 62
   179
420
  1709851
370
    25
100
AcDb2dPolyline
 66
     1
 10
0.0
 20
0.0
 30
0.0
  0
VERTEX
  5
568
330
567
100
AcDbEntity
  8
Ebene 1
 62
   179
420
  1709851
370
    25
100
AcDbVertex
100
AcDb2dVertex
 10
177.4086371084256
 20
-213.3561414397165
 30
0.0
  0
VERTEX
  5
569
330
567
100
AcDbEntity
  8
Ebene 1
 62
   179
420
  1709851
370
    25
100
AcDbVertex
100
AcDb2dVertex
 10
177.4086371084256
 20
-211.2615233846846
 30
0.0
  0
SEQEND
  5
56A
330
567
100
AcDbEntity
  8
Ebene 1
370
    25
  0
POLYLINE
  5
56B
330
1F
100
AcDbEntity
  8
Ebene 1
 62
   179
420
  1709851
370
    13
100
AcDb2dPolyline
 66
     1
 10
0.0
 20
0.0
 30
0.0
  0
VERTEX
  5
56C
330
56B
100
AcDbEntity
  8
Ebene 1
 62
   179
420
  1709851
370
    13
100
AcDbVertex
100
AcDb2dVertex
 10
83.11103377913544
 20
-211.2608343655876
 30
0.0
  0
VERTEX
  5
56D
330
56B
100
AcDbEntity
  8
Ebene 1
 62
   179
420
  1709851
370
    13
100
AcDbVertex
100
AcDb2dVertex
 10
83.11103377913544
 20
-212.2984971257448
 30
0.0
  0
SEQEND
  5
56E
330
56B
100
AcDbEntity
  8
Ebene 1
370
    13
  0
POLYLINE
  5
56F
330
1F
100
AcDbEntity
  8
Ebene 1
 62
   179
420
  1709851
370
    13
100
AcDb2dPolyline
 66
     1
 10
0.0
 20
0.0
 30
0.0
  0
VERTEX
  5
570
330
56F
100
AcDbEntity
  8
Ebene 1
 62
   179
420
  1709851
370
    13
100
AcDbVertex
100
AcDb2dVertex
 10
82.92051999880113
 20
-212.5947753374763
 30
0.0
  0
VERTEX
  5
571
330
56F
100
AcDbEntity
  8
Ebene 1
 62
   179
420
  1709851
370
    13
100
AcDbVertex
100
AcDb2dVertex
 10
82.96255016372118
 20
-212.6581650944049
 30
0.0
  0
VERTEX
  5
572
330
56F
100
AcDbEntity
  8
Ebene 1
 62
   179
420
  1709851
370
    13
100
AcDbVertex
100
AcDb2dVertex
 10
82.98373750095546
 20
-212.6581650944049
 30
0.0
  0
SEQEND
  5
573
330
56F
100
AcDbEntity
  8
Ebene 1
370
    13
  0
POLYLINE
  5
574
330
1F
100
AcDbEntity
  8
Ebene 1
 62
   179
420
  1709851
370
    13
100
AcDb2dPolyline
 66
     1
 10
0.0
 20
0.0
 30
0.0
  0
VERTEX
  5
575
330
574
100
AcDbEntity
  8
Ebene 1
 62
   179
420
  1709851
370
    13
100
AcDbVertex
100
AcDb2dVertex
 10
84.65633135904426
 20
-212.6581650944049
 30
0.0
  0
VERTEX
  5
576
330
574
100
AcDbEntity
  8
Ebene 1
 62
   179
420
  1709851
370
    13
100
AcDbVertex
100
AcDb2dVertex
 10
84.71937660642433
 20
-212.6154459103878
 30
0.0
  0
VERTEX
  5
577
330
574
100
AcDbEntity
  8
Ebene 1
 62
   179
420
  1709851
370
    13
100
AcDbVertex
100
AcDb2dVertex
 10
84.71937660642433
 20
-212.5947753374763
 30
0.0
  0
SEQEND
  5
578
330
574
100
AcDbEntity
  8
Ebene 1
370
    13
  0
POLYLINE
  5
579
330
1F
100
AcDbEntity
  8
Ebene 1
 62
   179
420
  1709851
370
    13
100
AcDb2dPolyline
 66
     1
 10
0.0
 20
0.0
 30
0.0
  0
VERTEX
  5
57A
330
579
100
AcDbEntity
  8
Ebene 1
 62
   179
420
  1709851
370
    13
100
AcDbVertex
100
AcDb2dVertex
 10
83.61901310843552
 20
-212.5306965614507
 30
0.0
  0
VERTEX
  5
57B
330
579
100
AcDbEntity
  8
Ebene 1
 62
   179
420
  1709851
370
    13
100
AcDbVertex
100
AcDb2dVertex
 10
84.02088349678992
 20
-212.5306965614507
 30
0.0
  0
SEQEND
  5
57C
330
579
100
AcDbEntity
  8
Ebene 1
370
    13
  0
POLYLINE
  5
57D
330
1F
100
AcDbEntity
  8
Ebene 1
 62
   179
420
  1709851
370
    13
100
AcDb2dPolyline
 66
     1
 10
0.0
 20
0.0
 30
0.0
  0
VERTEX
  5
57E
330
57D
100
AcDbEntity
  8
Ebene 1
 62
   179
420
  1709851
370
    13
100
AcDbVertex
100
AcDb2dVertex
 10
83.61901310843552
 20
-212.425276639602
 30
0.0
  0
VERTEX
  5
57F
330
57D
100
AcDbEntity
  8
Ebene 1
 62
   179
420
  1709851
370
    13
100
AcDbVertex
100
AcDb2dVertex
 10
84.02088349678992
 20
-212.425276639602
 30
0.0
  0
SEQEND
  5
580
330
57D
100
AcDbEntity
  8
Ebene 1
370
    13
  0
POLYLINE
  5
581
330
1F
100
AcDbEntity
  8
Ebene 1
 62
   179
420
  1709851
370
    13
100
AcDb2dPolyline
 66
     1
 10
0.0
 20
0.0
 30
0.0
  0
VERTEX
  5
582
330
581
100
AcDbEntity
  8
Ebene 1
 62
   179
420
  1709851
370
    13
100
AcDbVertex
100
AcDb2dVertex
 10
83.61901310843552
 20
-212.3825574555849
 30
0.0
  0
VERTEX
  5
583
330
581
100
AcDbEntity
  8
Ebene 1
 62
   179
420
  1709851
370
    13
100
AcDbVertex
100
AcDb2dVertex
 10
84.02088349678992
 20
-212.4039170475935
 30
0.0
  0
SEQEND
  5
584
330
581
100
AcDbEntity
  8
Ebene 1
370
    13
  0
POLYLINE
  5
585
330
1F
100
AcDbEntity
  8
Ebene 1
 62
   179
420
  1709851
370
    13
100
AcDb2dPolyline
 66
     1
 10
0.0
 20
0.0
 30
0.0
  0
VERTEX
  5
586
330
585
100
AcDbEntity
  8
Ebene 1
 62
   179
420
  1709851
370
    13
100
AcDbVertex
100
AcDb2dVertex
 10
83.61901310843552
 20
-212.2771375337363
 30
0.0
  0
VERTEX
  5
587
330
585
100
AcDbEntity
  8
Ebene 1
 62
   179
420
  1709851
370
    13
100
AcDbVertex
100
AcDb2dVertex
 10
84.02088349678992
 20
-212.2984971257448
 30
0.0
  0
SEQEND
  5
588
330
585
100
AcDbEntity
  8
Ebene 1
370
    13
  0
POLYLINE
  5
589
330
1F
100
AcDbEntity
  8
Ebene 1
 62
   179
420
  1709851
370
    13
100
AcDb2dPolyline
 66
     1
 10
0.0
 20
0.0
 30
0.0
  0
VERTEX
  5
58A
330
589
100
AcDbEntity
  8
Ebene 1
 62
   179
420
  1709851
370
    13
100
AcDbVertex
100
AcDb2dVertex
 10
83.61901310843552
 20
-212.1710285927906
 30
0.0
  0
VERTEX
  5
58B
330
589
100
AcDbEntity
  8
Ebene 1
 62
   179
420
  1709851
370
    13
100
AcDbVertex
100
AcDb2dVertex
 10
84.02088349678992
 20
-212.1923881847991
 30
0.0
  0
SEQEND
  5
58C
330
589
100
AcDbEntity
  8
Ebene 1
370
    13
  0
POLYLINE
  5
58D
330
1F
100
AcDbEntity
  8
Ebene 1
 62
   179
420
  1709851
370
    13
100
AcDb2dPolyline
 66
     1
 10
0.0
 20
0.0
 30
0.0
  0
VERTEX
  5
58E
330
58D
100
AcDbEntity
  8
Ebene 1
 62
   179
420
  1709851
370
    13
100
AcDbVertex
100
AcDb2dVertex
 10
83.61901310843552
 20
-212.0656086709419
 30
0.0
  0
VERTEX
  5
58F
330
58D
100
AcDbEntity
  8
Ebene 1
 62
   179
420
  1709851
370
    13
100
AcDbVertex
100
AcDb2dVertex
 10
84.02088349678992
 20
-212.0862792438534
 30
0.0
  0
SEQEND
  5
590
330
58D
100
AcDbEntity
  8
Ebene 1
370
    13
  0
POLYLINE
  5
591
330
1F
100
AcDbEntity
  8
Ebene 1
 62
   179
420
  1709851
370
    13
100
AcDb2dPolyline
 66
     1
 10
0.0
 20
0.0
 30
0.0
  0
VERTEX
  5
592
330
591
100
AcDbEntity
  8
Ebene 1
 62
   179
420
  1709851
370
    13
100
AcDbVertex
100
AcDb2dVertex
 10
83.61901310843552
 20
-211.9381401379877
 30
0.0
  0
VERTEX
  5
593
330
591
100
AcDbEntity
  8
Ebene 1
 62
   179
420
  1709851
370
    13
100
AcDbVertex
100
AcDb2dVertex
 10
84.02088349678992
 20
-211.9808593220048
 30
0.0
  0
SEQEND
  5
594
330
591
100
AcDbEntity
  8
Ebene 1
370
    13
  0
POLYLINE
  5
595
330
1F
100
AcDbEntity
  8
Ebene 1
 62
   179
420
  1709851
370
    13
100
AcDb2dPolyline
 66
     1
 10
0.0
 20
0.0
 30
0.0
  0
VERTEX
  5
596
330
595
100
AcDbEntity
  8
Ebene 1
 62
   179
420
  1709851
370
    13
100
AcDbVertex
100
AcDb2dVertex
 10
83.61901310843552
 20
-211.8327202161391
 30
0.0
  0
VERTEX
  5
597
330
595
100
AcDbEntity
  8
Ebene 1
 62
   179
420
  1709851
370
    13
100
AcDbVertex
100
AcDb2dVertex
 10
84.02088349678992
 20
-211.8747503810591
 30
0.0
  0
SEQEND
  5
598
330
595
100
AcDbEntity
  8
Ebene 1
370
    13
  0
POLYLINE
  5
599
330
1F
100
AcDbEntity
  8
Ebene 1
 62
   179
420
  1709851
370
    13
100
AcDb2dPolyline
 66
     1
 10
0.0
 20
0.0
 30
0.0
  0
VERTEX
  5
59A
330
599
100
AcDbEntity
  8
Ebene 1
 62
   179
420
  1709851
370
    13
100
AcDbVertex
100
AcDb2dVertex
 10
83.61901310843552
 20
-211.7266112751934
 30
0.0
  0
VERTEX
  5
59B
330
599
100
AcDbEntity
  8
Ebene 1
 62
   179
420
  1709851
370
    13
100
AcDbVertex
100
AcDb2dVertex
 10
84.02088349678992
 20
-211.7693304592105
 30
0.0
  0
SEQEND
  5
59C
330
599
100
AcDbEntity
  8
Ebene 1
370
    13
  0
POLYLINE
  5
59D
330
1F
100
AcDbEntity
  8
Ebene 1
 62
   179
420
  1709851
370
    13
100
AcDb2dPolyline
 66
     1
 10
0.0
 20
0.0
 30
0.0
  0
VERTEX
  5
59E
330
59D
100
AcDbEntity
  8
Ebene 1
 62
   179
420
  1709851
370
    13
100
AcDbVertex
100
AcDb2dVertex
 10
83.61901310843552
 20
-211.6211913533447
 30
0.0
  0
VERTEX
  5
59F
330
59D
100
AcDbEntity
  8
Ebene 1
 62
   179
420
  1709851
370
    13
100
AcDbVertex
100
AcDb2dVertex
 10
84.02088349678992
 20
-211.6632215182647
 30
0.0
  0
SEQEND
  5
5A0
330
59D
100
AcDbEntity
  8
Ebene 1
370
    13
  0
POLYLINE
  5
5A1
330
1F
100
AcDbEntity
  8
Ebene 1
 62
   179
420
  1709851
370
    13
100
AcDb2dPolyline
 66
     1
 10
0.0
 20
0.0
 30
0.0
  0
VERTEX
  5
5A2
330
5A1
100
AcDbEntity
  8
Ebene 1
 62
   179
420
  1709851
370
    13
100
AcDbVertex
100
AcDb2dVertex
 10
83.61901310843552
 20
-211.5364420044076
 30
0.0
  0
VERTEX
  5
5A3
330
5A1
100
AcDbEntity
  8
Ebene 1
 62
   179
420
  1709851
370
    13
100
AcDbVertex
100
AcDb2dVertex
 10
84.02088349678992
 20
-211.5571125773191
 30
0.0
  0
SEQEND
  5
5A4
330
5A1
100
AcDbEntity
  8
Ebene 1
370
    13
  0
POLYLINE
  5
5A5
330
1F
100
AcDbEntity
  8
Ebene 1
 62
   179
420
  1709851
370
    13
100
AcDb2dPolyline
 66
     1
 10
0.0
 20
0.0
 30
0.0
  0
VERTEX
  5
5A6
330
5A5
100
AcDbEntity
  8
Ebene 1
 62
   179
420
  1709851
370
    13
100
AcDbVertex
100
AcDb2dVertex
 10
83.61901310843552
 20
-211.4303330634619
 30
0.0
  0
VERTEX
  5
5A7
330
5A5
100
AcDbEntity
  8
Ebene 1
 62
   179
420
  1709851
370
    13
100
AcDbVertex
100
AcDb2dVertex
 10
84.02088349678992
 20
-211.4516926554704
 30
0.0
  0
SEQEND
  5
5A8
330
5A5
100
AcDbEntity
  8
Ebene 1
370
    13
  0
POLYLINE
  5
5A9
330
1F
100
AcDbEntity
  8
Ebene 1
 62
   179
420
  1709851
370
    13
100
AcDb2dPolyline
 66
     1
 10
0.0
 20
0.0
 30
0.0
  0
VERTEX
  5
5AA
330
5A9
100
AcDbEntity
  8
Ebene 1
 62
   179
420
  1709851
370
    13
100
AcDbVertex
100
AcDb2dVertex
 10
83.61901310843552
 20
-211.3242241225162
 30
0.0
  0
VERTEX
  5
5AB
330
5A9
100
AcDbEntity
  8
Ebene 1
 62
   179
420
  1709851
370
    13
100
AcDbVertex
100
AcDb2dVertex
 10
84.02088349678992
 20
-211.3455837145247
 30
0.0
  0
SEQEND
  5
5AC
330
5A9
100
AcDbEntity
  8
Ebene 1
370
    13
  0
POLYLINE
  5
5AD
330
1F
100
AcDbEntity
  8
Ebene 1
 62
   179
420
  1709851
370
    13
100
AcDb2dPolyline
 66
     1
 10
0.0
 20
0.0
 30
0.0
  0
VERTEX
  5
5AE
330
5AD
100
AcDbEntity
  8
Ebene 1
 62
   179
420
  1709851
370
    13
100
AcDbVertex
100
AcDb2dVertex
 10
83.61901310843552
 20
-211.2608343655876
 30
0.0
  0
VERTEX
  5
5AF
330
5AD
100
AcDbEntity
  8
Ebene 1
 62
   179
420
  1709851
370
    13
100
AcDbVertex
100
AcDb2dVertex
 10
83.61901310843552
 20
-212.6581650944049
 30
0.0
  0
SEQEND
  5
5B0
330
5AD
100
AcDbEntity
  8
Ebene 1
370
    13
  0
POLYLINE
  5
5B1
330
1F
100
AcDbEntity
  8
Ebene 1
 62
   179
420
  1709851
370
    13
100
AcDb2dPolyline
 66
     1
 10
0.0
 20
0.0
 30
0.0
  0
VERTEX
  5
5B2
330
5B1
100
AcDbEntity
  8
Ebene 1
 62
   179
420
  1709851
370
    13
100
AcDbVertex
100
AcDb2dVertex
 10
84.02088349678992
 20
-211.2608343655876
 30
0.0
  0
VERTEX
  5
5B3
330
5B1
100
AcDbEntity
  8
Ebene 1
 62
   179
420
  1709851
370
    13
100
AcDbVertex
100
AcDb2dVertex
 10
84.02088349678992
 20
-212.6581650944049
 30
0.0
  0
SEQEND
  5
5B4
330
5B1
100
AcDbEntity
  8
Ebene 1
370
    13
  0
POLYLINE
  5
5B5
330
1F
100
AcDbEntity
  8
Ebene 1
 62
   179
420
  1709851
370
    13
100
AcDb2dPolyline
 66
     1
 10
0.0
 20
0.0
 30
0.0
  0
VERTEX
  5
5B6
330
5B5
100
AcDbEntity
  8
Ebene 1
 62
   179
420
  1709851
370
    13
100
AcDbVertex
100
AcDb2dVertex
 10
84.50801999840425
 20
-212.2984971257448
 30
0.0
  0
VERTEX
  5
5B7
330
5B5
100
AcDbEntity
  8
Ebene 1
 62
   179
420
  1709851
370
    13
100
AcDbVertex
100
AcDb2dVertex
 10
84.50801999840425
 20
-211.2608343655876
 30
0.0
  0
SEQEND
  5
5B8
330
5B5
100
AcDbEntity
  8
Ebene 1
370
    13
  0
POLYLINE
  5
5B9
330
1F
100
AcDbEntity
  8
Ebene 1
 62
   179
420
  1709851
370
    13
100
AcDb2dPolyline
 66
     1
 10
0.0
 20
0.0
 30
0.0
  0
VERTEX
  5
5BA
330
5B9
100
AcDbEntity
  8
Ebene 1
 62
   179
420
  1709851
370
    13
100
AcDbVertex
100
AcDb2dVertex
 10
83.61901310843552
 20
-212.2984971257448
 30
0.0
  0
VERTEX
  5
5BB
330
5B9
100
AcDbEntity
  8
Ebene 1
 62
   179
420
  1709851
370
    13
100
AcDbVertex
100
AcDb2dVertex
 10
83.11103377913544
 20
-212.2984971257448
 30
0.0
  0
SEQEND
  5
5BC
330
5B9
100
AcDbEntity
  8
Ebene 1
370
    13
  0
POLYLINE
  5
5BD
330
1F
100
AcDbEntity
  8
Ebene 1
 62
   179
420
  1709851
370
    13
100
AcDb2dPolyline
 66
     1
 10
0.0
 20
0.0
 30
0.0
  0
VERTEX
  5
5BE
330
5BD
100
AcDbEntity
  8
Ebene 1
 62
   179
420
  1709851
370
    13
100
AcDbVertex
100
AcDb2dVertex
 10
84.50801999840425
 20
-212.2984971257448
 30
0.0
  0
VERTEX
  5
5BF
330
5BD
100
AcDbEntity
  8
Ebene 1
 62
   179
420
  1709851
370
    13
100
AcDbVertex
100
AcDb2dVertex
 10
84.02088349678992
 20
-212.2984971257448
 30
0.0
  0
SEQEND
  5
5C0
330
5BD
100
AcDbEntity
  8
Ebene 1
370
    13
  0
POLYLINE
  5
5C1
330
1F
100
AcDbEntity
  8
Ebene 1
 62
   179
420
  1709851
370
    13
100
AcDb2dPolyline
 66
     1
 10
0.0
 20
0.0
 30
0.0
  0
VERTEX
  5
5C2
330
5C1
100
AcDbEntity
  8
Ebene 1
 62
   179
420
  1709851
370
    13
100
AcDbVertex
100
AcDb2dVertex
 10
84.50801999840425
 20
-212.2984971257448
 30
0.0
  0
VERTEX
  5
5C3
330
5C1
100
AcDbEntity
  8
Ebene 1
 62
   179
420
  1709851
370
    13
100
AcDbVertex
100
AcDb2dVertex
 10
84.71937660642433
 20
-212.5100259885392
 30
0.0
  0
VERTEX
  5
5C4
330
5C1
100
AcDbEntity
  8
Ebene 1
 62
   179
420
  1709851
370
    13
100
AcDbVertex
100
AcDb2dVertex
 10
84.71937660642433
 20
-212.5947753374763
 30
0.0
  0
SEQEND
  5
5C5
330
5C1
100
AcDbEntity
  8
Ebene 1
370
    13
  0
POLYLINE
  5
5C6
330
1F
100
AcDbEntity
  8
Ebene 1
 62
   179
420
  1709851
370
    13
100
AcDb2dPolyline
 66
     1
 10
0.0
 20
0.0
 30
0.0
  0
VERTEX
  5
5C7
330
5C6
100
AcDbEntity
  8
Ebene 1
 62
   179
420
  1709851
370
    13
100
AcDbVertex
100
AcDb2dVertex
 10
84.02088349678992
 20
-212.5100259885392
 30
0.0
  0
VERTEX
  5
5C8
330
5C6
100
AcDbEntity
  8
Ebene 1
 62
   179
420
  1709851
370
    13
100
AcDbVertex
100
AcDb2dVertex
 10
84.71937660642433
 20
-212.5100259885392
 30
0.0
  0
SEQEND
  5
5C9
330
5C6
100
AcDbEntity
  8
Ebene 1
370
    13
  0
POLYLINE
  5
5CA
330
1F
100
AcDbEntity
  8
Ebene 1
 62
   179
420
  1709851
370
    13
100
AcDb2dPolyline
 66
     1
 10
0.0
 20
0.0
 30
0.0
  0
VERTEX
  5
5CB
330
5CA
100
AcDbEntity
  8
Ebene 1
 62
   179
420
  1709851
370
    13
100
AcDbVertex
100
AcDb2dVertex
 10
82.92051999880113
 20
-212.5100259885392
 30
0.0
  0
VERTEX
  5
5CC
330
5CA
100
AcDbEntity
  8
Ebene 1
 62
   179
420
  1709851
370
    13
100
AcDbVertex
100
AcDb2dVertex
 10
83.61901310843552
 20
-212.5100259885392
 30
0.0
  0
SEQEND
  5
5CD
330
5CA
100
AcDbEntity
  8
Ebene 1
370
    13
  0
POLYLINE
  5
5CE
330
1F
100
AcDbEntity
  8
Ebene 1
 62
   179
420
  1709851
370
    13
100
AcDb2dPolyline
 66
     1
 10
0.0
 20
0.0
 30
0.0
  0
VERTEX
  5
5CF
330
5CE
100
AcDbEntity
  8
Ebene 1
 62
   179
420
  1709851
370
    13
100
AcDbVertex
100
AcDb2dVertex
 10
82.98373750095546
 20
-212.6581650944049
 30
0.0
  0
VERTEX
  5
5D0
330
5CE
100
AcDbEntity
  8
Ebene 1
 62
   179
420
  1709851
370
    13
100
AcDbVertex
100
AcDb2dVertex
 10
84.65633135904426
 20
-212.6581650944049
 30
0.0
  0
SEQEND
  5
5D1
330
5CE
100
AcDbEntity
  8
Ebene 1
370
    13
  0
POLYLINE
  5
5D2
330
1F
100
AcDbEntity
  8
Ebene 1
 62
   179
420
  1709851
370
    13
100
AcDb2dPolyline
 66
     1
 10
0.0
 20
0.0
 30
0.0
  0
VERTEX
  5
5D3
330
5D2
100
AcDbEntity
  8
Ebene 1
 62
   179
420
  1709851
370
    13
100
AcDbVertex
100
AcDb2dVertex
 10
83.11103377913544
 20
-212.2984971257448
 30
0.0
  0
VERTEX
  5
5D4
330
5D2
100
AcDbEntity
  8
Ebene 1
 62
   179
420
  1709851
370
    13
100
AcDbVertex
100
AcDb2dVertex
 10
82.92051999880113
 20
-212.5100259885392
 30
0.0
  0
VERTEX
  5
5D5
330
5D2
100
AcDbEntity
  8
Ebene 1
 62
   179
420
  1709851
370
    13
100
AcDbVertex
100
AcDb2dVertex
 10
82.92051999880113
 20
-212.5947753374763
 30
0.0
  0
SEQEND
  5
5D6
330
5D2
100
AcDbEntity
  8
Ebene 1
370
    13
  0
POLYLINE
  5
5D7
330
1F
100
AcDbEntity
  8
Ebene 1
 62
   179
420
  1709851
370
    13
100
AcDb2dPolyline
 66
     1
 10
0.0
 20
0.0
 30
0.0
  0
VERTEX
  5
5D8
330
5D7
100
AcDbEntity
  8
Ebene 1
 62
   179
420
  1709851
370
    13
100
AcDbVertex
100
AcDb2dVertex
 10
83.61901310843552
 20
-212.0656086709419
 30
0.0
  0
VERTEX
  5
5D9
330
5D7
100
AcDbEntity
  8
Ebene 1
 62
   179
420
  1709851
370
    13
100
AcDbVertex
100
AcDb2dVertex
 10
83.61901310843552
 20
-212.0656086709419
 30
0.0
  0
VERTEX
  5
5DA
330
5D7
100
AcDbEntity
  8
Ebene 1
 62
   179
420
  1709851
370
    13
100
AcDbVertex
100
AcDb2dVertex
 10
84.02088349678992
 20
-212.0862792438534
 30
0.0
  0
SEQEND
  5
5DB
330
5D7
100
AcDbEntity
  8
Ebene 1
370
    13
  0
POLYLINE
  5
5DC
330
1F
100
AcDbEntity
  8
Ebene 1
 62
   179
420
  1709851
370
    13
100
AcDb2dPolyline
 66
     1
 10
0.0
 20
0.0
 30
0.0
  0
VERTEX
  5
5DD
330
5DC
100
AcDbEntity
  8
Ebene 1
 62
   179
420
  1709851
370
    13
100
AcDbVertex
100
AcDb2dVertex
 10
83.61901310843552
 20
-211.9381401379877
 30
0.0
  0
VERTEX
  5
5DE
330
5DC
100
AcDbEntity
  8
Ebene 1
 62
   179
420
  1709851
370
    13
100
AcDbVertex
100
AcDb2dVertex
 10
83.61901310843552
 20
-211.9381401379877
 30
0.0
  0
VERTEX
  5
5DF
330
5DC
100
AcDbEntity
  8
Ebene 1
 62
   179
420
  1709851
370
    13
100
AcDbVertex
100
AcDb2dVertex
 10
84.02088349678992
 20
-211.9808593220048
 30
0.0
  0
SEQEND
  5
5E0
330
5DC
100
AcDbEntity
  8
Ebene 1
370
    13
  0
POLYLINE
  5
5E1
330
1F
100
AcDbEntity
  8
Ebene 1
 62
   179
420
  1709851
370
    13
100
AcDb2dPolyline
 66
     1
 10
0.0
 20
0.0
 30
0.0
  0
VERTEX
  5
5E2
330
5E1
100
AcDbEntity
  8
Ebene 1
 62
   179
420
  1709851
370
    13
100
AcDbVertex
100
AcDb2dVertex
 10
83.61901310843552
 20
-211.8327202161391
 30
0.0
  0
VERTEX
  5
5E3
330
5E1
100
AcDbEntity
  8
Ebene 1
 62
   179
420
  1709851
370
    13
100
AcDbVertex
100
AcDb2dVertex
 10
83.61901310843552
 20
-211.8327202161391
 30
0.0
  0
VERTEX
  5
5E4
330
5E1
100
AcDbEntity
  8
Ebene 1
 62
   179
420
  1709851
370
    13
100
AcDbVertex
100
AcDb2dVertex
 10
84.02088349678992
 20
-211.8747503810591
 30
0.0
  0
SEQEND
  5
5E5
330
5E1
100
AcDbEntity
  8
Ebene 1
370
    13
  0
POLYLINE
  5
5E6
330
1F
100
AcDbEntity
  8
Ebene 1
 62
   179
420
  1709851
370
    13
100
AcDb2dPolyline
 66
     1
 10
0.0
 20
0.0
 30
0.0
  0
VERTEX
  5
5E7
330
5E6
100
AcDbEntity
  8
Ebene 1
 62
   179
420
  1709851
370
    13
100
AcDbVertex
100
AcDb2dVertex
 10
83.61901310843552
 20
-212.2771375337363
 30
0.0
  0
VERTEX
  5
5E8
330
5E6
100
AcDbEntity
  8
Ebene 1
 62
   179
420
  1709851
370
    13
100
AcDbVertex
100
AcDb2dVertex
 10
83.61901310843552
 20
-212.2771375337363
 30
0.0
  0
VERTEX
  5
5E9
330
5E6
100
AcDbEntity
  8
Ebene 1
 62
   179
420
  1709851
370
    13
100
AcDbVertex
100
AcDb2dVertex
 10
84.02088349678992
 20
-212.2984971257448
 30
0.0
  0
SEQEND
  5
5EA
330
5E6
100
AcDbEntity
  8
Ebene 1
370
    13
  0
POLYLINE
  5
5EB
330
1F
100
AcDbEntity
  8
Ebene 1
 62
   179
420
  1709851
370
    13
100
AcDb2dPolyline
 66
     1
 10
0.0
 20
0.0
 30
0.0
  0
VERTEX
  5
5EC
330
5EB
100
AcDbEntity
  8
Ebene 1
 62
   179
420
  1709851
370
    13
100
AcDbVertex
100
AcDb2dVertex
 10
83.61901310843552
 20
-212.1710285927906
 30
0.0
  0
VERTEX
  5
5ED
330
5EB
100
AcDbEntity
  8
Ebene 1
 62
   179
420
  1709851
370
    13
100
AcDbVertex
100
AcDb2dVertex
 10
83.61901310843552
 20
-212.1710285927906
 30
0.0
  0
VERTEX
  5
5EE
330
5EB
100
AcDbEntity
  8
Ebene 1
 62
   179
420
  1709851
370
    13
100
AcDbVertex
100
AcDb2dVertex
 10
84.02088349678992
 20
-212.1923881847991
 30
0.0
  0
SEQEND
  5
5EF
330
5EB
100
AcDbEntity
  8
Ebene 1
370
    13
  0
POLYLINE
  5
5F0
330
1F
100
AcDbEntity
  8
Ebene 1
 62
   179
420
  1709851
370
    13
100
AcDb2dPolyline
 66
     1
 10
0.0
 20
0.0
 30
0.0
  0
VERTEX
  5
5F1
330
5F0
100
AcDbEntity
  8
Ebene 1
 62
   179
420
  1709851
370
    13
100
AcDbVertex
100
AcDb2dVertex
 10
83.61901310843552
 20
-211.7266112751934
 30
0.0
  0
VERTEX
  5
5F2
330
5F0
100
AcDbEntity
  8
Ebene 1
 62
   179
420
  1709851
370
    13
100
AcDbVertex
100
AcDb2dVertex
 10
83.61901310843552
 20
-211.7266112751934
 30
0.0
  0
VERTEX
  5
5F3
330
5F0
100
AcDbEntity
  8
Ebene 1
 62
   179
420
  1709851
370
    13
100
AcDbVertex
100
AcDb2dVertex
 10
84.02088349678992
 20
-211.7693304592105
 30
0.0
  0
SEQEND
  5
5F4
330
5F0
100
AcDbEntity
  8
Ebene 1
370
    13
  0
POLYLINE
  5
5F5
330
1F
100
AcDbEntity
  8
Ebene 1
 62
   179
420
  1709851
370
    13
100
AcDb2dPolyline
 66
     1
 10
0.0
 20
0.0
 30
0.0
  0
VERTEX
  5
5F6
330
5F5
100
AcDbEntity
  8
Ebene 1
 62
   179
420
  1709851
370
    13
100
AcDbVertex
100
AcDb2dVertex
 10
83.61901310843552
 20
-211.6211913533447
 30
0.0
  0
VERTEX
  5
5F7
330
5F5
100
AcDbEntity
  8
Ebene 1
 62
   179
420
  1709851
370
    13
100
AcDbVertex
100
AcDb2dVertex
 10
83.61901310843552
 20
-211.6211913533447
 30
0.0
  0
VERTEX
  5
5F8
330
5F5
100
AcDbEntity
  8
Ebene 1
 62
   179
420
  1709851
370
    13
100
AcDbVertex
100
AcDb2dVertex
 10
84.02088349678992
 20
-211.6632215182647
 30
0.0
  0
SEQEND
  5
5F9
330
5F5
100
AcDbEntity
  8
Ebene 1
370
    13
  0
POLYLINE
  5
5FA
330
1F
100
AcDbEntity
  8
Ebene 1
 62
   179
420
  1709851
370
    13
100
AcDb2dPolyline
 66
     1
 10
0.0
 20
0.0
 30
0.0
  0
VERTEX
  5
5FB
330
5FA
100
AcDbEntity
  8
Ebene 1
 62
   179
420
  1709851
370
    13
100
AcDbVertex
100
AcDb2dVertex
 10
83.61901310843552
 20
-211.5357529853105
 30
0.0
  0
VERTEX
  5
5FC
330
5FA
100
AcDbEntity
  8
Ebene 1
 62
   179
420
  1709851
370
    13
100
AcDbVertex
100
AcDb2dVertex
 10
83.61901310843552
 20
-211.5357529853105
 30
0.0
  0
VERTEX
  5
5FD
330
5FA
100
AcDbEntity
  8
Ebene 1
 62
   179
420
  1709851
370
    13
100
AcDbVertex
100
AcDb2dVertex
 10
84.02088349678992
 20
-211.5571125773191
 30
0.0
  0
SEQEND
  5
5FE
330
5FA
100
AcDbEntity
  8
Ebene 1
370
    13
  0
POLYLINE
  5
5FF
330
1F
100
AcDbEntity
  8
Ebene 1
 62
   179
420
  1709851
370
    13
100
AcDb2dPolyline
 66
     1
 10
0.0
 20
0.0
 30
0.0
  0
VERTEX
  5
600
330
5FF
100
AcDbEntity
  8
Ebene 1
 62
   179
420
  1709851
370
    13
100
AcDbVertex
100
AcDb2dVertex
 10
83.61901310843552
 20
-211.4303330634619
 30
0.0
  0
VERTEX
  5
601
330
5FF
100
AcDbEntity
  8
Ebene 1
 62
   179
420
  1709851
370
    13
100
AcDbVertex
100
AcDb2dVertex
 10
83.61901310843552
 20
-211.4303330634619
 30
0.0
  0
VERTEX
  5
602
330
5FF
100
AcDbEntity
  8
Ebene 1
 62
   179
420
  1709851
370
    13
100
AcDbVertex
100
AcDb2dVertex
 10
84.02088349678992
 20
-211.4516926554704
 30
0.0
  0
SEQEND
  5
603
330
5FF
100
AcDbEntity
  8
Ebene 1
370
    13
  0
POLYLINE
  5
604
330
1F
100
AcDbEntity
  8
Ebene 1
 62
   179
420
  1709851
370
    13
100
AcDb2dPolyline
 66
     1
 10
0.0
 20
0.0
 30
0.0
  0
VERTEX
  5
605
330
604
100
AcDbEntity
  8
Ebene 1
 62
   179
420
  1709851
370
    13
100
AcDbVertex
100
AcDb2dVertex
 10
83.61901310843552
 20
-211.3242241225162
 30
0.0
  0
VERTEX
  5
606
330
604
100
AcDbEntity
  8
Ebene 1
 62
   179
420
  1709851
370
    13
100
AcDbVertex
100
AcDb2dVertex
 10
83.61901310843552
 20
-211.3242241225162
 30
0.0
  0
VERTEX
  5
607
330
604
100
AcDbEntity
  8
Ebene 1
 62
   179
420
  1709851
370
    13
100
AcDbVertex
100
AcDb2dVertex
 10
84.02088349678992
 20
-211.3455837145247
 30
0.0
  0
SEQEND
  5
608
330
604
100
AcDbEntity
  8
Ebene 1
370
    13
  0
POLYLINE
  5
609
330
1F
100
AcDbEntity
  8
Ebene 1
 62
   179
420
  1709851
370
    13
100
AcDb2dPolyline
 66
     1
 10
0.0
 20
0.0
 30
0.0
  0
VERTEX
  5
60A
330
609
100
AcDbEntity
  8
Ebene 1
 62
   179
420
  1709851
370
    13
100
AcDbVertex
100
AcDb2dVertex
 10
83.61901310843552
 20
-212.3825574555849
 30
0.0
  0
VERTEX
  5
60B
330
609
100
AcDbEntity
  8
Ebene 1
 62
   179
420
  1709851
370
    13
100
AcDbVertex
100
AcDb2dVertex
 10
83.61901310843552
 20
-212.3825574555849
 30
0.0
  0
VERTEX
  5
60C
330
609
100
AcDbEntity
  8
Ebene 1
 62
   179
420
  1709851
370
    13
100
AcDbVertex
100
AcDb2dVertex
 10
84.02088349678992
 20
-212.4039170475935
 30
0.0
  0
SEQEND
  5
60D
330
609
100
AcDbEntity
  8
Ebene 1
370
    13
  0
POLYLINE
  5
60E
330
1F
100
AcDbEntity
  8
Ebene 1
 62
   179
420
  1709851
370
    13
100
AcDb2dPolyline
 66
     1
 10
0.0
 20
0.0
 30
0.0
  0
VERTEX
  5
60F
330
60E
100
AcDbEntity
  8
Ebene 1
 62
   179
420
  1709851
370
    13
100
AcDbVertex
100
AcDb2dVertex
 10
83.61901310843552
 20
-212.5306965614507
 30
0.0
  0
VERTEX
  5
610
330
60E
100
AcDbEntity
  8
Ebene 1
 62
   179
420
  1709851
370
    13
100
AcDbVertex
100
AcDb2dVertex
 10
83.61901310843552
 20
-212.5306965614507
 30
0.0
  0
VERTEX
  5
611
330
60E
100
AcDbEntity
  8
Ebene 1
 62
   179
420
  1709851
370
    13
100
AcDbVertex
100
AcDb2dVertex
 10
84.02088349678992
 20
-212.5306965614507
 30
0.0
  0
SEQEND
  5
612
330
60E
100
AcDbEntity
  8
Ebene 1
370
    13
  0
POLYLINE
  5
613
330
1F
100
AcDbEntity
  8
Ebene 1
 62
   179
420
  1709851
370
    13
100
AcDb2dPolyline
 66
     1
 10
0.0
 20
0.0
 30
0.0
  0
VERTEX
  5
614
330
613
100
AcDbEntity
  8
Ebene 1
 62
   179
420
  1709851
370
    13
100
AcDbVertex
100
AcDb2dVertex
 10
83.61901310843552
 20
-212.425276639602
 30
0.0
  0
VERTEX
  5
615
330
613
100
AcDbEntity
  8
Ebene 1
 62
   179
420
  1709851
370
    13
100
AcDbVertex
100
AcDb2dVertex
 10
83.61901310843552
 20
-212.425276639602
 30
0.0
  0
VERTEX
  5
616
330
613
100
AcDbEntity
  8
Ebene 1
 62
   179
420
  1709851
370
    13
100
AcDbVertex
100
AcDb2dVertex
 10
84.02088349678992
 20
-212.425276639602
 30
0.0
  0
SEQEND
  5
617
330
613
100
AcDbEntity
  8
Ebene 1
370
    13
  0
POLYLINE
  5
618
330
1F
100
AcDbEntity
  8
Ebene 1
 62
   179
420
  1709851
370
    13
100
AcDb2dPolyline
 66
     1
 10
0.0
 20
0.0
 30
0.0
  0
VERTEX
  5
619
330
618
100
AcDbEntity
  8
Ebene 1
 62
   179
420
  1709851
370
    13
100
AcDbVertex
100
AcDb2dVertex
 10
151.7123589030441
 20
-212.5940863183793
 30
0.0
  0
VERTEX
  5
61A
330
618
100
AcDbEntity
  8
Ebene 1
 62
   179
420
  1709851
370
    13
100
AcDbVertex
100
AcDb2dVertex
 10
151.7547335775127
 20
-212.6581650944049
 30
0.0
  0
VERTEX
  5
61B
330
618
100
AcDbEntity
  8
Ebene 1
 62
   179
420
  1709851
370
    13
100
AcDbVertex
100
AcDb2dVertex
 10
151.7757486599727
 20
-212.6581650944049
 30
0.0
  0
SEQEND
  5
61C
330
618
100
AcDbEntity
  8
Ebene 1
370
    13
  0
POLYLINE
  5
61D
330
1F
100
AcDbEntity
  8
Ebene 1
 62
   179
420
  1709851
370
    13
100
AcDb2dPolyline
 66
     1
 10
0.0
 20
0.0
 30
0.0
  0
VERTEX
  5
61E
330
61D
100
AcDbEntity
  8
Ebene 1
 62
   179
420
  1709851
370
    13
100
AcDbVertex
100
AcDb2dVertex
 10
153.447998008513
 20
-212.6581650944049
 30
0.0
  0
VERTEX
  5
61F
330
61D
100
AcDbEntity
  8
Ebene 1
 62
   179
420
  1709851
370
    13
100
AcDbVertex
100
AcDb2dVertex
 10
153.5110432558931
 20
-212.6154459103878
 30
0.0
  0
VERTEX
  5
620
330
61D
100
AcDbEntity
  8
Ebene 1
 62
   179
420
  1709851
370
    13
100
AcDbVertex
100
AcDb2dVertex
 10
153.5110432558931
 20
-212.5940863183793
 30
0.0
  0
SEQEND
  5
621
330
61D
100
AcDbEntity
  8
Ebene 1
370
    13
  0
POLYLINE
  5
622
330
1F
100
AcDbEntity
  8
Ebene 1
 62
   179
420
  1709851
370
    13
100
AcDb2dPolyline
 66
     1
 10
0.0
 20
0.0
 30
0.0
  0
VERTEX
  5
623
330
622
100
AcDbEntity
  8
Ebene 1
 62
   179
420
  1709851
370
    13
100
AcDbVertex
100
AcDb2dVertex
 10
152.4103352483558
 20
-212.5306965614507
 30
0.0
  0
VERTEX
  5
624
330
622
100
AcDbEntity
  8
Ebene 1
 62
   179
420
  1709851
370
    13
100
AcDbVertex
100
AcDb2dVertex
 10
152.8130669105815
 20
-212.5306965614507
 30
0.0
  0
SEQEND
  5
625
330
622
100
AcDbEntity
  8
Ebene 1
370
    13
  0
POLYLINE
  5
626
330
1F
100
AcDbEntity
  8
Ebene 1
 62
   179
420
  1709851
370
    13
100
AcDb2dPolyline
 66
     1
 10
0.0
 20
0.0
 30
0.0
  0
VERTEX
  5
627
330
626
100
AcDbEntity
  8
Ebene 1
 62
   179
420
  1709851
370
    13
100
AcDbVertex
100
AcDb2dVertex
 10
152.4103352483558
 20
-212.425276639602
 30
0.0
  0
VERTEX
  5
628
330
626
100
AcDbEntity
  8
Ebene 1
 62
   179
420
  1709851
370
    13
100
AcDbVertex
100
AcDb2dVertex
 10
152.8130669105815
 20
-212.425276639602
 30
0.0
  0
SEQEND
  5
629
330
626
100
AcDbEntity
  8
Ebene 1
370
    13
  0
POLYLINE
  5
62A
330
1F
100
AcDbEntity
  8
Ebene 1
 62
   179
420
  1709851
370
    13
100
AcDb2dPolyline
 66
     1
 10
0.0
 20
0.0
 30
0.0
  0
VERTEX
  5
62B
330
62A
100
AcDbEntity
  8
Ebene 1
 62
   179
420
  1709851
370
    13
100
AcDbVertex
100
AcDb2dVertex
 10
152.4103352483558
 20
-212.3825574555849
 30
0.0
  0
VERTEX
  5
62C
330
62A
100
AcDbEntity
  8
Ebene 1
 62
   179
420
  1709851
370
    13
100
AcDbVertex
100
AcDb2dVertex
 10
152.8130669105815
 20
-212.4039170475935
 30
0.0
  0
SEQEND
  5
62D
330
62A
100
AcDbEntity
  8
Ebene 1
370
    13
  0
POLYLINE
  5
62E
330
1F
100
AcDbEntity
  8
Ebene 1
 62
   179
420
  1709851
370
    13
100
AcDb2dPolyline
 66
     1
 10
0.0
 20
0.0
 30
0.0
  0
VERTEX
  5
62F
330
62E
100
AcDbEntity
  8
Ebene 1
 62
   179
420
  1709851
370
    13
100
AcDbVertex
100
AcDb2dVertex
 10
152.4103352483558
 20
-212.2771375337363
 30
0.0
  0
VERTEX
  5
630
330
62E
100
AcDbEntity
  8
Ebene 1
 62
   179
420
  1709851
370
    13
100
AcDbVertex
100
AcDb2dVertex
 10
152.8130669105815
 20
-212.2984971257448
 30
0.0
  0
SEQEND
  5
631
330
62E
100
AcDbEntity
  8
Ebene 1
370
    13
  0
POLYLINE
  5
632
330
1F
100
AcDbEntity
  8
Ebene 1
 62
   179
420
  1709851
370
    13
100
AcDb2dPolyline
 66
     1
 10
0.0
 20
0.0
 30
0.0
  0
VERTEX
  5
633
330
632
100
AcDbEntity
  8
Ebene 1
 62
   179
420
  1709851
370
    13
100
AcDbVertex
100
AcDb2dVertex
 10
152.4103352483558
 20
-212.1710285927906
 30
0.0
  0
VERTEX
  5
634
330
632
100
AcDbEntity
  8
Ebene 1
 62
   179
420
  1709851
370
    13
100
AcDbVertex
100
AcDb2dVertex
 10
152.8130669105815
 20
-212.1923881847991
 30
0.0
  0
SEQEND
  5
635
330
632
100
AcDbEntity
  8
Ebene 1
370
    13
  0
POLYLINE
  5
636
330
1F
100
AcDbEntity
  8
Ebene 1
 62
   179
420
  1709851
370
    13
100
AcDb2dPolyline
 66
     1
 10
0.0
 20
0.0
 30
0.0
  0
VERTEX
  5
637
330
636
100
AcDbEntity
  8
Ebene 1
 62
   179
420
  1709851
370
    13
100
AcDbVertex
100
AcDb2dVertex
 10
152.4103352483558
 20
-212.0649196518449
 30
0.0
  0
VERTEX
  5
638
330
636
100
AcDbEntity
  8
Ebene 1
 62
   179
420
  1709851
370
    13
100
AcDbVertex
100
AcDb2dVertex
 10
152.8130669105815
 20
-212.0862792438534
 30
0.0
  0
SEQEND
  5
639
330
636
100
AcDbEntity
  8
Ebene 1
370
    13
  0
POLYLINE
  5
63A
330
1F
100
AcDbEntity
  8
Ebene 1
 62
   179
420
  1709851
370
    13
100
AcDb2dPolyline
 66
     1
 10
0.0
 20
0.0
 30
0.0
  0
VERTEX
  5
63B
330
63A
100
AcDbEntity
  8
Ebene 1
 62
   179
420
  1709851
370
    13
100
AcDbVertex
100
AcDb2dVertex
 10
152.4103352483558
 20
-211.9381401379877
 30
0.0
  0
VERTEX
  5
63C
330
63A
100
AcDbEntity
  8
Ebene 1
 62
   179
420
  1709851
370
    13
100
AcDbVertex
100
AcDb2dVertex
 10
152.8130669105815
 20
-211.9808593220048
 30
0.0
  0
SEQEND
  5
63D
330
63A
100
AcDbEntity
  8
Ebene 1
370
    13
  0
POLYLINE
  5
63E
330
1F
100
AcDbEntity
  8
Ebene 1
 62
   179
420
  1709851
370
    13
100
AcDb2dPolyline
 66
     1
 10
0.0
 20
0.0
 30
0.0
  0
VERTEX
  5
63F
330
63E
100
AcDbEntity
  8
Ebene 1
 62
   179
420
  1709851
370
    13
100
AcDbVertex
100
AcDb2dVertex
 10
152.4103352483558
 20
-211.8327202161391
 30
0.0
  0
VERTEX
  5
640
330
63E
100
AcDbEntity
  8
Ebene 1
 62
   179
420
  1709851
370
    13
100
AcDbVertex
100
AcDb2dVertex
 10
152.8130669105815
 20
-211.8747503810591
 30
0.0
  0
SEQEND
  5
641
330
63E
100
AcDbEntity
  8
Ebene 1
370
    13
  0
POLYLINE
  5
642
330
1F
100
AcDbEntity
  8
Ebene 1
 62
   179
420
  1709851
370
    13
100
AcDb2dPolyline
 66
     1
 10
0.0
 20
0.0
 30
0.0
  0
VERTEX
  5
643
330
642
100
AcDbEntity
  8
Ebene 1
 62
   179
420
  1709851
370
    13
100
AcDbVertex
100
AcDb2dVertex
 10
152.4103352483558
 20
-211.7266112751934
 30
0.0
  0
VERTEX
  5
644
330
642
100
AcDbEntity
  8
Ebene 1
 62
   179
420
  1709851
370
    13
100
AcDbVertex
100
AcDb2dVertex
 10
152.8130669105815
 20
-211.7693304592105
 30
0.0
  0
SEQEND
  5
645
330
642
100
AcDbEntity
  8
Ebene 1
370
    13
  0
POLYLINE
  5
646
330
1F
100
AcDbEntity
  8
Ebene 1
 62
   179
420
  1709851
370
    13
100
AcDb2dPolyline
 66
     1
 10
0.0
 20
0.0
 30
0.0
  0
VERTEX
  5
647
330
646
100
AcDbEntity
  8
Ebene 1
 62
   179
420
  1709851
370
    13
100
AcDbVertex
100
AcDb2dVertex
 10
152.4103352483558
 20
-211.6211913533447
 30
0.0
  0
VERTEX
  5
648
330
646
100
AcDbEntity
  8
Ebene 1
 62
   179
420
  1709851
370
    13
100
AcDbVertex
100
AcDb2dVertex
 10
152.8130669105815
 20
-211.6632215182647
 30
0.0
  0
SEQEND
  5
649
330
646
100
AcDbEntity
  8
Ebene 1
370
    13
  0
POLYLINE
  5
64A
330
1F
100
AcDbEntity
  8
Ebene 1
 62
   179
420
  1709851
370
    13
100
AcDb2dPolyline
 66
     1
 10
0.0
 20
0.0
 30
0.0
  0
VERTEX
  5
64B
330
64A
100
AcDbEntity
  8
Ebene 1
 62
   179
420
  1709851
370
    13
100
AcDbVertex
100
AcDb2dVertex
 10
152.4103352483558
 20
-211.5357529853105
 30
0.0
  0
VERTEX
  5
64C
330
64A
100
AcDbEntity
  8
Ebene 1
 62
   179
420
  1709851
370
    13
100
AcDbVertex
100
AcDb2dVertex
 10
152.8130669105815
 20
-211.5571125773191
 30
0.0
  0
SEQEND
  5
64D
330
64A
100
AcDbEntity
  8
Ebene 1
370
    13
  0
POLYLINE
  5
64E
330
1F
100
AcDbEntity
  8
Ebene 1
 62
   179
420
  1709851
370
    13
100
AcDb2dPolyline
 66
     1
 10
0.0
 20
0.0
 30
0.0
  0
VERTEX
  5
64F
330
64E
100
AcDbEntity
  8
Ebene 1
 62
   179
420
  1709851
370
    13
100
AcDbVertex
100
AcDb2dVertex
 10
152.4103352483558
 20
-211.4303330634619
 30
0.0
  0
VERTEX
  5
650
330
64E
100
AcDbEntity
  8
Ebene 1
 62
   179
420
  1709851
370
    13
100
AcDbVertex
100
AcDb2dVertex
 10
152.8130669105815
 20
-211.4516926554704
 30
0.0
  0
SEQEND
  5
651
330
64E
100
AcDbEntity
  8
Ebene 1
370
    13
  0
POLYLINE
  5
652
330
1F
100
AcDbEntity
  8
Ebene 1
 62
   179
420
  1709851
370
    13
100
AcDb2dPolyline
 66
     1
 10
0.0
 20
0.0
 30
0.0
  0
VERTEX
  5
653
330
652
100
AcDbEntity
  8
Ebene 1
 62
   179
420
  1709851
370
    13
100
AcDbVertex
100
AcDb2dVertex
 10
152.4103352483558
 20
-211.2608343655876
 30
0.0
  0
VERTEX
  5
654
330
652
100
AcDbEntity
  8
Ebene 1
 62
   179
420
  1709851
370
    13
100
AcDbVertex
100
AcDb2dVertex
 10
152.4103352483558
 20
-212.6581650944049
 30
0.0
  0
SEQEND
  5
655
330
652
100
AcDbEntity
  8
Ebene 1
370
    13
  0
POLYLINE
  5
656
330
1F
100
AcDbEntity
  8
Ebene 1
 62
   179
420
  1709851
370
    13
100
AcDb2dPolyline
 66
     1
 10
0.0
 20
0.0
 30
0.0
  0
VERTEX
  5
657
330
656
100
AcDbEntity
  8
Ebene 1
 62
   179
420
  1709851
370
    13
100
AcDbVertex
100
AcDb2dVertex
 10
152.8130669105815
 20
-211.2608343655876
 30
0.0
  0
VERTEX
  5
658
330
656
100
AcDbEntity
  8
Ebene 1
 62
   179
420
  1709851
370
    13
100
AcDbVertex
100
AcDb2dVertex
 10
152.8130669105815
 20
-212.6581650944049
 30
0.0
  0
SEQEND
  5
659
330
656
100
AcDbEntity
  8
Ebene 1
370
    13
  0
POLYLINE
  5
65A
330
1F
100
AcDbEntity
  8
Ebene 1
 62
   179
420
  1709851
370
    13
100
AcDb2dPolyline
 66
     1
 10
0.0
 20
0.0
 30
0.0
  0
VERTEX
  5
65B
330
65A
100
AcDbEntity
  8
Ebene 1
 62
   179
420
  1709851
370
    13
100
AcDbVertex
100
AcDb2dVertex
 10
153.2998589026473
 20
-212.2984971257448
 30
0.0
  0
VERTEX
  5
65C
330
65A
100
AcDbEntity
  8
Ebene 1
 62
   179
420
  1709851
370
    13
100
AcDbVertex
100
AcDb2dVertex
 10
153.2998589026473
 20
-211.2608343655876
 30
0.0
  0
SEQEND
  5
65D
330
65A
100
AcDbEntity
  8
Ebene 1
370
    13
  0
POLYLINE
  5
65E
330
1F
100
AcDbEntity
  8
Ebene 1
 62
   179
420
  1709851
370
    13
100
AcDb2dPolyline
 66
     1
 10
0.0
 20
0.0
 30
0.0
  0
VERTEX
  5
65F
330
65E
100
AcDbEntity
  8
Ebene 1
 62
   179
420
  1709851
370
    13
100
AcDbVertex
100
AcDb2dVertex
 10
152.4103352483558
 20
-212.2984971257448
 30
0.0
  0
VERTEX
  5
660
330
65E
100
AcDbEntity
  8
Ebene 1
 62
   179
420
  1709851
370
    13
100
AcDbVertex
100
AcDb2dVertex
 10
151.9028726833785
 20
-212.2984971257448
 30
0.0
  0
SEQEND
  5
661
330
65E
100
AcDbEntity
  8
Ebene 1
370
    13
  0
POLYLINE
  5
662
330
1F
100
AcDbEntity
  8
Ebene 1
 62
   179
420
  1709851
370
    13
100
AcDb2dPolyline
 66
     1
 10
0.0
 20
0.0
 30
0.0
  0
VERTEX
  5
663
330
662
100
AcDbEntity
  8
Ebene 1
 62
   179
420
  1709851
370
    13
100
AcDbVertex
100
AcDb2dVertex
 10
153.2998589026473
 20
-212.2984971257448
 30
0.0
  0
VERTEX
  5
664
330
662
100
AcDbEntity
  8
Ebene 1
 62
   179
420
  1709851
370
    13
100
AcDbVertex
100
AcDb2dVertex
 10
152.8130669105815
 20
-212.2984971257448
 30
0.0
  0
SEQEND
  5
665
330
662
100
AcDbEntity
  8
Ebene 1
370
    13
  0
POLYLINE
  5
666
330
1F
100
AcDbEntity
  8
Ebene 1
 62
   179
420
  1709851
370
    13
100
AcDb2dPolyline
 66
     1
 10
0.0
 20
0.0
 30
0.0
  0
VERTEX
  5
667
330
666
100
AcDbEntity
  8
Ebene 1
 62
   179
420
  1709851
370
    13
100
AcDbVertex
100
AcDb2dVertex
 10
153.2998589026473
 20
-212.2984971257448
 30
0.0
  0
VERTEX
  5
668
330
666
100
AcDbEntity
  8
Ebene 1
 62
   179
420
  1709851
370
    13
100
AcDbVertex
100
AcDb2dVertex
 10
153.5110432558931
 20
-212.5100259885392
 30
0.0
  0
VERTEX
  5
669
330
666
100
AcDbEntity
  8
Ebene 1
 62
   179
420
  1709851
370
    13
100
AcDbVertex
100
AcDb2dVertex
 10
153.5110432558931
 20
-212.5940863183793
 30
0.0
  0
SEQEND
  5
66A
330
666
100
AcDbEntity
  8
Ebene 1
370
    13
  0
POLYLINE
  5
66B
330
1F
100
AcDbEntity
  8
Ebene 1
 62
   179
420
  1709851
370
    13
100
AcDb2dPolyline
 66
     1
 10
0.0
 20
0.0
 30
0.0
  0
VERTEX
  5
66C
330
66B
100
AcDbEntity
  8
Ebene 1
 62
   179
420
  1709851
370
    13
100
AcDbVertex
100
AcDb2dVertex
 10
152.8130669105815
 20
-212.5100259885392
 30
0.0
  0
VERTEX
  5
66D
330
66B
100
AcDbEntity
  8
Ebene 1
 62
   179
420
  1709851
370
    13
100
AcDbVertex
100
AcDb2dVertex
 10
153.5110432558931
 20
-212.5100259885392
 30
0.0
  0
SEQEND
  5
66E
330
66B
100
AcDbEntity
  8
Ebene 1
370
    13
  0
POLYLINE
  5
66F
330
1F
100
AcDbEntity
  8
Ebene 1
 62
   179
420
  1709851
370
    13
100
AcDb2dPolyline
 66
     1
 10
0.0
 20
0.0
 30
0.0
  0
VERTEX
  5
670
330
66F
100
AcDbEntity
  8
Ebene 1
 62
   179
420
  1709851
370
    13
100
AcDbVertex
100
AcDb2dVertex
 10
151.7123589030441
 20
-212.5100259885392
 30
0.0
  0
VERTEX
  5
671
330
66F
100
AcDbEntity
  8
Ebene 1
 62
   179
420
  1709851
370
    13
100
AcDbVertex
100
AcDb2dVertex
 10
152.4103352483558
 20
-212.5100259885392
 30
0.0
  0
SEQEND
  5
672
330
66F
100
AcDbEntity
  8
Ebene 1
370
    13
  0
POLYLINE
  5
673
330
1F
100
AcDbEntity
  8
Ebene 1
 62
   179
420
  1709851
370
    13
100
AcDb2dPolyline
 66
     1
 10
0.0
 20
0.0
 30
0.0
  0
VERTEX
  5
674
330
673
100
AcDbEntity
  8
Ebene 1
 62
   179
420
  1709851
370
    13
100
AcDbVertex
100
AcDb2dVertex
 10
151.7757486599727
 20
-212.6581650944049
 30
0.0
  0
VERTEX
  5
675
330
673
100
AcDbEntity
  8
Ebene 1
 62
   179
420
  1709851
370
    13
100
AcDbVertex
100
AcDb2dVertex
 10
153.447998008513
 20
-212.6581650944049
 30
0.0
  0
SEQEND
  5
676
330
673
100
AcDbEntity
  8
Ebene 1
370
    13
  0
POLYLINE
  5
677
330
1F
100
AcDbEntity
  8
Ebene 1
 62
   179
420
  1709851
370
    13
100
AcDb2dPolyline
 66
     1
 10
0.0
 20
0.0
 30
0.0
  0
VERTEX
  5
678
330
677
100
AcDbEntity
  8
Ebene 1
 62
   179
420
  1709851
370
    13
100
AcDbVertex
100
AcDb2dVertex
 10
151.9028726833785
 20
-211.2608343655876
 30
0.0
  0
VERTEX
  5
679
330
677
100
AcDbEntity
  8
Ebene 1
 62
   179
420
  1709851
370
    13
100
AcDbVertex
100
AcDb2dVertex
 10
151.9028726833785
 20
-212.2984971257448
 30
0.0
  0
VERTEX
  5
67A
330
677
100
AcDbEntity
  8
Ebene 1
 62
   179
420
  1709851
370
    13
100
AcDbVertex
100
AcDb2dVertex
 10
151.7123589030441
 20
-212.5100259885392
 30
0.0
  0
VERTEX
  5
67B
330
677
100
AcDbEntity
  8
Ebene 1
 62
   179
420
  1709851
370
    13
100
AcDbVertex
100
AcDb2dVertex
 10
151.7123589030441
 20
-212.5940863183793
 30
0.0
  0
SEQEND
  5
67C
330
677
100
AcDbEntity
  8
Ebene 1
370
    13
  0
POLYLINE
  5
67D
330
1F
100
AcDbEntity
  8
Ebene 1
 62
   179
420
  1709851
370
    13
100
AcDb2dPolyline
 66
     1
 10
0.0
 20
0.0
 30
0.0
  0
VERTEX
  5
67E
330
67D
100
AcDbEntity
  8
Ebene 1
 62
   179
420
  1709851
370
    13
100
AcDbVertex
100
AcDb2dVertex
 10
152.4103352483558
 20
-212.0649196518449
 30
0.0
  0
VERTEX
  5
67F
330
67D
100
AcDbEntity
  8
Ebene 1
 62
   179
420
  1709851
370
    13
100
AcDbVertex
100
AcDb2dVertex
 10
152.4103352483558
 20
-212.0649196518449
 30
0.0
  0
VERTEX
  5
680
330
67D
100
AcDbEntity
  8
Ebene 1
 62
   179
420
  1709851
370
    13
100
AcDbVertex
100
AcDb2dVertex
 10
152.8130669105815
 20
-212.0862792438534
 30
0.0
  0
SEQEND
  5
681
330
67D
100
AcDbEntity
  8
Ebene 1
370
    13
  0
POLYLINE
  5
682
330
1F
100
AcDbEntity
  8
Ebene 1
 62
   179
420
  1709851
370
    13
100
AcDb2dPolyline
 66
     1
 10
0.0
 20
0.0
 30
0.0
  0
VERTEX
  5
683
330
682
100
AcDbEntity
  8
Ebene 1
 62
   179
420
  1709851
370
    13
100
AcDbVertex
100
AcDb2dVertex
 10
152.4103352483558
 20
-211.9381401379877
 30
0.0
  0
VERTEX
  5
684
330
682
100
AcDbEntity
  8
Ebene 1
 62
   179
420
  1709851
370
    13
100
AcDbVertex
100
AcDb2dVertex
 10
152.4103352483558
 20
-211.9381401379877
 30
0.0
  0
VERTEX
  5
685
330
682
100
AcDbEntity
  8
Ebene 1
 62
   179
420
  1709851
370
    13
100
AcDbVertex
100
AcDb2dVertex
 10
152.8130669105815
 20
-211.9808593220048
 30
0.0
  0
SEQEND
  5
686
330
682
100
AcDbEntity
  8
Ebene 1
370
    13
  0
POLYLINE
  5
687
330
1F
100
AcDbEntity
  8
Ebene 1
 62
   179
420
  1709851
370
    13
100
AcDb2dPolyline
 66
     1
 10
0.0
 20
0.0
 30
0.0
  0
VERTEX
  5
688
330
687
100
AcDbEntity
  8
Ebene 1
 62
   179
420
  1709851
370
    13
100
AcDbVertex
100
AcDb2dVertex
 10
152.4103352483558
 20
-211.8327202161391
 30
0.0
  0
VERTEX
  5
689
330
687
100
AcDbEntity
  8
Ebene 1
 62
   179
420
  1709851
370
    13
100
AcDbVertex
100
AcDb2dVertex
 10
152.4103352483558
 20
-211.8327202161391
 30
0.0
  0
VERTEX
  5
68A
330
687
100
AcDbEntity
  8
Ebene 1
 62
   179
420
  1709851
370
    13
100
AcDbVertex
100
AcDb2dVertex
 10
152.8130669105815
 20
-211.8747503810591
 30
0.0
  0
SEQEND
  5
68B
330
687
100
AcDbEntity
  8
Ebene 1
370
    13
  0
POLYLINE
  5
68C
330
1F
100
AcDbEntity
  8
Ebene 1
 62
   179
420
  1709851
370
    13
100
AcDb2dPolyline
 66
     1
 10
0.0
 20
0.0
 30
0.0
  0
VERTEX
  5
68D
330
68C
100
AcDbEntity
  8
Ebene 1
 62
   179
420
  1709851
370
    13
100
AcDbVertex
100
AcDb2dVertex
 10
152.4103352483558
 20
-212.2771375337363
 30
0.0
  0
VERTEX
  5
68E
330
68C
100
AcDbEntity
  8
Ebene 1
 62
   179
420
  1709851
370
    13
100
AcDbVertex
100
AcDb2dVertex
 10
152.4103352483558
 20
-212.2771375337363
 30
0.0
  0
VERTEX
  5
68F
330
68C
100
AcDbEntity
  8
Ebene 1
 62
   179
420
  1709851
370
    13
100
AcDbVertex
100
AcDb2dVertex
 10
152.8130669105815
 20
-212.2984971257448
 30
0.0
  0
SEQEND
  5
690
330
68C
100
AcDbEntity
  8
Ebene 1
370
    13
  0
POLYLINE
  5
691
330
1F
100
AcDbEntity
  8
Ebene 1
 62
   179
420
  1709851
370
    13
100
AcDb2dPolyline
 66
     1
 10
0.0
 20
0.0
 30
0.0
  0
VERTEX
  5
692
330
691
100
AcDbEntity
  8
Ebene 1
 62
   179
420
  1709851
370
    13
100
AcDbVertex
100
AcDb2dVertex
 10
152.4103352483558
 20
-212.1710285927906
 30
0.0
  0
VERTEX
  5
693
330
691
100
AcDbEntity
  8
Ebene 1
 62
   179
420
  1709851
370
    13
100
AcDbVertex
100
AcDb2dVertex
 10
152.4103352483558
 20
-212.1710285927906
 30
0.0
  0
VERTEX
  5
694
330
691
100
AcDbEntity
  8
Ebene 1
 62
   179
420
  1709851
370
    13
100
AcDbVertex
100
AcDb2dVertex
 10
152.8130669105815
 20
-212.1923881847991
 30
0.0
  0
SEQEND
  5
695
330
691
100
AcDbEntity
  8
Ebene 1
370
    13
  0
POLYLINE
  5
696
330
1F
100
AcDbEntity
  8
Ebene 1
 62
   179
420
  1709851
370
    13
100
AcDb2dPolyline
 66
     1
 10
0.0
 20
0.0
 30
0.0
  0
VERTEX
  5
697
330
696
100
AcDbEntity
  8
Ebene 1
 62
   179
420
  1709851
370
    13
100
AcDbVertex
100
AcDb2dVertex
 10
152.4103352483558
 20
-211.7266112751934
 30
0.0
  0
VERTEX
  5
698
330
696
100
AcDbEntity
  8
Ebene 1
 62
   179
420
  1709851
370
    13
100
AcDbVertex
100
AcDb2dVertex
 10
152.4103352483558
 20
-211.7266112751934
 30
0.0
  0
VERTEX
  5
699
330
696
100
AcDbEntity
  8
Ebene 1
 62
   179
420
  1709851
370
    13
100
AcDbVertex
100
AcDb2dVertex
 10
152.8130669105815
 20
-211.7693304592105
 30
0.0
  0
SEQEND
  5
69A
330
696
100
AcDbEntity
  8
Ebene 1
370
    13
  0
POLYLINE
  5
69B
330
1F
100
AcDbEntity
  8
Ebene 1
 62
   179
420
  1709851
370
    13
100
AcDb2dPolyline
 66
     1
 10
0.0
 20
0.0
 30
0.0
  0
VERTEX
  5
69C
330
69B
100
AcDbEntity
  8
Ebene 1
 62
   179
420
  1709851
370
    13
100
AcDbVertex
100
AcDb2dVertex
 10
152.4103352483558
 20
-211.6211913533447
 30
0.0
  0
VERTEX
  5
69D
330
69B
100
AcDbEntity
  8
Ebene 1
 62
   179
420
  1709851
370
    13
100
AcDbVertex
100
AcDb2dVertex
 10
152.4103352483558
 20
-211.6211913533447
 30
0.0
  0
VERTEX
  5
69E
330
69B
100
AcDbEntity
  8
Ebene 1
 62
   179
420
  1709851
370
    13
100
AcDbVertex
100
AcDb2dVertex
 10
152.8130669105815
 20
-211.6632215182647
 30
0.0
  0
SEQEND
  5
69F
330
69B
100
AcDbEntity
  8
Ebene 1
370
    13
  0
POLYLINE
  5
6A0
330
1F
100
AcDbEntity
  8
Ebene 1
 62
   179
420
  1709851
370
    13
100
AcDb2dPolyline
 66
     1
 10
0.0
 20
0.0
 30
0.0
  0
VERTEX
  5
6A1
330
6A0
100
AcDbEntity
  8
Ebene 1
 62
   179
420
  1709851
370
    13
100
AcDbVertex
100
AcDb2dVertex
 10
152.4103352483558
 20
-211.5357529853105
 30
0.0
  0
VERTEX
  5
6A2
330
6A0
100
AcDbEntity
  8
Ebene 1
 62
   179
420
  1709851
370
    13
100
AcDbVertex
100
AcDb2dVertex
 10
152.4103352483558
 20
-211.5357529853105
 30
0.0
  0
VERTEX
  5
6A3
330
6A0
100
AcDbEntity
  8
Ebene 1
 62
   179
420
  1709851
370
    13
100
AcDbVertex
100
AcDb2dVertex
 10
152.8130669105815
 20
-211.5571125773191
 30
0.0
  0
SEQEND
  5
6A4
330
6A0
100
AcDbEntity
  8
Ebene 1
370
    13
  0
POLYLINE
  5
6A5
330
1F
100
AcDbEntity
  8
Ebene 1
 62
   179
420
  1709851
370
    13
100
AcDb2dPolyline
 66
     1
 10
0.0
 20
0.0
 30
0.0
  0
VERTEX
  5
6A6
330
6A5
100
AcDbEntity
  8
Ebene 1
 62
   179
420
  1709851
370
    13
100
AcDbVertex
100
AcDb2dVertex
 10
152.4103352483558
 20
-211.4303330634619
 30
0.0
  0
VERTEX
  5
6A7
330
6A5
100
AcDbEntity
  8
Ebene 1
 62
   179
420
  1709851
370
    13
100
AcDbVertex
100
AcDb2dVertex
 10
152.4103352483558
 20
-211.4303330634619
 30
0.0
  0
VERTEX
  5
6A8
330
6A5
100
AcDbEntity
  8
Ebene 1
 62
   179
420
  1709851
370
    13
100
AcDbVertex
100
AcDb2dVertex
 10
152.8130669105815
 20
-211.4516926554704
 30
0.0
  0
SEQEND
  5
6A9
330
6A5
100
AcDbEntity
  8
Ebene 1
370
    13
  0
POLYLINE
  5
6AA
330
1F
100
AcDbEntity
  8
Ebene 1
 62
   179
420
  1709851
370
    13
100
AcDb2dPolyline
 66
     1
 10
0.0
 20
0.0
 30
0.0
  0
VERTEX
  5
6AB
330
6AA
100
AcDbEntity
  8
Ebene 1
 62
   179
420
  1709851
370
    13
100
AcDbVertex
100
AcDb2dVertex
 10
152.4103352483558
 20
-212.3825574555849
 30
0.0
  0
VERTEX
  5
6AC
330
6AA
100
AcDbEntity
  8
Ebene 1
 62
   179
420
  1709851
370
    13
100
AcDbVertex
100
AcDb2dVertex
 10
152.4103352483558
 20
-212.3825574555849
 30
0.0
  0
VERTEX
  5
6AD
330
6AA
100
AcDbEntity
  8
Ebene 1
 62
   179
420
  1709851
370
    13
100
AcDbVertex
100
AcDb2dVertex
 10
152.8130669105815
 20
-212.4039170475935
 30
0.0
  0
SEQEND
  5
6AE
330
6AA
100
AcDbEntity
  8
Ebene 1
370
    13
  0
POLYLINE
  5
6AF
330
1F
100
AcDbEntity
  8
Ebene 1
 62
   179
420
  1709851
370
    13
100
AcDb2dPolyline
 66
     1
 10
0.0
 20
0.0
 30
0.0
  0
VERTEX
  5
6B0
330
6AF
100
AcDbEntity
  8
Ebene 1
 62
   179
420
  1709851
370
    13
100
AcDbVertex
100
AcDb2dVertex
 10
152.4103352483558
 20
-212.5306965614507
 30
0.0
  0
VERTEX
  5
6B1
330
6AF
100
AcDbEntity
  8
Ebene 1
 62
   179
420
  1709851
370
    13
100
AcDbVertex
100
AcDb2dVertex
 10
152.4103352483558
 20
-212.5306965614507
 30
0.0
  0
VERTEX
  5
6B2
330
6AF
100
AcDbEntity
  8
Ebene 1
 62
   179
420
  1709851
370
    13
100
AcDbVertex
100
AcDb2dVertex
 10
152.8130669105815
 20
-212.5306965614507
 30
0.0
  0
SEQEND
  5
6B3
330
6AF
100
AcDbEntity
  8
Ebene 1
370
    13
  0
POLYLINE
  5
6B4
330
1F
100
AcDbEntity
  8
Ebene 1
 62
   179
420
  1709851
370
    13
100
AcDb2dPolyline
 66
     1
 10
0.0
 20
0.0
 30
0.0
  0
VERTEX
  5
6B5
330
6B4
100
AcDbEntity
  8
Ebene 1
 62
   179
420
  1709851
370
    13
100
AcDbVertex
100
AcDb2dVertex
 10
152.4103352483558
 20
-212.425276639602
 30
0.0
  0
VERTEX
  5
6B6
330
6B4
100
AcDbEntity
  8
Ebene 1
 62
   179
420
  1709851
370
    13
100
AcDbVertex
100
AcDb2dVertex
 10
152.4103352483558
 20
-212.425276639602
 30
0.0
  0
VERTEX
  5
6B7
330
6B4
100
AcDbEntity
  8
Ebene 1
 62
   179
420
  1709851
370
    13
100
AcDbVertex
100
AcDb2dVertex
 10
152.8130669105815
 20
-212.425276639602
 30
0.0
  0
SEQEND
  5
6B8
330
6B4
100
AcDbEntity
  8
Ebene 1
370
    13
  0
INSERT
  5
6BA
330
1F
100
AcDbEntity
  8
Ebene 1
100
AcDbBlockReference
  2
block 5
 10
0.0
 20
0.0
 30
0.0
  0
POLYLINE
  5
6D8
330
1F
100
AcDbEntity
  8
Ebene 1
 62
   179
420
  1709851
370
    18
100
AcDb2dPolyline
 66
     1
 10
0.0
 20
0.0
 30
0.0
  0
VERTEX
  5
6D9
330
6D8
100
AcDbEntity
  8
Ebene 1
 62
   179
420
  1709851
370
    18
100
AcDbVertex
100
AcDb2dVertex
 10
175.3126410151996
 20
-181.2678330710025
 30
0.0
  0
VERTEX
  5
6DA
330
6D8
100
AcDbEntity
  8
Ebene 1
 62
   179
420
  1709851
370
    18
100
AcDbVertex
100
AcDb2dVertex
 10
173.8098903645337
 20
-181.2678330710025
 30
0.0
  0
SEQEND
  5
6DB
330
6D8
100
AcDbEntity
  8
Ebene 1
370
    18
  0
POLYLINE
  5
6DC
330
1F
100
AcDbEntity
  8
Ebene 1
 62
   179
420
  1709851
370
    18
100
AcDb2dPolyline
 66
     1
 10
0.0
 20
0.0
 30
0.0
  0
VERTEX
  5
6DD
330
6DC
100
AcDbEntity
  8
Ebene 1
 62
   179
420
  1709851
370
    18
100
AcDbVertex
100
AcDb2dVertex
 10
175.3126410151996
 20
-119.6727986354464
 30
0.0
  0
VERTEX
  5
6DE
330
6DC
100
AcDbEntity
  8
Ebene 1
 62
   179
420
  1709851
370
    18
100
AcDbVertex
100
AcDb2dVertex
 10
169.1114691417499
 20
-119.6727986354464
 30
0.0
  0
SEQEND
  5
6DF
330
6DC
100
AcDbEntity
  8
Ebene 1
370
    18
  0
POLYLINE
  5
6E0
330
1F
100
AcDbEntity
  8
Ebene 1
 62
   179
420
  1709851
370
    18
100
AcDb2dPolyline
 66
     1
 10
0.0
 20
0.0
 30
0.0
  0
VERTEX
  5
6E1
330
6E0
100
AcDbEntity
  8
Ebene 1
 62
   179
420
  1709851
370
    18
100
AcDbVertex
100
AcDb2dVertex
 10
169.1114691417499
 20
-112.4759941667595
 30
0.0
  0
VERTEX
  5
6E2
330
6E0
100
AcDbEntity
  8
Ebene 1
 62
   179
420
  1709851
370
    18
100
AcDbVertex
100
AcDb2dVertex
 10
175.3126410151996
 20
-112.4759941667595
 30
0.0
  0
SEQEND
  5
6E3
330
6E0
100
AcDbEntity
  8
Ebene 1
370
    18
  0
POLYLINE
  5
6E4
330
1F
100
AcDbEntity
  8
Ebene 1
 62
   179
420
  1709851
370
    25
100
AcDb2dPolyline
 66
     1
 10
0.0
 20
0.0
 30
0.0
  0
VERTEX
  5
6E5
330
6E4
100
AcDbEntity
  8
Ebene 1
 62
   179
420
  1709851
370
    25
100
AcDbVertex
100
AcDb2dVertex
 10
175.3129855247481
 20
-209.6519747739759
 30
0.0
  0
VERTEX
  5
6E6
330
6E4
100
AcDbEntity
  8
Ebene 1
 62
   179
420
  1709851
370
    25
100
AcDbVertex
100
AcDb2dVertex
 10
175.3129855247481
 20
-91.26695283091591
 30
0.0
  0
SEQEND
  5
6E7
330
6E4
100
AcDbEntity
  8
Ebene 1
370
    25
  0
POLYLINE
  5
6E8
330
1F
100
AcDbEntity
  8
Ebene 1
 62
   179
420
  1709851
370
    18
100
AcDb2dPolyline
 66
     1
 10
0.0
 20
0.0
 30
0.0
  0
VERTEX
  5
6E9
330
6E8
100
AcDbEntity
  8
Ebene 1
 62
   179
420
  1709851
370
    18
100
AcDbVertex
100
AcDb2dVertex
 10
87.40758461356478
 20
-211.2608343655876
 30
0.0
  0
VERTEX
  5
6EA
330
6E8
100
AcDbEntity
  8
Ebene 1
 62
   179
420
  1709851
370
    18
100
AcDbVertex
100
AcDb2dVertex
 10
87.40758461356478
 20
-209.7580837149216
 30
0.0
  0
SEQEND
  5
6EB
330
6E8
100
AcDbEntity
  8
Ebene 1
370
    18
  0
POLYLINE
  5
6EC
330
1F
100
AcDbEntity
  8
Ebene 1
 62
   179
420
  1709851
370
    18
100
AcDb2dPolyline
 66
     1
 10
0.0
 20
0.0
 30
0.0
  0
VERTEX
  5
6ED
330
6EC
100
AcDbEntity
  8
Ebene 1
 62
   179
420
  1709851
370
    18
100
AcDbVertex
100
AcDb2dVertex
 10
149.0031358134437
 20
-205.0589734730408
 30
0.0
  0
VERTEX
  5
6EE
330
6EC
100
AcDbEntity
  8
Ebene 1
 62
   179
420
  1709851
370
    18
100
AcDbVertex
100
AcDb2dVertex
 10
149.0031358134437
 20
-211.2608343655876
 30
0.0
  0
SEQEND
  5
6EF
330
6EC
100
AcDbEntity
  8
Ebene 1
370
    18
  0
POLYLINE
  5
6F0
330
1F
100
AcDbEntity
  8
Ebene 1
 62
   179
420
  1709851
370
    18
100
AcDb2dPolyline
 66
     1
 10
0.0
 20
0.0
 30
0.0
  0
VERTEX
  5
6F1
330
6F0
100
AcDbEntity
  8
Ebene 1
 62
   179
420
  1709851
370
    18
100
AcDbVertex
100
AcDb2dVertex
 10
156.1992512630335
 20
-211.2608343655876
 30
0.0
  0
VERTEX
  5
6F2
330
6F0
100
AcDbEntity
  8
Ebene 1
 62
   179
420
  1709851
370
    18
100
AcDbVertex
100
AcDb2dVertex
 10
156.1992512630335
 20
-205.0589734730408
 30
0.0
  0
SEQEND
  5
6F3
330
6F0
100
AcDbEntity
  8
Ebene 1
370
    18
  0
POLYLINE
  5
6F4
330
1F
100
AcDbEntity
  8
Ebene 1
 62
   179
420
  1709851
370
    18
100
AcDb2dPolyline
 66
     1
 10
0.0
 20
0.0
 30
0.0
  0
VERTEX
  5
6F5
330
6F4
100
AcDbEntity
  8
Ebene 1
 62
   179
420
  1709851
370
    18
100
AcDbVertex
100
AcDb2dVertex
 10
169.1114691417499
 20
-188.4646375396894
 30
0.0
  0
VERTEX
  5
6F6
330
6F4
100
AcDbEntity
  8
Ebene 1
 62
   179
420
  1709851
370
    18
100
AcDbVertex
100
AcDb2dVertex
 10
175.3126410151996
 20
-188.4646375396894
 30
0.0
  0
SEQEND
  5
6F7
330
6F4
100
AcDbEntity
  8
Ebene 1
370
    18
  0
POLYLINE
  5
6F8
330
1F
100
AcDbEntity
  8
Ebene 1
 62
   179
420
  1709851
370
    25
100
AcDb2dPolyline
 66
     1
 10
0.0
 20
0.0
 30
0.0
  0
VERTEX
  5
6F9
330
6F8
100
AcDbEntity
  8
Ebene 1
 62
   179
420
  1709851
370
    25
100
AcDbVertex
100
AcDb2dVertex
 10
59.0232706558171
 20
-211.2608343655876
 30
0.0
  0
VERTEX
  5
6FA
330
6F8
100
AcDbEntity
  8
Ebene 1
 62
   179
420
  1709851
370
    25
100
AcDbVertex
100
AcDb2dVertex
 10
177.4082925988771
 20
-211.2608343655876
 30
0.0
  0
SEQEND
  5
6FB
330
6F8
100
AcDbEntity
  8
Ebene 1
370
    25
  0
POLYLINE
  5
6FC
330
1F
100
AcDbEntity
  8
Ebene 1
 62
   179
420
  1709851
370
    18
100
AcDb2dPolyline
 66
     1
 10
0.0
 20
0.0
 30
0.0
  0
VERTEX
  5
6FD
330
6FC
100
AcDbEntity
  8
Ebene 1
 62
   179
420
  1709851
370
    18
100
AcDbVertex
100
AcDb2dVertex
 10
80.21112465442638
 20
-205.0589734730408
 30
0.0
  0
VERTEX
  5
6FE
330
6FC
100
AcDbEntity
  8
Ebene 1
 62
   179
420
  1709851
370
    18
100
AcDbVertex
100
AcDb2dVertex
 10
80.21112465442638
 20
-211.2608343655876
 30
0.0
  0
SEQEND
  5
6FF
330
6FC
100
AcDbEntity
  8
Ebene 1
370
    18
  0
INSERT
  5
701
330
1F
100
AcDbEntity
  8
Ebene 1
100
AcDbBlockReference
  2
block 6
 10
0.0
 20
0.0
 30
0.0
  0
ENDSEC
  0
SECTION
  2
OBJECTS
  0
DICTIONARY
  5
C
330
0
100
AcDbDictionary
281
     1
  3
ACAD_GROUP
350
D
  3
ACAD_LAYOUT
350
1A
  3
ACAD_MLINESTYLE
350
17
  3
ACAD_PLOTSETTINGS
350
19
  3
ACAD_PLOTSTYLENAME
350
E
  3
ACAD_TABLESTYLE
350
797
  3
ACAD_VISUALSTYLE
350
2A
  0
DICTIONARY
  5
D
102
{ACAD_REACTORS
330
C
102
}
330
C
100
AcDbDictionary
281
     1
  0
DICTIONARY
  5
1A
102
{ACAD_REACTORS
330
C
102
}
330
C
100
AcDbDictionary
281
     1
  3
Layout1
350
1E
  3
Layout2
350
26
  3
Model
350
22
  0
DICTIONARY
  5
17
102
{ACAD_REACTORS
330
C
102
}
330
C
100
AcDbDictionary
281
     1
  3
Standard
350
18
  0
DICTIONARY
  5
19
102
{ACAD_REACTORS
330
C
102
}
330
C
100
AcDbDictionary
281
     1
  0
ACDBDICTIONARYWDFLT
  5
E
102
{ACAD_REACTORS
330
C
102
}
330
C
100
AcDbDictionary
281
     1
  3
Normal
350
F
100
AcDbDictionaryWithDefault
340
F
  0
DICTIONARY
  5
797
102
{ACAD_REACTORS
330
C
102
}
330
C
100
AcDbDictionary
281
     1
  0
DICTIONARY
  5
2A
102
{ACAD_REACTORS
330
C
102
}
330
C
100
AcDbDictionary
281
     1
  3
2dWireframe
350
2F
  3
3D Hidden
350
31
  3
3dWireframe
350
30
  3
Basic
350
32
  3
Brighten
350
36
  3
ColorChange
350
3A
  3
Conceptual
350
34
  3
Dim
350
35
  3
Facepattern
350
39
  3
Flat
350
2B
  3
FlatWithEdges
350
2C
  3
Gouraud
350
2D
  3
GouraudWithEdges
350
2E
  3
Linepattern
350
38
  3
Realistic
350
33
  3
Thicken
350
37
  0
LAYOUT
  5
1E
102
{ACAD_REACTORS
330
1A
102
}
330
1A
100
AcDbPlotSettings
  1

  2
none_device
  4

  6

 40
0.0
 41
0.0
 42
0.0
 43
0.0
 44
0.0
 45
0.0
 46
0.0
 47
0.0
 48
0.0
 49
0.0
140
0.0
141
0.0
142
1.0
143
1.0
 70
   688
 72
     0
 73
     0
 74
     5
  7

 75
    16
 76
     0
 77
     2
 78
   300
147
1.0
148
0.0
149
0.0
100
AcDbLayout
  1
Layout1
 70
     1
 71
     1
 10
0.0
 20
0.0
 11
12.0
 21
9.0
 12
0.0
 22
0.0
 32
0.0
 14
1.000000000000000E+20
 24
1.000000000000000E+20
 34
1.000000000000000E+20
 15
-1.000000000000000E+20
 25
-1.000000000000000E+20
 35
-1.000000000000000E+20
146
0.0
 13
0.0
 23
0.0
 33
0.0
 16
1.0
 26
0.0
 36
0.0
 17
0.0
 27
1.0
 37
0.0
 76
     0
330
1B
  0
LAYOUT
  5
26
102
{ACAD_REACTORS
330
1A
102
}
330
1A
100
AcDbPlotSettings
  1

  2
none_device
  4

  6

 40
0.0
 41
0.0
 42
0.0
 43
0.0
 44
0.0
 45
0.0
 46
0.0
 47
0.0
 48
0.0
 49
0.0
140
0.0
141
0.0
142
1.0
143
1.0
 70
   688
 72
     0
 73
     0
 74
     5
  7

 75
    16
 76
     0
 77
     2
 78
   300
147
1.0
148
0.0
149
0.0
100
AcDbLayout
  1
Layout2
 70
     1
 71
     2
 10
0.0
 20
0.0
 11
0.0
 21
0.0
 12
0.0
 22
0.0
 32
0.0
 14
0.0
 24
0.0
 34
0.0
 15
0.0
 25
0.0
 35
0.0
146
0.0
 13
0.0
 23
0.0
 33
0.0
 16
1.0
 26
0.0
 36
0.0
 17
0.0
 27
1.0
 37
0.0
 76
     0
330
23
  0
LAYOUT
  5
22
102
{ACAD_REACTORS
330
1A
102
}
330
1A
100
AcDbPlotSettings
  1

  2
none_device
  4

  6

 40
0.0
 41
0.0
 42
0.0
 43
0.0
 44
0.0
 45
0.0
 46
0.0
 47
0.0
 48
0.0
 49
0.0
140
0.0
141
0.0
142
1.0
143
1.0
 70
  1712
 72
     0
 73
     0
 74
     0
  7

 75
     0
 76
     0
 77
     2
 78
   300
147
1.0
148
0.0
149
0.0
100
AcDbLayout
  1
Model
 70
     1
 71
     0
 10
0.0
 20
0.0
 11
12.0
 21
9.0
 12
0.0
 22
0.0
 32
0.0
 14
1.000000000000000E+20
 24
1.000000000000000E+20
 34
1.000000000000000E+20
 15
-1.000000000000000E+20
 25
-1.000000000000000E+20
 35
-1.000000000000000E+20
146
0.0
 13
0.0
 23
0.0
 33
0.0
 16
1.0
 26
0.0
 36
0.0
 17
0.0
 27
1.0
 37
0.0
 76
     0
330
1F
331
29
  0
MLINESTYLE
  5
18
102
{ACAD_REACTORS
330
17
102
}
330
17
100
AcDbMlineStyle
  2
Standard
 70
     0
  3

 62
   256
 51
90.0
 52
90.0
 71
     2
 49
0.5
 62
   256
  6
BYLAYER
 49
-0.5
 62
   256
  6
BYLAYER
  0
ACDBPLACEHOLDER
  5
F
102
{ACAD_REACTORS
330
E
102
}
330
E
  0
VISUALSTYLE
  5
2F
102
{ACAD_REACTORS
330
2A
102
}
330
2A
100
AcDbVisualStyle
  2
2dWireframe
 70
     4
 71
     0
 72
     2
 73
     0
 90
        0
 40
-0.6
 41
-30.0
 62
     5
 63
     7
421
 16777215
 74
     1
 91
        4
 64
     7
 65
   257
 75
     1
175
     1
 42
1.0
 92
        0
 66
   257
 43
1.0
 76
     1
 77
     6
 78
     2
 67
     7
 79
     5
170
     0
171
     0
290
     0
174
     0
 93
        1
 44
0.0
173
     0
291
     0
 45
0.0
1001
ACAD
1000
AcDbSavedByObjectVersion
1070
     0
  0
VISUALSTYLE
  5
31
102
{ACAD_REACTORS
330
2A
102
}
330
2A
100
AcDbVisualStyle
  2
3D Hidden
 70
     6
 71
     1
 72
     2
 73
     2
 90
        0
 40
-0.6
 41
-30.0
 62
     5
 63
     7
421
 16777215
 74
     2
 91
        2
 64
     7
 65
   257
 75
     2
175
     1
 42
40.0
 92
        0
 66
   257
 43
1.0
 76
     1
 77
     6
 78
     2
 67
     7
 79
     3
170
     0
171
     0
290
     0
174
     0
 93
        1
 44
0.0
173
     0
291
     0
 45
0.0
1001
ACAD
1000
AcDbSavedByObjectVersion
1070
     0
  0
VISUALSTYLE
  5
30
102
{ACAD_REACTORS
330
2A
102
}
330
2A
100
AcDbVisualStyle
  2
3dWireframe
 70
     5
 71
     0
 72
     2
 73
     0
 90
        0
 40
-0.6
 41
-30.0
 62
     5
 63
     7
421
 16777215
 74
     1
 91
        4
 64
     7
 65
   257
 75
     1
175
     1
 42
1.0
 92
        0
 66
   257
 43
1.0
 76
     1
 77
     6
 78
     2
 67
     7
 79
     5
170
     0
171
     0
290
     0
174
     0
 93
        1
 44
0.0
173
     0
291
     0
 45
0.0
1001
ACAD
1000
AcDbSavedByObjectVersion
1070
     0
  0
VISUALSTYLE
  5
32
102
{ACAD_REACTORS
330
2A
102
}
330
2A
100
AcDbVisualStyle
  2
Basic
 70
     7
 71
     1
 72
     0
 73
     1
 90
        0
 40
-0.6
 41
-30.0
 62
     5
 63
     7
421
 16777215
 74
     0
 91
        4
 64
     7
 65
   257
 75
     1
175
     1
 42
1.0
 92
        8
 66
     7
 43
1.0
 76
     1
 77
     6
 78
     2
 67
     7
 79
     5
170
     0
171
     0
290
     0
174
     0
 93
        1
 44
0.0
173
     0
291
     1
 45
0.0
1001
ACAD
1000
AcDbSavedByObjectVersion
1070
     0
  0
VISUALSTYLE
  5
36
102
{ACAD_REACTORS
330
2A
102
}
330
2A
100
AcDbVisualStyle
  2
Brighten
 70
    12
 71
     2
 72
     2
 73
     0
 90
        0
 40
-0.6
 41
-30.0
 62
     5
 63
     7
421
 16777215
 74
     1
 91
        4
 64
     7
 65
   257
 75
     1
175
     1
 42
1.0
 92
        8
 66
     7
 43
1.0
 76
     1
 77
     6
 78
     2
 67
     7
 79
     5
170
     0
171
     0
290
     0
174
     0
 93
        1
 44
50.0
173
     0
291
     1
 45
0.0
1001
ACAD
1000
AcDbSavedByObjectVersion
1070
     0
  0
VISUALSTYLE
  5
3A
102
{ACAD_REACTORS
330
2A
102
}
330
2A
100
AcDbVisualStyle
  2
ColorChange
 70
    16
 71
     2
 72
     2
 73
     3
 90
        0
 40
-0.6
 41
-30.0
 62
     5
 63
     8
421
  8421504
 74
     1
 91
        4
 64
     7
 65
   257
 75
     1
175
     1
 42
1.0
 92
        8
 66
     8
424
  8421504
 43
1.0
 76
     1
 77
     6
 78
     2
 67
     7
 79
     5
170
     0
171
     0
290
     0
174
     0
 93
        1
 44
0.0
173
     0
291
     1
 45
0.0
1001
ACAD
1000
AcDbSavedByObjectVersion
1070
     0
  0
VISUALSTYLE
  5
34
102
{ACAD_REACTORS
330
2A
102
}
330
2A
100
AcDbVisualStyle
  2
Conceptual
 70
     9
 71
     3
 72
     2
 73
     0
 90
        0
 40
-0.6
 41
-30.0
 62
     5
 63
     7
421
 16777215
 74
     2
 91
        2
 64
     7
 65
   257
 75
     1
175
     1
 42
40.0
 92
        8
 66
     7
 43
1.0
 76
     1
 77
     6
 78
     2
 67
     7
 79
     3
170
     0
171
     0
290
     0
174
     0
 93
        1
 44
0.0
173
     0
291
     0
 45
0.0
1001
ACAD
1000
AcDbSavedByObjectVersion
1070
     0
  0
VISUALSTYLE
  5
35
102
{ACAD_REACTORS
330
2A
102
}
330
2A
100
AcDbVisualStyle
  2
Dim
 70
    11
 71
     2
 72
     2
 73
     0
 90
        0
 40
-0.6
 41
-30.0
 62
     5
 63
     7
421
 16777215
 74
     1
 91
        4
 64
     7
 65
   257
 75
     1
175
     1
 42
1.0
 92
        8
 66
     7
 43
1.0
 76
     1
 77
     6
 78
     2
 67
     7
 79
     5
170
     0
171
     0
290
     0
174
     0
 93
        1
 44
-50.0
173
     0
291
     1
 45
0.0
1001
ACAD
1000
AcDbSavedByObjectVersion
1070
     0
  0
VISUALSTYLE
  5
39
102
{ACAD_REACTORS
330
2A
102
}
330
2A
100
AcDbVisualStyle
  2
Facepattern
 70
    15
 71
     2
 72
     2
 73
     0
 90
        0
 40
-0.6
 41
-30.0
 62
     5
 63
     7
421
 16777215
 74
     1
 91
        4
 64
     7
 65
   257
 75
     1
175
     1
 42
1.0
 92
        8
 66
     7
 43
1.0
 76
     1
 77
     6
 78
     2
 67
     7
 79
     5
170
     0
171
     0
290
     0
174
     0
 93
        1
 44
0.0
173
     0
291
     1
 45
0.0
1001
ACAD
1000
AcDbSavedByObjectVersion
1070
     0
  0
VISUALSTYLE
  5
2B
102
{ACAD_REACTORS
330
2A
102
}
330
2A
100
AcDbVisualStyle
  2
Flat
 70
     0
 71
     2
 72
     1
 73
     1
 90
        2
 40
-0.6
 41
30.0
 62
     5
 63
     7
421
 16777215
 74
     0
 91
        4
 64
     7
 65
   257
 75
     1
175
     1
 42
1.0
 92
        8
 66
     7
 43
1.0
 76
     1
 77
     6
 78
     2
 67
     7
 79
     5
170
     0
171
     0
290
     0
174
     0
 93
       13
 44
0.0
173
     0
291
     1
 45
0.0
1001
ACAD
1000
AcDbSavedByObjectVersion
1070
     0
  0
VISUALSTYLE
  5
2C
102
{ACAD_REACTORS
330
2A
102
}
330
2A
100
AcDbVisualStyle
  2
FlatWithEdges
 70
     1
 71
     2
 72
     1
 73
     1
 90
        2
 40
-0.6
 41
30.0
 62
     5
 63
     7
421
 16777215
 74
     1
 91
        4
 64
     7
 65
   257
 75
     1
175
     1
 42
1.0
 92
        0
 66
   257
 43
1.0
 76
     1
 77
     6
 78
     2
 67
     7
 79
     5
170
     0
171
     0
290
     0
174
     0
 93
       13
 44
0.0
173
     0
291
     1
 45
0.0
1001
ACAD
1000
AcDbSavedByObjectVersion
1070
     0
  0
VISUALSTYLE
  5
2D
102
{ACAD_REACTORS
330
2A
102
}
330
2A
100
AcDbVisualStyle
  2
Gouraud
 70
     2
 71
     2
 72
     2
 73
     1
 90
        2
 40
-0.6
 41
30.0
 62
     5
 63
     7
421
 16777215
 74
     0
 91
        4
 64
     7
 65
   257
 75
     1
175
     1
 42
1.0
 92
        0
 66
     7
 43
1.0
 76
     1
 77
     6
 78
     2
 67
     7
 79
     5
170
     0
171
     0
290
     0
174
     0
 93
       13
 44
0.0
173
     0
291
     1
 45
0.0
1001
ACAD
1000
AcDbSavedByObjectVersion
1070
     0
  0
VISUALSTYLE
  5
2E
102
{ACAD_REACTORS
330
2A
102
}
330
2A
100
AcDbVisualStyle
  2
GouraudWithEdges
 70
     3
 71
     2
 72
     2
 73
     1
 90
        2
 40
-0.6
 41
30.0
 62
     5
 63
     7
421
 16777215
 74
     1
 91
        4
 64
     7
 65
   257
 75
     1
175
     1
 42
1.0
 92
        0
 66
   257
 43
1.0
 76
     1
 77
     6
 78
     2
 67
     7
 79
     5
170
     0
171
     0
290
     0
174
     0
 93
       13
 44
0.0
173
     0
291
     1
 45
0.0
1001
ACAD
1000
AcDbSavedByObjectVersion
1070
     0
  0
VISUALSTYLE
  5
38
102
{ACAD_REACTORS
330
2A
102
}
330
2A
100
AcDbVisualStyle
  2
Linepattern
 70
    14
 71
     2
 72
     2
 73
     0
 90
        0
 40
-0.6
 41
-30.0
 62
     5
 63
     7
421
 16777215
 74
     1
 91
        4
 64
     7
 65
   257
 75
     7
175
     7
 42
1.0
 92
        8
 66
     7
 43
1.0
 76
     1
 77
     6
 78
     2
 67
     7
 79
     5
170
     0
171
     0
290
     0
174
     0
 93
        1
 44
0.0
173
     0
291
     1
 45
0.0
1001
ACAD
1000
AcDbSavedByObjectVersion
1070
     0
  0
VISUALSTYLE
  5
33
102
{ACAD_REACTORS
330
2A
102
}
330
2A
100
AcDbVisualStyle
  2
Realistic
 70
     8
 71
     2
 72
     2
 73
     0
 90
        0
 40
-0.6
 41
-30.0
 62
     5
 63
     7
421
 16777215
 74
     1
 91
        0
 64
     7
 65
   257
 75
     1
175
     1
 42
1.0
 92
        8
 66
     8
424
  7895160
 43
1.0
 76
     1
 77
     6
 78
     2
 67
     7
 79
     5
170
     0
171
     0
290
     0
174
     0
 93
       13
 44
0.0
173
     0
291
     0
 45
0.0
1001
ACAD
1000
AcDbSavedByObjectVersion
1070
     0
  0
VISUALSTYLE
  5
37
102
{ACAD_REACTORS
330
2A
102
}
330
2A
100
AcDbVisualStyle
  2
Thicken
 70
    13
 71
     2
 72
     2
 73
     0
 90
        0
 40
-0.6
 41
-30.0
 62
     5
 63
     7
421
 16777215
 74
     1
 91
        4
 64
     7
 65
   257
 75
     1
175
     1
 42
1.0
 92
       12
 66
     7
 43
1.0
 76
     1
 77
     6
 78
     2
 67
     7
 79
     5
170
     0
171
     0
290
     0
174
     0
 93
        1
 44
0.0
173
     0
291
     1
 45
0.0
1001
ACAD
1000
AcDbSavedByObjectVersion
1070
     0
  0
ENDSEC
  0
EOF
