  0
SECTION
  2
HEADER
  9
$ACADVER
  1
AC1018
  9
$ACADMAINTVER
 70
     0
  9
$DWGCODEPAGE
  3
ANSI_1252
  9
$INSBASE
 10
0.0
 20
0.0
 30
0.0
  9
$EXTMIN
 10
-3.256506992394367
 20
-0.31259700103287
 30
-3.256506992394367
  9
$EXTMAX
 10
-2.206506992394367
 20
1.17238814896714
 30
-2.206506992394367
  9
$LIMMIN
 10
-3.256506992394367
 20
-0.31259700103287
  9
$LIMMAX
 10
-2.206506992394367
 20
1.17238814896714
  9
$ORTHOMODE
 70
     0
  9
$REGENMODE
 70
     1
  9
$FILLMODE
 70
     1
  9
$QTEXTMODE
 70
     0
  9
$MIRRTEXT
 70
     1
  9
$LTSCALE
 40
1.0
  9
$ATTMODE
 70
     1
  9
$TEXTSIZE
 40
0.2
  9
$TRACEWID
 40
0.05
  9
$TEXTSTYLE
  7
Standard
  9
$CLAYER
  8
0
  9
$CELTYPE
  6
ByLayer
  9
$CECOLOR
 62
   256
  9
$CELTSCALE
 40
1.0
  9
$DISPSILH
 70
     0
  9
$DIMSCALE
 40
1.0
  9
$DIMASZ
 40
0.18
  9
$DIMEXO
 40
0.0625
  9
$DIMDLI
 40
0.38
  9
$DIMRND
 40
0.0
  9
$DIMDLE
 40
0.0
  9
$DIMEXE
 40
0.18
  9
$DIMTP
 40
0.0
  9
$DIMTM
 40
0.0
  9
$DIMTXT
 40
0.18
  9
$DIMCEN
 40
0.09
  9
$DIMTSZ
 40
0.0
  9
$DIMTOL
 70
     0
  9
$DIMLIM
 70
     0
  9
$DIMTIH
 70
     1
  9
$DIMTOH
 70
     1
  9
$DIMSE1
 70
     0
  9
$DIMSE2
 70
     0
  9
$DIMTAD
 70
     0
  9
$DIMZIN
 70
     0
  9
$DIMBLK
  1

  9
$DIMASO
 70
     1
  9
$DIMSHO
 70
     1
  9
$DIMPOST
  1

  9
$DIMAPOST
  1

  9
$DIMALT
 70
     0
  9
$DIMALTD
 70
     2
  9
$DIMALTF
 40
25.4
  9
$DIMLFAC
 40
1.0
  9
$DIMTOFL
 70
     0
  9
$DIMTVP
 40
0.0
  9
$DIMTIX
 70
     0
  9
$DIMSOXD
 70
     0
  9
$DIMSAH
 70
     0
  9
$DIMBLK1
  1

  9
$DIMBLK2
  1

  9
$DIMSTYLE
  2
Standard
  9
$DIMCLRD
 70
     0
  9
$DIMCLRE
 70
     0
  9
$DIMCLRT
 70
     0
  9
$DIMTFAC
 40
1.0
  9
$DIMGAP
 40
0.09
  9
$DIMJUST
 70
     0
  9
$DIMSD1
 70
     0
  9
$DIMSD2
 70
     0
  9
$DIMTOLJ
 70
     1
  9
$DIMTZIN
 70
     0
  9
$DIMALTZ
 70
     0
  9
$DIMALTTZ
 70
     0
  9
$DIMUPT
 70
     0
  9
$DIMDEC
 70
     4
  9
$DIMTDEC
 70
     4
  9
$DIMALTU
 70
     2
  9
$DIMALTTD
 70
     2
  9
$DIMTXSTY
  7
Standard
  9
$DIMAUNIT
 70
     0
  9
$DIMADEC
 70
     0
  9
$DIMALTRND
 40
0.0
  9
$DIMAZIN
 70
     0
  9
$DIMDSEP
 70
    46
  9
$DIMATFIT
 70
     3
  9
$DIMFRAC
 70
     0
  9
$DIMLDRBLK
  1

  9
$DIMLUNIT
 70
     2
  9
$DIMLWD
 70
    -2
  9
$DIMLWE
 70
    -2
  9
$DIMTMOVE
 70
     0
  9
$LUNITS
 70
     2
  9
$LUPREC
 70
     4
  9
$SKETCHINC
 40
0.1
  9
$FILLETRAD
 40
0.5
  9
$AUNITS
 70
     0
  9
$AUPREC
 70
     0
  9
$MENU
  1
.
  9
$ELEVATION
 40
0.0
  9
$PELEVATION
 40
0.0
  9
$THICKNESS
 40
0.0
  9
$LIMCHECK
 70
     0
  9
$CHAMFERA
 40
0.5
  9
$CHAMFERB
 40
0.5
  9
$CHAMFERC
 40
1.0
  9
$CHAMFERD
 40
0.0
  9
$SKPOLY
 70
     0
  9
$TDCREATE
 40
2456756.397025417
  9
$TDUCREATE
 40
2456756.313692083
  9
$TDUPDATE
 40
2456756.397025428
  9
$TDUUPDATE
 40
2456756.313692095
  9
$TDINDWG
 40
0.0000000116
  9
$TDUSRTIMER
 40
0.0000000116
  9
$USRTIMER
 70
     1
  9
$ANGBASE
 50
0.0
  9
$ANGDIR
 70
     0
  9
$PDMODE
 70
    65
  9
$PDSIZE
 40
0.0
  9
$PLINEWID
 40
0.0
  9
$SPLFRAME
 70
     0
  9
$SPLINETYPE
 70
     6
  9
$SPLINESEGS
 70
     8
  9
$HANDSEED
  5
1D1
  9
$SURFTAB1
 70
     6
  9
$SURFTAB2
 70
     6
  9
$SURFTYPE
 70
     6
  9
$SURFU
 70
     6
  9
$SURFV
 70
     6
  9
$UCSBASE
  2

  9
$UCSNAME
  2

  9
$UCSORG
 10
0.0
 20
0.0
 30
0.0
  9
$UCSXDIR
 10
1.0
 20
0.0
 30
0.0
  9
$UCSYDIR
 10
0.0
 20
1.0
 30
0.0
  9
$UCSORTHOREF
  2

  9
$UCSORTHOVIEW
 70
     0
  9
$UCSORGTOP
 10
0.0
 20
0.0
 30
0.0
  9
$UCSORGBOTTOM
 10
0.0
 20
0.0
 30
0.0
  9
$UCSORGLEFT
 10
0.0
 20
0.0
 30
0.0
  9
$UCSORGRIGHT
 10
0.0
 20
0.0
 30
0.0
  9
$UCSORGFRONT
 10
0.0
 20
0.0
 30
0.0
  9
$UCSORGBACK
 10
0.0
 20
0.0
 30
0.0
  9
$PUCSBASE
  2

  9
$PUCSNAME
  2

  9
$PUCSORG
 10
0.0
 20
0.0
 30
0.0
  9
$PUCSXDIR
 10
1.0
 20
0.0
 30
0.0
  9
$PUCSYDIR
 10
0.0
 20
1.0
 30
0.0
  9
$PUCSORTHOREF
  2

  9
$PUCSORTHOVIEW
 70
     0
  9
$PUCSORGTOP
 10
0.0
 20
0.0
 30
0.0
  9
$PUCSORGBOTTOM
 10
0.0
 20
0.0
 30
0.0
  9
$PUCSORGLEFT
 10
0.0
 20
0.0
 30
0.0
  9
$PUCSORGRIGHT
 10
0.0
 20
0.0
 30
0.0
  9
$PUCSORGFRONT
 10
0.0
 20
0.0
 30
0.0
  9
$PUCSORGBACK
 10
0.0
 20
0.0
 30
0.0
  9
$USERI1
 70
     0
  9
$USERI2
 70
     0
  9
$USERI3
 70
     0
  9
$USERI4
 70
     0
  9
$USERI5
 70
     0
  9
$USERR1
 40
0.0
  9
$USERR2
 40
0.0
  9
$USERR3
 40
0.0
  9
$USERR4
 40
0.0
  9
$USERR5
 40
0.0
  9
$WORLDVIEW
 70
     1
  9
$SHADEDGE
 70
     3
  9
$SHADEDIF
 70
    70
  9
$TILEMODE
 70
     1
  9
$MAXACTVP
 70
    64
  9
$PINSBASE
 10
0.0
 20
0.0
 30
0.0
  9
$PLIMCHECK
 70
     0
  9
$PEXTMIN
 10
1.000000000000000E+20
 20
1.000000000000000E+20
 30
1.000000000000000E+20
  9
$PEXTMAX
 10
-1.000000000000000E+20
 20
-1.000000000000000E+20
 30
-1.000000000000000E+20
  9
$PLIMMIN
 10
0.0
 20
0.0
  9
$PLIMMAX
 10
12.0
 20
9.0
  9
$UNITMODE
 70
     0
  9
$VISRETAIN
 70
     1
  9
$PLINEGEN
 70
     0
  9
$PSLTSCALE
 70
     1
  9
$TREEDEPTH
 70
  3020
  9
$CMLSTYLE
  2
Standard
  9
$CMLJUST
 70
     0
  9
$CMLSCALE
 40
1.0
  9
$PROXYGRAPHICS
 70
     1
  9
$MEASUREMENT
 70
     1
  9
$CELWEIGHT
370
    -1
  9
$ENDCAPS
280
     0
  9
$JOINSTYLE
280
     0
  9
$LWDISPLAY
290
     0
  9
$INSUNITS
 70
     6
  9
$HYPERLINKBASE
  1

  9
$STYLESHEET
  1

  9
$XEDIT
290
     1
  9
$CEPSNTYPE
380
     0
  9
$PSTYLEMODE
290
     1
  9
$FINGERPRINTGUID
  2
{8FC49D0B-D96B-4062-839B-C8613F788E70}
  9
$VERSIONGUID
  2
{FAEB1C32-E019-11D5-929B-00C0DF256EC4}
  9
$EXTNAMES
290
     1
  9
$PSVPSCALE
 40
0.0
  9
$OLESTARTUP
290
     0
  9
$SORTENTS
280
   127
  9
$INDEXCTL
280
     0
  9
$HIDETEXT
280
     1
  9
$XCLIPFRAME
290
     0
  9
$HALOGAP
280
     0
  9
$OBSCOLOR
 70
   257
  9
$OBSLTYPE
280
     0
  9
$INTERSECTIONDISPLAY
280
     0
  9
$INTERSECTIONCOLOR
 70
   257
  9
$DIMASSOC
280
     2
  9
$PROJECTNAME
  1

  0
ENDSEC
  0
SECTION
  2
CLASSES
  0
CLASS
  1
ACDBDICTIONARYWDFLT
  2
AcDbDictionaryWithDefault
  3
ObjectDBX Classes
 90
        0
 91
       13
280
     0
281
     0
  0
CLASS
  1
SORTENTSTABLE
  2
AcDbSortentsTable
  3
ObjectDBX Classes
 90
        0
 91
       12
280
     0
281
     0
  0
ENDSEC
  0
SECTION
  2
TABLES
  0
TABLE
  2
VPORT
  5
8
330
0
100
AcDbSymbolTable
 70
     1
  0
VPORT
  5
29
330
8
100
AcDbSymbolTableRecord
100
AcDbViewportTableRecord
  2
*Active
 70
     0
 10
0.0
 20
0.0
 11
1.0
 21
1.0
 12
-2.731506992394367
 22
0.4298955739671351
 13
0.0
 23
0.0
 14
0.5
 24
0.5
 15
0.5
 25
0.5
 16
0.0
 26
0.0
 36
1.0
 17
0.0
 27
0.0
 37
0.0
 40
1.781982180000012
 41
0.8484933334181768
 42
50.0
 43
0.0
 44
0.0
 50
0.0
 51
0.0
 71
     0
 72
   100
 73
     1
 74
     3
 75
     0
 76
     0
 77
     0
 78
     0
281
     0
 65
     1
110
0.0
120
0.0
130
0.0
111
1.0
121
0.0
131
0.0
112
0.0
122
1.0
132
0.0
 79
     0
146
0.0
  0
ENDTAB
  0
TABLE
  2
LTYPE
  5
5
330
0
100
AcDbSymbolTable
 70
     4
  0
LTYPE
  5
14
330
5
100
AcDbSymbolTableRecord
100
AcDbLinetypeTableRecord
  2
ByBlock
 70
     0
  3

 72
    65
 73
     0
 40
0.0
  0
LTYPE
  5
15
330
5
100
AcDbSymbolTableRecord
100
AcDbLinetypeTableRecord
  2
ByLayer
 70
     0
  3

 72
    65
 73
     0
 40
0.0
  0
LTYPE
  5
16
330
5
100
AcDbSymbolTableRecord
100
AcDbLinetypeTableRecord
  2
Continuous
 70
     0
  3
Solid line
 72
    65
 73
     0
 40
0.0
  0
LTYPE
  5
2A
330
5
100
AcDbSymbolTableRecord
100
AcDbLinetypeTableRecord
  2
AUSGEZOGEN
 70
     0
  3
durchgezogene Linie
 72
    65
 73
     0
 40
0.0
  0
LTYPE
  5
2B
330
5
100
AcDbSymbolTableRecord
100
AcDbLinetypeTableRecord
  2
STRICHPUNKT
 70
     0
  3
Strichpunktiert ___ . ___ . ___ . ___ . ___ . _
 72
    65
 73
     4
 40
25.4
 49
12.7
 74
     0
 49
-6.35
 74
     0
 49
0.0
 74
     0
 49
-6.35
 74
     0
  0
LTYPE
  5
2C
330
5
100
AcDbSymbolTableRecord
100
AcDbLinetypeTableRecord
  2
VERDECKT
 70
     0
  3
Kurzgestrichelt __ __ __ __ __ __ __ __ __ __ _
 72
    65
 73
     2
 40
9.524999999999999
 49
6.35
 74
     0
 49
-3.175
 74
     0
  0
ENDTAB
  0
TABLE
  2
LAYER
  5
2
330
0
100
AcDbSymbolTable
 70
     5
  0
LAYER
  5
10
330
2
100
AcDbSymbolTableRecord
100
AcDbLayerTableRecord
  2
0
 70
     0
 62
     7
  6
Continuous
370
    -3
390
F
  0
LAYER
  5
2E
330
2
100
AcDbSymbolTableRecord
100
AcDbLayerTableRecord
  2
_64844
 70
     4
 62
     7
  6
Continuous
370
    -3
390
F
1001
AcAecLayerStandard
1000

1000
Unbekannter Layername, an
  0
LAYER
  5
30
330
2
100
AcDbSymbolTableRecord
100
AcDbLayerTableRecord
  2
_65275
 70
     4
 62
     7
  6
Continuous
370
    -3
390
F
1001
AcAecLayerStandard
1000

1000
Unbekannter Layername, an
  0
LAYER
  5
31
330
2
100
AcDbSymbolTableRecord
100
AcDbLayerTableRecord
  2
_65281
 70
     4
 62
     7
  6
Continuous
370
    -3
390
F
1001
AcAecLayerStandard
1000

1000
Unbekannter Layername, an
  0
LAYER
  5
32
330
2
100
AcDbSymbolTableRecord
100
AcDbLayerTableRecord
  2
STANDARD
 70
     0
 62
     7
  6
AUSGEZOGEN
370
    18
390
F
1001
AcAecLayerStandard
1000

1000
STANDARD
  0
ENDTAB
  0
TABLE
  2
STYLE
  5
3
330
0
100
AcDbSymbolTable
 70
     2
  0
STYLE
  5
11
330
3
100
AcDbSymbolTableRecord
100
AcDbTextStyleTableRecord
  2
Standard
 70
     0
 40
0.0
 41
1.0
 50
0.0
 71
     0
 42
0.2
  3
txt
  4

  0
STYLE
  5
2D
330
3
100
AcDbSymbolTableRecord
100
AcDbTextStyleTableRecord
  2
ARIAL
 70
     0
 40
0.0
 41
1.0
 50
0.0
 71
     0
 42
0.0
  3
ARIAL.TTF
  4

1001
ACAD
1000
Arial
1071
       34
  0
ENDTAB
  0
TABLE
  2
VIEW
  5
6
330
0
100
AcDbSymbolTable
 70
     0
  0
ENDTAB
  0
TABLE
  2
UCS
  5
7
330
0
100
AcDbSymbolTable
 70
     0
  0
ENDTAB
  0
TABLE
  2
APPID
  5
9
330
0
100
AcDbSymbolTable
 70
     3
  0
APPID
  5
12
330
9
100
AcDbSymbolTableRecord
100
AcDbRegAppTableRecord
  2
ACAD
 70
     0
  0
APPID
  5
2F
330
9
100
AcDbSymbolTableRecord
100
AcDbRegAppTableRecord
  2
AcAecLayerStandard
 70
     0
  0
APPID
  5
78
330
9
100
AcDbSymbolTableRecord
100
AcDbRegAppTableRecord
  2
NEM_ODX
 70
     0
  0
ENDTAB
  0
TABLE
  2
DIMSTYLE
  5
A
330
0
100
AcDbSymbolTable
 70
     1
100
AcDbDimStyleTable
  0
DIMSTYLE
105
27
330
A
100
AcDbSymbolTableRecord
100
AcDbDimStyleTableRecord
  2
Standard
 70
     0
340
11
  0
ENDTAB
  0
TABLE
  2
BLOCK_RECORD
  5
1
330
0
100
AcDbSymbolTable
 70
     1
  0
BLOCK_RECORD
  5
1F
102
{ACAD_XDICTIONARY
360
1CF
102
}
330
1
100
AcDbSymbolTableRecord
100
AcDbBlockTableRecord
  2
*Model_Space
340
22
  0
BLOCK_RECORD
  5
1B
330
1
100
AcDbSymbolTableRecord
100
AcDbBlockTableRecord
  2
*Paper_Space
340
1E
  0
BLOCK_RECORD
  5
23
330
1
100
AcDbSymbolTableRecord
100
AcDbBlockTableRecord
  2
*Paper_Space0
340
26
  0
ENDTAB
  0
ENDSEC
  0
SECTION
  2
BLOCKS
  0
BLOCK
  5
20
330
1F
100
AcDbEntity
  8
0
100
AcDbBlockBegin
  2
*Model_Space
 70
     0
 71
     0
 10
0.0
 20
0.0
 30
0.0
  3
*Model_Space
  1

  0
ENDBLK
  5
21
330
1F
100
AcDbEntity
  8
0
100
AcDbBlockEnd
  0
BLOCK
  5
1C
330
1B
100
AcDbEntity
 67
     1
  8
0
100
AcDbBlockBegin
  2
*Paper_Space
 70
     0
 71
     0
 10
0.0
 20
0.0
 30
0.0
  3
*Paper_Space
  1

  0
ENDBLK
  5
1D
330
1B
100
AcDbEntity
 67
     1
  8
0
100
AcDbBlockEnd
  0
BLOCK
  5
24
330
23
100
AcDbEntity
  8
0
100
AcDbBlockBegin
  2
*Paper_Space0
 70
     0
 71
     0
 10
0.0
 20
0.0
 30
0.0
  3
*Paper_Space0
  1

  0
ENDBLK
  5
25
330
23
100
AcDbEntity
  8
0
100
AcDbBlockEnd
  0
ENDSEC
  0
SECTION
  2
ENTITIES
  0
LINE
  5
33
330
1F
100
AcDbEntity
  8
STANDARD
  6
AUSGEZOGEN
 62
   240
370
    70
100
AcDbLine
 10
-3.256496492394367
 20
-0.31259700103287
 30
0.0
 11
-3.256496492394367
 21
1.17238814896713
 31
0.0
  0
MTEXT
  5
34
330
1F
100
AcDbEntity
  8
STANDARD
  6
AUSGEZOGEN
 62
     7
370
    18
100
AcDbMText
 10
-3.138340954658517
 20
1.05873930225155
 30
0.0
 40
0.0175
 41
0.374509220231823
 71
     7
 72
     5
  1
\W1.00;EMBRASURE\~OF\~THE\~WINDOW
  7
ARIAL
 73
     1
 44
1.0
  0
MTEXT
  5
35
330
1F
100
AcDbEntity
  8
STANDARD
  6
AUSGEZOGEN
 62
     7
370
    18
100
AcDbMText
 10
-3.138340954658517
 20
1.03248930225155
 30
0.0
 40
0.0175
 41
0.3261057481432338
 71
     7
 72
     5
  1
\W1.00;EMBRASURE\~DE\~FENETRE
  7
ARIAL
 73
     1
 44
1.0
  0
MTEXT
  5
36
330
1F
100
AcDbEntity
  8
STANDARD
  6
AUSGEZOGEN
 62
     7
370
    18
100
AcDbMText
 10
-3.138340954658517
 20
1.09375041336266
 30
0.0
 40
0.025
 41
0.5258585464246207
 71
     7
 72
     5
  1
\W1.00;FENSTERLEIBUNG\~MIT\~BLECH
  7
ARIAL
 73
     1
 44
1.0
  0
LINE
  5
37
330
1F
100
AcDbEntity
  8
STANDARD
  6
AUSGEZOGEN
 62
   240
370
    70
100
AcDbLine
 10
-3.256506992394367
 20
1.17238814896713
 30
0.0
 11
-3.256506992394367
 21
-0.31259700103287
 31
0.0
  0
MTEXT
  5
38
330
1F
100
AcDbEntity
  8
STANDARD
  6
AUSGEZOGEN
 62
     7
370
    18
100
AcDbMText
 10
-3.138699976709078
 20
-0.2450198531023701
 30
0.0
 40
0.009
 41
0.8964604604692507
 71
     7
 72
     5
  1
\W0.85;THESE\~ARE\~NOT\~BINDING\~CONSTRUCTION\~PROPOSALS\~WHICH\~HAVE\~TO\~BE\~VERIFIED\~FOR\~EACH\~INDIVIDUAL\~PROJECT\~AS\~REGARDS\~APPLICABILITY\~AND\~CORRECTNESS.
  7
ARIAL
 73
     1
 44
1.0
  0
MTEXT
  5
39
330
1F
100
AcDbEntity
  8
STANDARD
  6
AUSGEZOGEN
 62
     7
370
    18
100
AcDbMText
 10
-3.138699976709078
 20
-0.22702003310237
 30
0.0
 40
0.009
 41
0.8975001858667647
 71
     7
 72
     5
  1
\W0.91;DIES\~SIND\~UNVERBINDLICHE\~KONSTRUKTIONSVORSCHLÄGE,\~DIE\~FÜR\~JEDES\~PROJEKT\~AUF\~ANWENDBARKEIT\~UND\~RICHTIGKEIT\~GEPRÜFT\~WERDEN\~MÜSSEN.
  7
ARIAL
 73
     1
 44
1.0
  0
MTEXT
  5
3A
330
1F
100
AcDbEntity
  8
STANDARD
  6
AUSGEZOGEN
 62
     7
370
    18
100
AcDbMText
 10
-3.138699976709078
 20
-0.2630196731023701
 30
0.0
 40
0.009
 41
0.8958042950981258
 71
     7
 72
     5
  1
\W0.80;IL\~S'\~AGIT\~DE\~PROPOSITIONS\~DE\~CONSTRUCTION\~SANS\~ENGAGEMENT\~DE\~NOTRE\~PART\~QUI\~DOIVENT\~ETRE\~VERIFIEES\~POUR\~CHAQUE\~PROJET\~A\~LEUR\~EXACTITUDE\~ET\~FAISABILITE.
  7
ARIAL
 73
     1
 44
1.0
  0
MTEXT
  5
3B
330
1F
100
AcDbEntity
  8
STANDARD
  6
AUSGEZOGEN
 62
     7
370
    18
100
AcDbMText
 10
-3.139168477683062
 20
0.97658353105294
 30
0.0
 40
0.0225
 41
0.2355245098039216
 71
     7
 72
     5
  1
\W1.00;KeraTwin\~\~\~K20\~
  7
ARIAL
 73
     1
 44
1.0
  0
MTEXT
  5
3C
330
1F
100
AcDbEntity
  8
STANDARD
  6
AUSGEZOGEN
 62
     7
370
    18
100
AcDbMText
 10
-3.006109758497016
 20
0.98570085729766
 30
0.0
 40
0.01
 41
0.024254406130268
 71
     7
 72
     5
  1
{\fArial|i0|b0;\H0.017500;\W0.911111;\C7;®}\P
  7
ARIAL
 73
     1
 44
1.0
  0
LINE
  5
3D
330
1F
100
AcDbEntity
  8
STANDARD
  6
AUSGEZOGEN
 62
     7
370
    18
100
AcDbLine
 10
-2.511789814050048
 20
0.49231392487703
 30
0.0
 11
-2.511789814050048
 21
0.4623139248770299
 31
0.0
  0
LINE
  5
3E
330
1F
100
AcDbEntity
  8
STANDARD
  6
AUSGEZOGEN
 62
     7
370
    18
100
AcDbLine
 10
-2.511789814050048
 20
0.4623139248770299
 30
0.0
 11
-2.514789814050047
 21
0.4623139248770299
 31
0.0
  0
LINE
  5
3F
330
1F
100
AcDbEntity
  8
STANDARD
  6
AUSGEZOGEN
 62
     7
370
    18
100
AcDbLine
 10
-2.516789814050048
 20
0.4653139248770299
 30
0.0
 11
-2.514789814050047
 21
0.4623139248770299
 31
0.0
  0
LINE
  5
40
330
1F
100
AcDbEntity
  8
STANDARD
  6
AUSGEZOGEN
 62
     7
370
    18
100
AcDbLine
 10
-2.514789814050047
 20
0.4653139248770299
 30
0.0
 11
-2.516789814050048
 21
0.4653139248770299
 31
0.0
  0
LINE
  5
41
330
1F
100
AcDbEntity
  8
STANDARD
  6
AUSGEZOGEN
 62
     7
370
    18
100
AcDbLine
 10
-2.514789814050047
 20
0.48931392487703
 30
0.0
 11
-2.514789814050047
 21
0.4653139248770299
 31
0.0
  0
LINE
  5
42
330
1F
100
AcDbEntity
  8
STANDARD
  6
AUSGEZOGEN
 62
     7
370
    18
100
AcDbLine
 10
-2.524789814050048
 20
0.48931392487703
 30
0.0
 11
-2.524789814050048
 21
0.4623139248770299
 31
0.0
  0
LINE
  5
43
330
1F
100
AcDbEntity
  8
STANDARD
  6
AUSGEZOGEN
 62
     7
370
    18
100
AcDbLine
 10
-2.521789814050047
 20
0.4623139248770299
 30
0.0
 11
-2.524789814050048
 21
0.4623139248770299
 31
0.0
  0
LINE
  5
44
330
1F
100
AcDbEntity
  8
STANDARD
  6
AUSGEZOGEN
 62
     7
370
    18
100
AcDbLine
 10
-2.519789814050048
 20
0.4653139248770299
 30
0.0
 11
-2.521789814050047
 21
0.4623139248770299
 31
0.0
  0
LINE
  5
45
330
1F
100
AcDbEntity
  8
STANDARD
  6
AUSGEZOGEN
 62
     7
370
    18
100
AcDbLine
 10
-2.521789814050047
 20
0.4653139248770299
 30
0.0
 11
-2.519789814050048
 21
0.4653139248770299
 31
0.0
  0
LINE
  5
46
330
1F
100
AcDbEntity
  8
STANDARD
  6
AUSGEZOGEN
 62
     7
370
    18
100
AcDbLine
 10
-2.521789814050047
 20
0.48931392487703
 30
0.0
 11
-2.521789814050047
 21
0.4653139248770299
 31
0.0
  0
LINE
  5
47
330
1F
100
AcDbEntity
  8
STANDARD
  6
AUSGEZOGEN
 62
     7
370
    18
100
AcDbLine
 10
-2.514789814050047
 20
0.48931392487703
 30
0.0
 11
-2.521789814050047
 21
0.48931392487703
 31
0.0
  0
LINE
  5
48
330
1F
100
AcDbEntity
  8
STANDARD
  6
AUSGEZOGEN
 62
    22
370
    50
100
AcDbLine
 10
-2.559789814050048
 20
0.68831392487703
 30
0.0
 11
-2.559789814050048
 21
0.3883139248770299
 31
0.0
  0
LINE
  5
49
330
1F
100
AcDbEntity
  8
STANDARD
  6
AUSGEZOGEN
 62
   100
370
    25
100
AcDbLine
 10
-2.474789814050047
 20
0.55231392487703
 30
0.0
 11
-2.474789814050047
 21
0.49231392487703
 31
0.0
  0
LINE
  5
4A
330
1F
100
AcDbEntity
  8
STANDARD
  6
AUSGEZOGEN
 62
   100
370
    25
100
AcDbLine
 10
-2.499789814050048
 20
0.55231392487703
 30
0.0
 11
-2.499789814050048
 21
0.56731392487703
 31
0.0
  0
LINE
  5
4B
330
1F
100
AcDbEntity
  8
STANDARD
  6
AUSGEZOGEN
 62
   100
370
    25
100
AcDbLine
 10
-2.419789814050048
 20
0.56731392487703
 30
0.0
 11
-2.419789814050048
 21
0.50731392487703
 31
0.0
  0
LINE
  5
4C
330
1F
100
AcDbEntity
  8
STANDARD
  6
AUSGEZOGEN
 62
   100
370
    25
100
AcDbLine
 10
-2.474789814050047
 20
0.50731392487703
 30
0.0
 11
-2.419789814050048
 21
0.50731392487703
 31
0.0
  0
LINE
  5
4D
330
1F
100
AcDbEntity
  8
STANDARD
  6
AUSGEZOGEN
 62
   100
370
    25
100
AcDbLine
 10
-2.499789814050048
 20
0.56731392487703
 30
0.0
 11
-2.419789814050048
 21
0.56731392487703
 31
0.0
  0
LINE
  5
4E
330
1F
100
AcDbEntity
  8
STANDARD
  6
AUSGEZOGEN
 62
     7
370
    18
100
AcDbLine
 10
-2.297789814050048
 20
0.56731392487703
 30
0.0
 11
-2.419789814050048
 21
0.56731392487703
 31
0.0
  0
LINE
  5
4F
330
1F
100
AcDbEntity
  8
STANDARD
  6
AUSGEZOGEN
 62
     7
370
    18
100
AcDbLine
 10
-2.297789814050048
 20
0.50731392487703
 30
0.0
 11
-2.419789814050048
 21
0.50731392487703
 31
0.0
  0
LINE
  5
50
330
1F
100
AcDbEntity
  8
STANDARD
  6
AUSGEZOGEN
 62
     7
370
    18
100
AcDbLine
 10
-2.297789814050048
 20
0.49231392487703
 30
0.0
 11
-2.474789814050047
 21
0.49231392487703
 31
0.0
  0
LINE
  5
51
330
1F
100
AcDbEntity
  8
STANDARD
  6
AUSGEZOGEN
 62
   100
370
    25
100
AcDbLine
 10
-2.474789814050047
 20
0.55231392487703
 30
0.0
 11
-2.559789814050048
 21
0.55231392487703
 31
0.0
  0
LINE
  5
52
330
1F
100
AcDbEntity
  8
STANDARD
  6
AUSGEZOGEN
 62
   100
370
    25
100
AcDbLine
 10
-2.474789814050047
 20
0.49231392487703
 30
0.0
 11
-2.559789814050048
 21
0.49231392487703
 31
0.0
  0
LINE
  5
53
330
1F
100
AcDbEntity
  8
STANDARD
  6
AUSGEZOGEN
 62
     7
370
    18
100
AcDbLine
 10
-2.547789814050048
 20
0.49231392487703
 30
0.0
 11
-2.547789814050048
 21
0.48931392487703
 31
0.0
  0
LINE
  5
54
330
1F
100
AcDbEntity
  8
STANDARD
  6
AUSGEZOGEN
 62
     7
370
    18
100
AcDbLine
 10
-2.524789814050048
 20
0.48931392487703
 30
0.0
 11
-2.547789814050048
 21
0.48931392487703
 31
0.0
  0
HATCH
  5
55
330
1F
100
AcDbEntity
  8
STANDARD
  6
AUSGEZOGEN
 62
     0
370
    18
100
AcDbHatch
 10
0.0
 20
0.0
 30
0.0
210
0.0
220
0.0
230
1.0
  2
SOLID
 70
     1
 71
     0
 91
        1
 92
        3
 72
     0
 73
     1
 93
       14
 10
-2.511789814050048
 20
0.49231392487703
 10
-2.547789814050048
 20
0.49231392487703
 10
-2.547789814050048
 20
0.48931392487703
 10
-2.524789814050048
 20
0.48931392487703
 10
-2.524789814050048
 20
0.4623139248770199
 10
-2.521789814050047
 20
0.4623139248770199
 10
-2.519789814050048
 20
0.4653139248770199
 10
-2.521789814050047
 20
0.4653139248770199
 10
-2.521789814050047
 20
0.48931392487703
 10
-2.514789814050047
 20
0.48931392487703
 10
-2.514789814050047
 20
0.4653139248770199
 10
-2.516789814050048
 20
0.4653139248770199
 10
-2.514789814050047
 20
0.4623139248770199
 10
-2.511789814050048
 20
0.4623139248770199
 97
        0
 75
     0
 76
     1
 98
        0
  0
LINE
  5
56
330
1F
100
AcDbEntity
  8
STANDARD
  6
AUSGEZOGEN
 62
     7
370
    18
100
AcDbLine
 10
-2.536789814050048
 20
0.49731392487703
 30
0.0
 11
-2.536789814050048
 21
0.48431392487703
 31
0.0
  0
LINE
  5
57
330
1F
100
AcDbEntity
  8
STANDARD
  6
AUSGEZOGEN
 62
   100
370
    25
100
AcDbLine
 10
-2.549789814050047
 20
0.55231392487703
 30
0.0
 11
-2.549789814050047
 21
0.49231392487703
 31
0.0
  0
LINE
  5
58
330
1F
100
AcDbEntity
  8
STANDARD
  6
AUSGEZOGEN
 62
     7
370
    18
100
AcDbLine
 10
-2.516789814050048
 20
0.48531392487703
 30
0.0
 11
-2.519789814050048
 21
0.48531392487703
 31
0.0
  0
LINE
  5
59
330
1F
100
AcDbEntity
  8
STANDARD
  6
AUSGEZOGEN
 62
    52
370
    18
100
AcDbLine
 10
-2.419789814050048
 20
0.54131392487703
 30
0.0
 11
-2.297789814050048
 21
0.54131392487703
 31
0.0
  0
LINE
  5
5A
330
1F
100
AcDbEntity
  8
STANDARD
  6
AUSGEZOGEN
 62
    52
370
    18
100
AcDbLine
 10
-2.419789814050048
 20
0.53331392487703
 30
0.0
 11
-2.297789814050048
 21
0.53331392487703
 31
0.0
  0
LINE
  5
5B
330
1F
100
AcDbEntity
  8
STANDARD
  6
AUSGEZOGEN
 62
    52
370
    13
100
AcDbLine
 10
-2.519789814050048
 20
0.3883139248770299
 30
0.0
 11
-2.559789814050048
 21
0.3983139248770299
 31
0.0
  0
LINE
  5
5C
330
1F
100
AcDbEntity
  8
STANDARD
  6
AUSGEZOGEN
 62
    52
370
    13
100
AcDbLine
 10
-2.559789814050048
 20
0.3983139248770299
 30
0.0
 11
-2.519789814050048
 21
0.4083139248770299
 31
0.0
  0
LINE
  5
5D
330
1F
100
AcDbEntity
  8
STANDARD
  6
AUSGEZOGEN
 62
    52
370
    13
100
AcDbLine
 10
-2.519789814050048
 20
0.4083139248770299
 30
0.0
 11
-2.559789814050048
 21
0.41831392487703
 31
0.0
  0
LINE
  5
5E
330
1F
100
AcDbEntity
  8
STANDARD
  6
AUSGEZOGEN
 62
    52
370
    13
100
AcDbLine
 10
-2.559789814050048
 20
0.41831392487703
 30
0.0
 11
-2.519789814050048
 21
0.42831392487703
 31
0.0
  0
LINE
  5
5F
330
1F
100
AcDbEntity
  8
STANDARD
  6
AUSGEZOGEN
 62
    52
370
    13
100
AcDbLine
 10
-2.519789814050048
 20
0.4290539248770299
 30
0.0
 11
-2.559789814050048
 21
0.4390539248770299
 31
0.0
  0
LINE
  5
60
330
1F
100
AcDbEntity
  8
STANDARD
  6
AUSGEZOGEN
 62
    52
370
    13
100
AcDbLine
 10
-2.559789814050048
 20
0.4390539248770299
 30
0.0
 11
-2.519789814050048
 21
0.4490539248770299
 31
0.0
  0
LINE
  5
61
330
1F
100
AcDbEntity
  8
STANDARD
  6
AUSGEZOGEN
 62
    52
370
    13
100
AcDbLine
 10
-2.519789814050048
 20
0.4490539248770299
 30
0.0
 11
-2.559789814050048
 21
0.45905392487703
 31
0.0
  0
LINE
  5
62
330
1F
100
AcDbEntity
  8
STANDARD
  6
AUSGEZOGEN
 62
    52
370
    13
100
AcDbLine
 10
-2.559789814050048
 20
0.45905392487703
 30
0.0
 11
-2.524789814050048
 21
0.4678039248770299
 31
0.0
  0
LINE
  5
63
330
1F
100
AcDbEntity
  8
STANDARD
  6
AUSGEZOGEN
 62
    52
370
    13
100
AcDbLine
 10
-2.524789814050048
 20
0.4703039248770299
 30
0.0
 11
-2.559789814050048
 21
0.47905392487703
 31
0.0
  0
LINE
  5
64
330
1F
100
AcDbEntity
  8
STANDARD
  6
AUSGEZOGEN
 62
    52
370
    13
100
AcDbLine
 10
-2.559789814050048
 20
0.47905392487703
 30
0.0
 11
-2.524789814050048
 21
0.4878039248770299
 31
0.0
  0
LINE
  5
65
330
1F
100
AcDbEntity
  8
STANDARD
  6
AUSGEZOGEN
 62
    52
370
    13
100
AcDbLine
 10
-2.8108505891837
 20
0.30831392487703
 30
0.0
 11
-2.8358505891837
 21
0.3883139248770299
 31
0.0
  0
LINE
  5
66
330
1F
100
AcDbEntity
  8
STANDARD
  6
AUSGEZOGEN
 62
    52
370
    13
100
AcDbLine
 10
-2.8358505891837
 20
0.3883139248770299
 30
0.0
 11
-2.8608505891837
 21
0.30831392487703
 31
0.0
  0
LINE
  5
67
330
1F
100
AcDbEntity
  8
STANDARD
  6
AUSGEZOGEN
 62
    52
370
    13
100
AcDbLine
 10
-2.8608505891837
 20
0.30831392487703
 30
0.0
 11
-2.885850589183701
 21
0.3883139248770299
 31
0.0
  0
LINE
  5
68
330
1F
100
AcDbEntity
  8
STANDARD
  6
AUSGEZOGEN
 62
    52
370
    13
100
AcDbLine
 10
-2.885850589183701
 20
0.3883139248770299
 30
0.0
 11
-2.9108505891837
 21
0.30831392487703
 31
0.0
  0
LINE
  5
69
330
1F
100
AcDbEntity
  8
STANDARD
  6
AUSGEZOGEN
 62
    52
370
    13
100
AcDbLine
 10
-2.9108505891837
 20
0.30831392487703
 30
0.0
 11
-2.9358505891837
 21
0.3883139248770299
 31
0.0
  0
LINE
  5
6A
330
1F
100
AcDbEntity
  8
STANDARD
  6
AUSGEZOGEN
 62
    52
370
    13
100
AcDbLine
 10
-2.9358505891837
 20
0.3883139248770299
 30
0.0
 11
-2.9608505891837
 21
0.30831392487703
 31
0.0
  0
LINE
  5
6B
330
1F
100
AcDbEntity
  8
STANDARD
  6
AUSGEZOGEN
 62
    52
370
    13
100
AcDbLine
 10
-2.9608505891837
 20
0.30831392487703
 30
0.0
 11
-2.9858505891837
 21
0.3883139248770299
 31
0.0
  0
LINE
  5
6C
330
1F
100
AcDbEntity
  8
STANDARD
  6
AUSGEZOGEN
 62
    52
370
    13
100
AcDbLine
 10
-2.9858505891837
 20
0.3883139248770299
 30
0.0
 11
-3.010850589183701
 21
0.30831392487703
 31
0.0
  0
LINE
  5
6D
330
1F
100
AcDbEntity
  8
STANDARD
  6
AUSGEZOGEN
 62
    52
370
    13
100
AcDbLine
 10
-3.010850589183701
 20
0.30831392487703
 30
0.0
 11
-3.0358505891837
 21
0.3883139248770299
 31
0.0
  0
LINE
  5
6E
330
1F
100
AcDbEntity
  8
STANDARD
  6
AUSGEZOGEN
 62
    52
370
    13
100
AcDbLine
 10
-3.0358505891837
 20
0.3883139248770299
 30
0.0
 11
-3.0608505891837
 21
0.30831392487703
 31
0.0
  0
LINE
  5
6F
330
1F
100
AcDbEntity
  8
STANDARD
  6
AUSGEZOGEN
 62
    52
370
    13
100
AcDbLine
 10
-3.0608505891837
 20
0.30831392487703
 30
0.0
 11
-3.0858505891837
 21
0.3883139248770299
 31
0.0
  0
LINE
  5
70
330
1F
100
AcDbEntity
  8
STANDARD
  6
AUSGEZOGEN
 62
    52
370
    13
100
AcDbLine
 10
-3.0858505891837
 20
0.3883139248770299
 30
0.0
 11
-3.1108505891837
 21
0.30831392487703
 31
0.0
  0
LINE
  5
71
330
1F
100
AcDbEntity
  8
STANDARD
  6
AUSGEZOGEN
 62
    52
370
    13
100
AcDbLine
 10
-3.1108505891837
 20
0.30831392487703
 30
0.0
 11
-3.124804526775078
 21
0.3529665251694299
 31
0.0
  0
LINE
  5
72
330
1F
100
AcDbEntity
  8
STANDARD
  6
AUSGEZOGEN
 62
    52
370
    13
100
AcDbLine
 10
-2.6858505891837
 20
0.3883139248770299
 30
0.0
 11
-2.7108505891837
 21
0.30831392487703
 31
0.0
  0
LINE
  5
73
330
1F
100
AcDbEntity
  8
STANDARD
  6
AUSGEZOGEN
 62
    52
370
    13
100
AcDbLine
 10
-2.635850589183701
 20
0.3883139248770299
 30
0.0
 11
-2.6608505891837
 21
0.30831392487703
 31
0.0
  0
LINE
  5
74
330
1F
100
AcDbEntity
  8
STANDARD
  6
AUSGEZOGEN
 62
    52
370
    13
100
AcDbLine
 10
-2.6608505891837
 20
0.30831392487703
 30
0.0
 11
-2.6858505891837
 21
0.3883139248770299
 31
0.0
  0
LINE
  5
75
330
1F
100
AcDbEntity
  8
STANDARD
  6
AUSGEZOGEN
 62
    52
370
    13
100
AcDbLine
 10
-2.5858505891837
 20
0.3883139248770299
 30
0.0
 11
-2.6108505891837
 21
0.30831392487703
 31
0.0
  0
LINE
  5
76
330
1F
100
AcDbEntity
  8
STANDARD
  6
AUSGEZOGEN
 62
    52
370
    13
100
AcDbLine
 10
-2.6108505891837
 20
0.30831392487703
 30
0.0
 11
-2.635850589183701
 21
0.3883139248770299
 31
0.0
  0
LINE
  5
77
330
1F
100
AcDbEntity
  8
STANDARD
  6
AUSGEZOGEN
 62
    52
370
    13
100
AcDbLine
 10
-2.5608505891837
 20
0.30831392487703
 30
0.0
 11
-2.5858505891837
 21
0.3883139248770299
 31
0.0
  0
HATCH
  5
79
330
1F
100
AcDbEntity
  8
STANDARD
  6
AUSGEZOGEN
 62
     7
370
    18
100
AcDbHatch
 10
0.0
 20
0.0
 30
0.0
210
0.0
220
0.0
230
1.0
  2
SCHRAFFUR_3
 70
     0
 71
     0
 91
        1
 92
        0
 93
        4
 72
     1
 10
-2.559789814050048
 20
0.68831392487702
 11
-3.124804526775078
 21
0.68831392487703
 72
     1
 10
-3.124804526775078
 20
0.68831392487703
 11
-3.124804526775078
 21
0.3883139248770299
 72
     1
 10
-3.124804526775078
 20
0.3883139248770299
 11
-2.559789814050048
 21
0.3883139248770199
 72
     1
 10
-2.559789814050048
 20
0.3883139248770199
 11
-2.559789814050048
 21
0.68831392487702
 97
        0
 75
     0
 76
     2
 52
-45.00000000000001
 41
0.005
 77
     0
 78
     2
 53
44.99999999999999
 43
0.0
 44
0.0
 45
-0.0353553390593274
 46
0.0353553390593274
 79
     0
 53
44.99999999999999
 43
-0.0176776695296637
 44
0.0176776695296637
 45
-0.0353553390593274
 46
0.0353553390593274
 79
     0
 98
        0
1001
ACAD
1010
0.0
1020
0.0
1030
0.0
1001
NEM_ODX
1002
{
1000
BZM_DEPEND
1070
     1
1000
BZM_SCALE
1040
5.0
1000
SCHRAFFUR_3
1002
}
  0
LINE
  5
7A
330
1F
100
AcDbEntity
  8
STANDARD
  6
AUSGEZOGEN
 62
     7
370
    18
100
AcDbLine
 10
-2.559789814050048
 20
0.68831392487703
 30
0.0
 11
-3.124804526775078
 21
0.68831392487703
 31
0.0
  0
LINE
  5
7B
330
1F
100
AcDbEntity
  8
STANDARD
  6
AUSGEZOGEN
 62
   220
370
    18
100
AcDbLine
 10
-2.559789814050048
 20
0.68831392487703
 30
0.0
 11
-2.559789814050048
 21
0.72831392487702
 31
0.0
  0
LINE
  5
7C
330
1F
100
AcDbEntity
  8
STANDARD
  6
AUSGEZOGEN
 62
     7
370
    18
100
AcDbLine
 10
-2.29781024802472
 20
0.72831392487702
 30
0.0
 11
-2.559789814050048
 21
0.72831392487702
 31
0.0
  0
LINE
  5
7D
330
1F
100
AcDbEntity
  8
STANDARD
  6
AUSGEZOGEN
 62
    52
370
    13
100
AcDbLine
 10
-2.519789814050048
 20
0.3883139248770299
 30
0.0
 11
-2.559789814050048
 21
0.3883139248770299
 31
0.0
  0
LINE
  5
7E
330
1F
100
AcDbEntity
  8
STANDARD
  6
AUSGEZOGEN
 62
   240
370
    70
100
AcDbLine
 10
-3.256506992394367
 20
-0.31259700103287
 30
0.0
 11
-2.206517492394366
 21
-0.31259700103287
 31
0.0
  0
LINE
  5
7F
330
1F
100
AcDbEntity
  8
STANDARD
  6
AUSGEZOGEN
 62
   240
370
    70
100
AcDbLine
 10
-2.206506992394367
 20
1.17238814896714
 30
0.0
 11
-2.206506992394367
 21
-0.31259700103287
 31
0.0
  0
LINE
  5
80
330
1F
100
AcDbEntity
  8
STANDARD
  6
AUSGEZOGEN
 62
   240
370
    70
100
AcDbLine
 10
-2.206506992394367
 20
1.17238814896714
 30
0.0
 11
-3.256496492394366
 21
1.17238814896714
 31
0.0
  0
LINE
  5
81
330
1F
100
AcDbEntity
  8
STANDARD
  6
AUSGEZOGEN
 62
     7
370
    18
100
AcDbLine
 10
-2.559789814050048
 20
0.2728139248770299
 30
0.0
 11
-2.562789814050047
 21
0.2728139248770299
 31
0.0
  0
ARC
  5
82
330
1F
100
AcDbEntity
  8
STANDARD
  6
AUSGEZOGEN
 62
     7
370
    18
100
AcDbCircle
 10
-2.546789814050047
 20
0.2798139248770199
 30
0.0
 40
0.003
100
AcDbArc
 50
0.0
 51
90.0
  0
ARC
  5
83
330
1F
100
AcDbEntity
  8
STANDARD
  6
AUSGEZOGEN
 62
     7
370
    18
100
AcDbCircle
 10
-2.559789814050048
 20
0.2798139248770199
 30
0.0
 40
0.003
100
AcDbArc
 50
90.0
 51
180.0
  0
LINE
  5
84
330
1F
100
AcDbEntity
  8
STANDARD
  6
AUSGEZOGEN
 62
     7
370
    18
100
AcDbLine
 10
-2.559789814050048
 20
0.2828139248770299
 30
0.0
 11
-2.546789814050047
 21
0.2828139248770299
 31
0.0
  0
LINE
  5
85
330
1F
100
AcDbEntity
  8
STANDARD
  6
AUSGEZOGEN
 62
     7
370
    18
100
AcDbLine
 10
-2.562789814050047
 20
0.2728139248770299
 30
0.0
 11
-2.562789814050047
 21
0.2798139248770299
 31
0.0
  0
ARC
  5
86
330
1F
100
AcDbEntity
  8
STANDARD
  6
AUSGEZOGEN
 62
     7
370
    18
100
AcDbCircle
 10
-2.558789814050047
 20
0.2788139248770199
 30
0.0
 40
0.001
100
AcDbArc
 50
90.0
 51
180.0
  0
LINE
  5
87
330
1F
100
AcDbEntity
  8
STANDARD
  6
AUSGEZOGEN
 62
     7
370
    18
100
AcDbLine
 10
-2.559789814050048
 20
0.2788139248770299
 30
0.0
 11
-2.559789814050048
 21
0.2728139248770299
 31
0.0
  0
ARC
  5
88
330
1F
100
AcDbEntity
  8
STANDARD
  6
AUSGEZOGEN
 62
     7
370
    18
100
AcDbCircle
 10
-2.547789814050048
 20
0.2788139248770199
 30
0.0
 40
0.001
100
AcDbArc
 50
0.0
 51
90.0
  0
LINE
  5
89
330
1F
100
AcDbEntity
  8
STANDARD
  6
AUSGEZOGEN
 62
     7
370
    18
100
AcDbLine
 10
-2.547789814050048
 20
0.2798139248770299
 30
0.0
 11
-2.558789814050047
 21
0.2798139248770299
 31
0.0
  0
ARC
  5
8A
330
1F
100
AcDbEntity
  8
STANDARD
  6
AUSGEZOGEN
 62
     7
370
    18
100
AcDbCircle
 10
-2.520289814050047
 20
0.23229392487703
 30
0.0
 40
0.0035
100
AcDbArc
 50
270.0
 51
0.0
  0
LINE
  5
8B
330
1F
100
AcDbEntity
  8
STANDARD
  6
AUSGEZOGEN
 62
     7
370
    18
100
AcDbLine
 10
-2.516789814050048
 20
0.48531392487703
 30
0.0
 11
-2.516789814050048
 21
0.23229392487703
 31
0.0
  0
ARC
  5
8C
330
1F
100
AcDbEntity
  8
STANDARD
  6
AUSGEZOGEN
 62
     7
370
    18
100
AcDbCircle
 10
-2.520789814050048
 20
0.23279392487703
 30
0.0
 40
0.001
100
AcDbArc
 50
270.0
 51
0.0
  0
LINE
  5
8D
330
1F
100
AcDbEntity
  8
STANDARD
  6
AUSGEZOGEN
 62
     7
370
    18
100
AcDbLine
 10
-2.519789814050048
 20
0.48531392487703
 30
0.0
 11
-2.519789814050048
 21
0.23279392487703
 31
0.0
  0
ARC
  5
8E
330
1F
100
AcDbEntity
  8
STANDARD
  6
AUSGEZOGEN
 62
     7
370
    18
100
AcDbCircle
 10
-2.543789814050048
 20
0.2317939248770199
 30
0.0
 40
0.003
100
AcDbArc
 50
180.0
 51
270.0
  0
LINE
  5
8F
330
1F
100
AcDbEntity
  8
STANDARD
  6
AUSGEZOGEN
 62
     7
370
    18
100
AcDbLine
 10
-2.520289814050047
 20
0.22879392487703
 30
0.0
 11
-2.543789814050048
 21
0.22879392487703
 31
0.0
  0
ARC
  5
90
330
1F
100
AcDbEntity
  8
STANDARD
  6
AUSGEZOGEN
 62
     7
370
    18
100
AcDbCircle
 10
-2.542789814050047
 20
0.2327939248770199
 30
0.0
 40
0.001
100
AcDbArc
 50
180.0
 51
270.0
  0
LINE
  5
91
330
1F
100
AcDbEntity
  8
STANDARD
  6
AUSGEZOGEN
 62
     7
370
    18
100
AcDbLine
 10
-2.542789814050047
 20
0.23179392487703
 30
0.0
 11
-2.520789814050048
 21
0.23179392487703
 31
0.0
  0
LINE
  5
92
330
1F
100
AcDbEntity
  8
STANDARD
  6
AUSGEZOGEN
 62
     7
370
    18
100
AcDbLine
 10
-2.297304193666672
 20
0.22884709774148
 30
0.0
 11
-2.519682045428213
 21
0.22884709774148
 31
0.0
  0
LINE
  5
93
330
1F
100
AcDbEntity
  8
STANDARD
  6
AUSGEZOGEN
 62
     7
370
    18
100
AcDbLine
 10
-2.546789814050047
 20
0.23179392487703
 30
0.0
 11
-2.546789814050047
 21
0.2788139248770299
 31
0.0
  0
LINE
  5
94
330
1F
100
AcDbEntity
  8
STANDARD
  6
AUSGEZOGEN
 62
     7
370
    18
100
AcDbLine
 10
-2.543789814050048
 20
0.2798139248770299
 30
0.0
 11
-2.543789814050048
 21
0.23279392487703
 31
0.0
  0
HATCH
  5
96
102
{ACAD_REACTORS
330
95
102
}
330
1F
100
AcDbEntity
  8
STANDARD
  6
AUSGEZOGEN
 62
     0
370
    18
100
AcDbHatch
 10
0.0
 20
0.0
 30
0.0
210
0.0
220
0.0
230
1.0
  2
SOLID
 70
     1
 71
     0
 91
        1
 92
        3
 72
     0
 73
     1
 93
        4
 10
-2.516789814050048
 20
0.3056639248770199
 10
-2.516789814050048
 20
0.48531392487702
 10
-2.519789814050048
 20
0.48531392487702
 10
-2.519789814050048
 20
0.3056639248770199
 97
        0
 75
     0
 76
     1
 98
        0
  0
HATCH
  5
97
102
{ACAD_REACTORS
330
95
102
}
330
1F
100
AcDbEntity
  8
STANDARD
  6
AUSGEZOGEN
 62
     0
370
    18
100
AcDbHatch
 10
0.0
 20
0.0
 30
0.0
210
0.0
220
0.0
230
1.0
  2
SOLID
 70
     1
 71
     0
 91
        1
 92
        3
 72
     0
 73
     1
 93
      372
 10
-2.562789814050047
 20
0.2798139248770199
 10
-2.562789814050047
 20
0.2728139248770199
 10
-2.559789814050048
 20
0.2728139248770199
 10
-2.559789814050048
 20
0.2788139248770199
 10
-2.559789204877066
 20
0.2788488243737299
 10
-2.559787378100307
 20
0.27888368135077
 10
-2.559784335945416
 20
0.27891845334029
 10
-2.559780082118789
 20
0.2789530979779899
 10
-2.55977462180306
 20
0.27898757305469
 10
-2.559767961650781
 20
0.27902183656784
 10
-2.559760109776324
 20
0.27905584677263
 10
-2.559751075745986
 20
0.27908956223284
 10
-2.559740870566342
 20
0.2791229418714
 10
-2.559729506670834
 20
0.27915594502035
 10
-2.559716997904614
 20
0.27918853147044
 10
-2.55970335950769
 20
0.2792206615200999
 10
-2.559688608096347
 20
0.27925229602381
 10
-2.559672761642906
 20
0.27928339643981
 10
-2.559655839453832
 20
0.2793139248770199
 10
-2.559637862146205
 20
0.27934384414126
 10
-2.559618851622603
 20
0.2793731177804999
 10
-2.559598831044423
 20
0.27940171012932
 10
-2.559577824803654
 20
0.2794295863523499
 10
-2.559555858493166
 20
0.2794567124867099
 10
-2.559532958875525
 20
0.2794830554833799
 10
-2.559509153850386
 20
0.27950858324748
 10
-2.559484472420507
 20
0.2795332646773599
 10
-2.559458944656406
 20
0.2795570697025
 10
-2.559432601659733
 20
0.27957996932014
 10
-2.559405475525373
 20
0.27960193563063
 10
-2.55937759930234
 20
0.2796229418714
 10
-2.559349006953518
 20
0.27964296244958
 10
-2.559319733314281
 20
0.27966197297318
 10
-2.559289814050048
 20
0.27967995028081
 10
-2.559259285612834
 20
0.27969687246988
 10
-2.559228185196837
 20
0.27971271892332
 10
-2.559196550693123
 20
0.2797274703346699
 10
-2.559164420643463
 20
0.27974110873159
 10
-2.559131834193373
 20
0.27975361749781
 10
-2.559098831044422
 20
0.27976498139332
 10
-2.559065451405864
 20
0.27977518657296
 10
-2.559031735945648
 20
0.2797842206032999
 10
-2.558997725740864
 20
0.27979207247776
 10
-2.558963462227715
 20
0.27979873263004
 10
-2.558928987151007
 20
0.27980419294577
 10
-2.558894342513315
 20
0.27980844677239
 10
-2.558859570523791
 20
0.27981148892728
 10
-2.55882471354675
 20
0.2798133157040399
 10
-2.558789814050047
 20
0.2798139248770199
 10
-2.547789814050048
 20
0.2798139248770199
 10
-2.547754914553345
 20
0.2798133157040399
 10
-2.547720057576304
 20
0.27981148892728
 10
-2.54768528558678
 20
0.27980844677239
 10
-2.547650640949088
 20
0.27980419294577
 10
-2.54761616587238
 20
0.27979873263004
 10
-2.547581902359231
 20
0.27979207247776
 10
-2.547547892154447
 20
0.2797842206032999
 10
-2.547514176694231
 20
0.27977518657296
 10
-2.547480797055672
 20
0.27976498139332
 10
-2.547447793906722
 20
0.27975361749781
 10
-2.547415207456632
 20
0.27974110873159
 10
-2.547383077406972
 20
0.2797274703346699
 10
-2.547351442903258
 20
0.27971271892332
 10
-2.547320342487261
 20
0.27969687246988
 10
-2.547289814050048
 20
0.27967995028081
 10
-2.547259894785814
 20
0.27966197297318
 10
-2.547230621146577
 20
0.27964296244958
 10
-2.547202028797755
 20
0.2796229418714
 10
-2.547174152574722
 20
0.27960193563063
 10
-2.547147026440362
 20
0.27957996932014
 10
-2.547120683443689
 20
0.2795570697025
 10
-2.547095155679589
 20
0.2795332646773599
 10
-2.547070474249709
 20
0.27950858324748
 10
-2.54704666922457
 20
0.2794830554833799
 10
-2.547023769606929
 20
0.2794567124867099
 10
-2.547001803296441
 20
0.2794295863523499
 10
-2.546980797055672
 20
0.27940171012932
 10
-2.546960776477492
 20
0.2793731177804999
 10
-2.54694176595389
 20
0.27934384414126
 10
-2.546923788646263
 20
0.2793139248770199
 10
-2.546906866457189
 20
0.27928339643981
 10
-2.546891020003748
 20
0.27925229602381
 10
-2.546876268592405
 20
0.2792206615200999
 10
-2.546862630195481
 20
0.27918853147044
 10
-2.546850121429261
 20
0.27915594502035
 10
-2.546838757533753
 20
0.2791229418714
 10
-2.546828552354109
 20
0.27908956223284
 10
-2.546819518323771
 20
0.27905584677263
 10
-2.546811666449314
 20
0.27902183656784
 10
-2.546805006297035
 20
0.27898757305469
 10
-2.546799545981306
 20
0.2789530979779899
 10
-2.546795292154679
 20
0.27891845334029
 10
-2.546792249999787
 20
0.27888368135077
 10
-2.546790423223029
 20
0.2788488243737299
 10
-2.546789814050047
 20
0.2788139248770199
 10
-2.546789813881271
 20
0.2317939262713199
 10
-2.546787986531104
 20
0.23168922638692
 10
-2.546782506200827
 20
0.2315846554557899
 10
-2.546773379736153
 20
0.23148033948722
 10
-2.546760618256272
 20
0.23137640557414
 10
-2.546744237309083
 20
0.2312729803440199
 10
-2.546724256852249
 20
0.23117018980457
 10
-2.546700701228876
 20
0.23106815919023
 10
-2.546673599137863
 20
0.23096701280957
 10
-2.546642983598933
 20
0.2308668738939
 10
-2.546608891912405
 20
0.23076786444705
 10
-2.546571365613748
 20
0.23067010509678
 10
-2.546530450422975
 20
0.2305737149477999
 10
-2.546486196188946
 20
0.23047881143666
 10
-2.546438656828625
 20
0.23038551018867
 10
-2.546387890261401
 20
0.23029392487703
 10
-2.546333958338517
 20
0.2302041670843299
 10
-2.546276926767712
 20
0.23011634616661
 10
-2.546216865033172
 20
0.23003056912015
 10
-2.546153846310868
 20
0.22994694045105
 10
-2.546087947379405
 20
0.22986556204797
 10
-2.54601924852648
 20
0.22978653305795
 10
-2.545947833451063
 20
0.22970994976565
 10
-2.545873789161424
 20
0.22963590547601
 10
-2.545797205869124
 20
0.22956449040059
 10
-2.545718176879107
 20
0.22949579154767
 10
-2.545636798476024
 20
0.22942989261621
 10
-2.545553169806924
 20
0.2293668738939
 10
-2.545467392760459
 20
0.22930681215936
 10
-2.545379571842747
 20
0.22924978058856
 10
-2.545289814050047
 20
0.22919584866567
 10
-2.545198228738405
 20
0.22914508209845
 10
-2.545104927490415
 20
0.22909754273813
 10
-2.545010023979275
 20
0.2290532885041
 10
-2.544913633830295
 20
0.22901237331332
 10
-2.544815874480024
 20
0.22897484701467
 10
-2.544716865033172
 20
0.22894075532814
 10
-2.544616726117498
 20
0.22891013978921
 10
-2.544515579736846
 20
0.2288830376982
 10
-2.544413549122501
 20
0.22885948207482
 10
-2.544310758583048
 20
0.22883950161799
 10
-2.544207333352928
 20
0.2288231206708
 10
-2.54410339943985
 20
0.22881035919092
 10
-2.54399908347128
 20
0.22880123272625
 10
-2.543894512540155
 20
0.2287957523959699
 10
-2.543789814050048
 20
0.22879392487703
 10
-2.520289815676728
 20
0.22879392507393
 10
-2.520167665811588
 20
0.22879605698246
 10
-2.520045666391943
 20
0.22880245070112
 10
-2.519923964428611
 20
0.2288130982432399
 10
-2.519802708196687
 20
0.2288279866364299
 10
-2.519682045428213
 20
0.22884709774148
 10
-2.519562123132186
 20
0.22887040827446
 10
-2.519443087415449
 20
0.22889788983506
 10
-2.519325083304688
 20
0.22892950894124
 10
-2.519208254569735
 20
0.22896522706999
 10
-2.519092743548408
 20
0.22900500070427
 10
-2.518978690973092
 20
0.22904878138604
 10
-2.518866235799281
 20
0.22909651577528
 10
-2.518755515036286
 20
0.22914814571498
 10
-2.518646663580297
 20
0.2292036083020199
 10
-2.518539814050047
 20
0.22926283596378
 10
-2.518435096625232
 20
0.22932575654048
 10
-2.518332638887899
 20
0.22939229337308
 10
-2.518232565667024
 20
0.2294623653967099
 10
-2.518134998886408
 20
0.2295358872394
 10
-2.518040057416145
 20
0.2296127693261099
 10
-2.517947856927791
 20
0.22969291798785
 10
-2.517858509753442
 20
0.22977623557584
 10
-2.517772124748863
 20
0.22986262058042
 10
-2.517688807160877
 20
0.2299519677547699
 10
-2.517608658499131
 20
0.2300441682431199
 10
-2.517531776412424
 20
0.23013910971339
 10
-2.517458254569735
 20
0.230236676494
 10
-2.517388182546105
 20
0.2303367497148799
 10
-2.5173216457135
 20
0.23043920745221
 10
-2.517258725136802
 20
0.2305439248770199
 10
-2.517199497475041
 20
0.2306507744072699
 10
-2.517144034888001
 20
0.23075962586326
 10
-2.517092404948298
 20
0.23087034662626
 10
-2.517044670559064
 20
0.2309828018000699
 10
-2.517000889877297
 20
0.23109685437538
 10
-2.516961116243014
 20
0.2312123653967099
 10
-2.516925398114263
 20
0.23132919413167
 10
-2.516893779008082
 20
0.23144719824243
 10
-2.516866297447479
 20
0.23156623395916
 10
-2.516842986914505
 20
0.23168615625519
 10
-2.516823875809452
 20
0.23180681902367
 10
-2.516808987416258
 20
0.23192807525559
 10
-2.516798339874138
 20
0.23204977721892
 10
-2.516791946155481
 20
0.2321717766385699
 10
-2.516789814050048
 20
0.23229392487703
 10
-2.516789814050048
 20
0.24566392487703
 10
-2.519789814050048
 20
0.24566392487703
 10
-2.519789814050048
 20
0.23279392487703
 10
-2.519790423223029
 20
0.23275902538032
 10
-2.519792249999788
 20
0.2327241684032799
 10
-2.519795292154679
 20
0.23268939641376
 10
-2.519799545981306
 20
0.23265475177607
 10
-2.519805006297035
 20
0.2326202766993599
 10
-2.519811666449314
 20
0.23258601318621
 10
-2.519819518323771
 20
0.23255200298142
 10
-2.519828552354109
 20
0.23251828752121
 10
-2.519838757533753
 20
0.23248490788265
 10
-2.519850121429261
 20
0.2324519047337
 10
-2.519862630195481
 20
0.23241931828361
 10
-2.519876268592405
 20
0.23238718823395
 10
-2.519891020003748
 20
0.23235555373024
 10
-2.519906866457189
 20
0.23232445331424
 10
-2.519923788646263
 20
0.2322939248770199
 10
-2.51994176595389
 20
0.23226400561279
 10
-2.519960776477492
 20
0.2322347319735499
 10
-2.519980797055672
 20
0.23220613962473
 10
-2.520001803296441
 20
0.2321782634016999
 10
-2.520023769606929
 20
0.23215113726734
 10
-2.52004666922457
 20
0.23212479427067
 10
-2.520070474249709
 20
0.23209926650657
 10
-2.520095155679588
 20
0.23207458507669
 10
-2.520120683443689
 20
0.23205078005155
 10
-2.520147026440362
 20
0.23202788043391
 10
-2.520174152574722
 20
0.2320059141234199
 10
-2.520202028797755
 20
0.23198490788265
 10
-2.520230621146577
 20
0.23196488730447
 10
-2.520259894785814
 20
0.2319458767808699
 10
-2.520289814050047
 20
0.23192789947324
 10
-2.520320342487261
 20
0.23191097728417
 10
-2.520351442903258
 20
0.23189513083073
 10
-2.520383077406972
 20
0.2318803794193799
 10
-2.520415207456632
 20
0.23186674102246
 10
-2.520447793906722
 20
0.23185423225624
 10
-2.520480797055672
 20
0.23184286836073
 10
-2.520514176694231
 20
0.2318326631810899
 10
-2.520547892154447
 20
0.2318236291507499
 10
-2.52058190235923
 20
0.23181577727629
 10
-2.52061616587238
 20
0.23180911712401
 10
-2.520650640949087
 20
0.23180365680828
 10
-2.520685285586779
 20
0.23179940298166
 10
-2.520720057576304
 20
0.23179636082677
 10
-2.520754914553345
 20
0.23179453405001
 10
-2.520789814050048
 20
0.23179392487703
 10
-2.542789814050047
 20
0.23179392487703
 10
-2.54282471354675
 20
0.23179453405001
 10
-2.542859570523791
 20
0.23179636082677
 10
-2.542894342513315
 20
0.23179940298166
 10
-2.542928987151007
 20
0.23180365680828
 10
-2.542963462227715
 20
0.23180911712401
 10
-2.542997725740864
 20
0.23181577727629
 10
-2.543031735945648
 20
0.2318236291507499
 10
-2.543065451405864
 20
0.2318326631810899
 10
-2.543098831044423
 20
0.23184286836073
 10
-2.543131834193373
 20
0.23185423225624
 10
-2.543164420643463
 20
0.23186674102246
 10
-2.543196550693123
 20
0.2318803794193799
 10
-2.543228185196837
 20
0.23189513083073
 10
-2.543259285612834
 20
0.23191097728417
 10
-2.543289814050048
 20
0.23192789947324
 10
-2.543319733314281
 20
0.2319458767808699
 10
-2.543349006953518
 20
0.23196488730447
 10
-2.54337759930234
 20
0.23198490788265
 10
-2.543405475525373
 20
0.2320059141234199
 10
-2.543432601659733
 20
0.23202788043391
 10
-2.543458944656406
 20
0.23205078005155
 10
-2.543484472420507
 20
0.23207458507669
 10
-2.543509153850386
 20
0.23209926650657
 10
-2.543532958875525
 20
0.23212479427067
 10
-2.543555858493166
 20
0.23215113726734
 10
-2.543577824803654
 20
0.2321782634016999
 10
-2.543598831044423
 20
0.23220613962473
 10
-2.543618851622603
 20
0.2322347319735499
 10
-2.543637862146205
 20
0.23226400561279
 10
-2.543655839453832
 20
0.23229392487703
 10
-2.543672761642906
 20
0.23232445331424
 10
-2.543688608096347
 20
0.23235555373024
 10
-2.54370335950769
 20
0.23238718823395
 10
-2.543716997904614
 20
0.23241931828361
 10
-2.543729506670834
 20
0.2324519047337
 10
-2.543740870566342
 20
0.23248490788265
 10
-2.543751075745986
 20
0.23251828752121
 10
-2.543760109776324
 20
0.23255200298142
 10
-2.543767961650781
 20
0.23258601318621
 10
-2.54377462180306
 20
0.2326202766993599
 10
-2.543780082118789
 20
0.23265475177607
 10
-2.543784335945416
 20
0.23268939641376
 10
-2.543787378100307
 20
0.2327241684032799
 10
-2.543789204877066
 20
0.23275902538032
 10
-2.543789814050048
 20
0.23279392487703
 10
-2.543789814218824
 20
0.2798139234827299
 10
-2.543791641568991
 20
0.27991862336713
 10
-2.543797121899268
 20
0.2800231942982599
 10
-2.543806248363942
 20
0.28012751026683
 10
-2.543819009843823
 20
0.28023144417991
 10
-2.543835390791012
 20
0.28033486941003
 10
-2.543855371247846
 20
0.2804376599494799
 10
-2.543878926871219
 20
0.2805396905638199
 10
-2.543906028962232
 20
0.2806408369444799
 10
-2.543936644501162
 20
0.28074097586015
 10
-2.54397073618769
 20
0.2808399853069999
 10
-2.544008262486347
 20
0.2809377446572699
 10
-2.544049177677119
 20
0.2810341348062499
 10
-2.54409343191115
 20
0.2811290383173899
 10
-2.54414097127147
 20
0.28122233956538
 10
-2.544191737838694
 20
0.2813139248770199
 10
-2.544245669761578
 20
0.2814036826697199
 10
-2.544302701332383
 20
0.28149150358744
 10
-2.544362763066923
 20
0.2815772806338999
 10
-2.544425781789227
 20
0.281660909303
 10
-2.54449168072069
 20
0.28174228770608
 10
-2.544560379573615
 20
0.2818213166960999
 10
-2.544631794649032
 20
0.2818978999884
 10
-2.54470583893867
 20
0.28197194427804
 10
-2.544782422230971
 20
0.28204335935346
 10
-2.544861451220988
 20
0.28211205820638
 10
-2.544942829624071
 20
0.2821779571378499
 10
-2.545026458293171
 20
0.28224097586015
 10
-2.545112235339635
 20
0.2823010375946899
 10
-2.545200056257348
 20
0.2823580691654899
 10
-2.545289814050047
 20
0.2824120010883799
 10
-2.545381399361689
 20
0.2824627676556
 10
-2.545474700609681
 20
0.28251030701592
 10
-2.54556960412082
 20
0.2825545612499499
 10
-2.5456659942698
 20
0.28259547644072
 10
-2.545763753620071
 20
0.28263300273938
 10
-2.545862763066923
 20
0.28266709442591
 10
-2.545962901982597
 20
0.2826977099648399
 10
-2.546064048363249
 20
0.28272481205585
 10
-2.546166078977594
 20
0.28274836767923
 10
-2.546268869517047
 20
0.2827683481360599
 10
-2.546372294747167
 20
0.28278472908325
 10
-2.546476228660245
 20
0.28279749056313
 10
-2.546580544628815
 20
0.2828066170278
 10
-2.54668511555994
 20
0.2828120973580799
 10
-2.546789814050047
 20
0.28281392487702
 10
-2.55978981265575
 20
0.28281392470825
 10
-2.559894512540155
 20
0.2828120973580799
 10
-2.55999908347128
 20
0.2828066170278
 10
-2.56010339943985
 20
0.28279749056313
 10
-2.560207333352928
 20
0.28278472908325
 10
-2.560310758583048
 20
0.2827683481360599
 10
-2.560413549122501
 20
0.28274836767923
 10
-2.560515579736846
 20
0.28272481205585
 10
-2.560616726117498
 20
0.2826977099648399
 10
-2.560716865033172
 20
0.28266709442591
 10
-2.560815874480024
 20
0.28263300273938
 10
-2.560913633830295
 20
0.28259547644072
 10
-2.561010023979275
 20
0.2825545612499499
 10
-2.561104927490415
 20
0.28251030701592
 10
-2.561198228738405
 20
0.2824627676556
 10
-2.561289814050047
 20
0.2824120010883799
 10
-2.561379571842747
 20
0.2823580691654899
 10
-2.56146739276046
 20
0.2823010375946899
 10
-2.561553169806924
 20
0.28224097586015
 10
-2.561636798476024
 20
0.2821779571378499
 10
-2.561718176879107
 20
0.28211205820638
 10
-2.561797205869124
 20
0.28204335935346
 10
-2.561873789161424
 20
0.28197194427804
 10
-2.561947833451063
 20
0.2818978999884
 10
-2.56201924852648
 20
0.2818213166960999
 10
-2.562087947379405
 20
0.28174228770608
 10
-2.562153846310868
 20
0.281660909303
 10
-2.562216865033172
 20
0.2815772806338999
 10
-2.562276926767712
 20
0.28149150358744
 10
-2.562333958338517
 20
0.2814036826697199
 10
-2.562387890261401
 20
0.2813139248770199
 10
-2.562438656828625
 20
0.28122233956538
 10
-2.562486196188946
 20
0.2811290383173899
 10
-2.562530450422975
 20
0.2810341348062499
 10
-2.562571365613748
 20
0.2809377446572699
 10
-2.562608891912405
 20
0.2808399853069999
 10
-2.562642983598933
 20
0.28074097586015
 10
-2.562673599137863
 20
0.2806408369444799
 10
-2.562700701228876
 20
0.2805396905638199
 10
-2.562724256852249
 20
0.2804376599494799
 10
-2.562744237309083
 20
0.28033486941003
 10
-2.562760618256272
 20
0.28023144417991
 10
-2.562773379736153
 20
0.28012751026683
 10
-2.562782506200827
 20
0.2800231942982599
 10
-2.562787986531105
 20
0.27991862336713
 97
        0
 75
     0
 76
     1
 98
        0
  0
LINE
  5
98
330
1F
100
AcDbEntity
  8
STANDARD
  6
STRICHPUNKT
 62
     7
370
    18
100
AcDbLine
 10
-2.297304193666672
 20
0.21300709774148
 30
0.0
 11
-2.29781024802472
 21
0.72831392487702
 31
0.0
  0
HATCH
  5
99
330
1F
100
AcDbEntity
  8
STANDARD
  6
AUSGEZOGEN
 62
     0
370
    18
100
AcDbHatch
 10
0.0
 20
0.0
 30
0.0
210
0.0
220
0.0
230
1.0
  2
SOLID
 70
     1
 71
     0
 91
        1
 92
        3
 72
     0
 73
     1
 93
        4
 10
-2.519789814050048
 20
0.24566392487703
 10
-2.516789814050048
 20
0.24566392487703
 10
-2.516789814050048
 20
0.3056639248770199
 10
-2.519789814050048
 20
0.3056639248770199
 97
        0
 75
     0
 76
     1
 98
        0
  0
LINE
  5
9A
330
1F
100
AcDbEntity
  8
STANDARD
  6
STRICHPUNKT
 62
   220
370
    35
100
AcDbLine
 10
-2.751816044583771
 20
0.37031392487703
 30
0.0
 11
-2.751816044583771
 21
0.48831392487703
 31
0.0
  0
LINE
  5
9B
330
1F
100
AcDbEntity
  8
STANDARD
  6
AUSGEZOGEN
 62
   100
370
    18
100
AcDbLine
 10
-2.769816044583771
 20
0.3833139248770299
 30
0.0
 11
-2.769816044583771
 21
0.3803139248770299
 31
0.0
  0
LINE
  5
9C
330
1F
100
AcDbEntity
  8
STANDARD
  6
AUSGEZOGEN
 62
   100
370
    18
100
AcDbLine
 10
-2.769816044583771
 20
0.3803139248770299
 30
0.0
 11
-2.732316044583771
 21
0.3803139248770299
 31
0.0
  0
LINE
  5
9D
330
1F
100
AcDbEntity
  8
STANDARD
  6
AUSGEZOGEN
 62
   100
370
    18
100
AcDbLine
 10
-2.769816044583771
 20
0.3833139248770299
 30
0.0
 11
-2.769816044583771
 21
0.3883139248770299
 31
0.0
  0
LINE
  5
9E
330
1F
100
AcDbEntity
  8
STANDARD
  6
AUSGEZOGEN
 62
   100
370
    18
100
AcDbLine
 10
-2.769816044583771
 20
0.3833139248770299
 30
0.0
 11
-2.729316044583771
 21
0.3833139248770299
 31
0.0
  0
LINE
  5
9F
330
1F
100
AcDbEntity
  8
STANDARD
  6
AUSGEZOGEN
 62
   100
370
    18
100
AcDbLine
 10
-2.732316044583771
 20
0.30331392487703
 30
0.0
 11
-2.729316044583771
 21
0.30331392487703
 31
0.0
  0
LINE
  5
A0
330
1F
100
AcDbEntity
  8
STANDARD
  6
AUSGEZOGEN
 62
     7
370
    18
100
AcDbLine
 10
-2.729316044583771
 20
0.30331392487703
 30
0.0
 11
-2.729316044583771
 21
0.3883139248770299
 31
0.0
  0
LINE
  5
A1
330
1F
100
AcDbEntity
  8
STANDARD
  6
AUSGEZOGEN
 62
     7
370
    18
100
AcDbLine
 10
-2.721316044583771
 20
0.3203139248770299
 30
0.0
 11
-2.737316044583771
 21
0.3203139248770299
 31
0.0
  0
LINE
  5
A2
330
1F
100
AcDbEntity
  8
STANDARD
  6
AUSGEZOGEN
 62
   100
370
    18
100
AcDbLine
 10
-2.766316044583771
 20
0.28905844301592
 30
0.0
 11
-2.766316044583771
 21
0.28605844301592
 31
0.0
  0
LINE
  5
A3
330
1F
100
AcDbEntity
  8
STANDARD
  6
AUSGEZOGEN
 62
     7
370
    18
100
AcDbLine
 10
-2.729316044583771
 20
0.28905844301592
 30
0.0
 11
-2.766316044583771
 21
0.28905844301592
 31
0.0
  0
LINE
  5
A4
330
1F
100
AcDbEntity
  8
STANDARD
  6
AUSGEZOGEN
 62
   240
370
    18
100
AcDbLine
 10
-2.746316044583771
 20
0.28105844301592
 30
0.0
 11
-2.746316044583771
 21
0.29405844301592
 31
0.0
  0
LINE
  5
A5
330
1F
100
AcDbEntity
  8
STANDARD
  6
AUSGEZOGEN
 62
   100
370
    18
100
AcDbLine
 10
-2.726316044583771
 20
0.33605844301592
 30
0.0
 11
-2.729316044583771
 21
0.33605844301592
 31
0.0
  0
LINE
  5
A6
330
1F
100
AcDbEntity
  8
STANDARD
  6
AUSGEZOGEN
 62
     7
370
    18
100
AcDbLine
 10
-2.729316044583771
 20
0.33605844301592
 30
0.0
 11
-2.729316044583771
 21
0.28905844301592
 31
0.0
  0
HATCH
  5
A7
330
1F
100
AcDbEntity
  8
STANDARD
  6
AUSGEZOGEN
 62
     0
370
    13
100
AcDbHatch
 10
0.0
 20
0.0
 30
0.0
210
0.0
220
0.0
230
1.0
  2
SOLID
 70
     1
 71
     0
 91
        1
 92
        3
 72
     0
 73
     1
 93
        6
 10
-2.726316044583771
 20
0.28605844301592
 10
-2.726316044583771
 20
0.33605844301592
 10
-2.729316044583771
 20
0.33605844301592
 10
-2.729316044583771
 20
0.28905844301592
 10
-2.766316044583771
 20
0.28905844301592
 10
-2.766316044583771
 20
0.28605844301592
 97
        0
 75
     0
 76
     1
 98
        0
  0
LINE
  5
A8
330
1F
100
AcDbEntity
  8
STANDARD
  6
AUSGEZOGEN
 62
   100
370
    18
100
AcDbLine
 10
-2.732316044583771
 20
0.3803139248770299
 30
0.0
 11
-2.732316044583771
 21
0.30331392487703
 31
0.0
  0
LINE
  5
A9
330
1F
100
AcDbEntity
  8
STANDARD
  6
AUSGEZOGEN
 62
    52
370
    13
100
AcDbLine
 10
-2.732316044583771
 20
0.30831392487703
 30
0.0
 11
-3.124804526775078
 21
0.30831392487703
 31
0.0
  0
LINE
  5
AA
330
1F
100
AcDbEntity
  8
STANDARD
  6
AUSGEZOGEN
 62
   100
370
    18
100
AcDbLine
 10
-2.726316044583771
 20
0.28605844301592
 30
0.0
 11
-2.726316044583771
 21
0.33605844301592
 31
0.0
  0
LINE
  5
AB
330
1F
100
AcDbEntity
  8
STANDARD
  6
AUSGEZOGEN
 62
    52
370
    13
100
AcDbLine
 10
-2.519789814050048
 20
0.30831392487703
 30
0.0
 11
-2.726316044583771
 21
0.30831392487703
 31
0.0
  0
LINE
  5
AC
330
1F
100
AcDbEntity
  8
STANDARD
  6
AUSGEZOGEN
 62
    22
370
    50
100
AcDbLine
 10
-2.559789814050048
 20
0.3883139248770299
 30
0.0
 11
-3.124804526775078
 21
0.3883139248770299
 31
0.0
  0
LINE
  5
AD
330
1F
100
AcDbEntity
  8
STANDARD
  6
AUSGEZOGEN
 62
    52
370
    13
100
AcDbLine
 10
-2.7858505891837
 20
0.3883139248770299
 30
0.0
 11
-2.8108505891837
 21
0.30831392487703
 31
0.0
  0
LINE
  5
AE
330
1F
100
AcDbEntity
  8
STANDARD
  6
AUSGEZOGEN
 62
    52
370
    13
100
AcDbLine
 10
-2.760850589183701
 20
0.30831392487703
 30
0.0
 11
-2.7858505891837
 21
0.3883139248770299
 31
0.0
  0
LINE
  5
AF
330
1F
100
AcDbEntity
  8
STANDARD
  6
AUSGEZOGEN
 62
    52
370
    13
100
AcDbLine
 10
-2.738350589183701
 20
0.3803139248770299
 30
0.0
 11
-2.760850589183701
 21
0.30831392487703
 31
0.0
  0
LINE
  5
B0
330
1F
100
AcDbEntity
  8
STANDARD
  6
AUSGEZOGEN
 62
    52
370
    13
100
AcDbLine
 10
-2.7108505891837
 20
0.30831392487703
 30
0.0
 11
-2.729316044583771
 21
0.3674033821572499
 31
0.0
  0
LINE
  5
B1
330
1F
100
AcDbEntity
  8
STANDARD
  6
AUSGEZOGEN
 62
    52
370
    13
100
AcDbLine
 10
-2.732316044583771
 20
0.37700338215725
 30
0.0
 11
-2.7333505891837
 21
0.3803139248770299
 31
0.0
  0
LINE
  5
B2
330
1F
100
AcDbEntity
  8
STANDARD
  6
AUSGEZOGEN
 62
    52
370
    13
100
AcDbLine
 10
-2.5358505891837
 20
0.3883139248770299
 30
0.0
 11
-2.5608505891837
 21
0.30831392487703
 31
0.0
  0
LINE
  5
B3
330
1F
100
AcDbEntity
  8
STANDARD
  6
AUSGEZOGEN
 62
    52
370
    13
100
AcDbLine
 10
-2.519789814050048
 20
0.33691944444934
 30
0.0
 11
-2.5358505891837
 21
0.3883139248770299
 31
0.0
  0
LINE
  5
B4
330
1F
100
AcDbEntity
  8
STANDARD
  6
AUSGEZOGEN
 62
     7
370
    18
100
AcDbLine
 10
-2.567789814050048
 20
0.2860584430159206
 30
0.0
 11
-2.567789814050048
 21
0.2710584430159191
 31
0.0
  0
LINE
  5
B5
330
1F
100
AcDbEntity
  8
STANDARD
  6
AUSGEZOGEN
 62
     7
370
    18
100
AcDbLine
 10
-2.567789814050048
 20
0.2860584430159206
 30
0.0
 11
-3.124804526775078
 21
0.28605844301592
 31
0.0
  0
LINE
  5
B6
330
1F
100
AcDbEntity
  8
STANDARD
  6
AUSGEZOGEN
 62
     7
370
    18
100
AcDbLine
 10
-2.567789814050048
 20
0.2840584430159206
 30
0.0
 11
-3.124804526775078
 21
0.28405844301592
 31
0.0
  0
LINE
  5
B7
330
1F
100
AcDbEntity
  8
STANDARD
  6
VERDECKT
 62
     7
370
    18
100
AcDbLine
 10
-3.124804526775078
 20
0.2730584430159191
 30
0.0
 11
-2.567789814050048
 21
0.2730584430159191
 31
0.0
  0
LINE
  5
B8
330
1F
100
AcDbEntity
  8
STANDARD
  6
AUSGEZOGEN
 62
     7
370
    18
100
AcDbLine
 10
-3.124804526775078
 20
0.2710584430159191
 30
0.0
 11
-2.567789814050048
 21
0.2710584430159191
 31
0.0
  0
LINE
  5
B9
330
1F
100
AcDbEntity
  8
STANDARD
  6
STRICHPUNKT
 62
     7
370
    18
100
AcDbLine
 10
-3.124804526775078
 20
0.2305344248438891
 30
0.0
 11
-3.124804526775078
 21
0.70805392487703
 31
0.0
  0
CIRCLE
  5
BA
330
1F
100
AcDbEntity
  8
_65281
  6
AUSGEZOGEN
 62
     4
370
    13
100
AcDbCircle
 10
-3.000396630105073
 20
0.254313924877079
 30
0.0
 40
0.004
  0
CIRCLE
  5
BB
330
1F
100
AcDbEntity
  8
_65281
  6
AUSGEZOGEN
 62
     4
370
    13
100
AcDbCircle
 10
-3.016396630105072
 20
0.254313924877079
 30
0.0
 40
0.004
  0
CIRCLE
  5
BC
330
1F
100
AcDbEntity
  8
_65281
  6
AUSGEZOGEN
 62
     4
370
    13
100
AcDbCircle
 10
-2.933396630105073
 20
0.254313924877079
 30
0.0
 40
0.004
  0
CIRCLE
  5
BD
330
1F
100
AcDbEntity
  8
_65281
  6
AUSGEZOGEN
 62
     4
370
    13
100
AcDbCircle
 10
-2.949396630105073
 20
0.254313924877079
 30
0.0
 40
0.004
  0
CIRCLE
  5
BE
330
1F
100
AcDbEntity
  8
_65281
  6
AUSGEZOGEN
 62
     4
370
    13
100
AcDbCircle
 10
-3.067396630105073
 20
0.254313924877079
 30
0.0
 40
0.004
  0
CIRCLE
  5
BF
330
1F
100
AcDbEntity
  8
_65281
  6
AUSGEZOGEN
 62
     4
370
    13
100
AcDbCircle
 10
-3.083396630105072
 20
0.254313924877079
 30
0.0
 40
0.004
  0
CIRCLE
  5
C0
330
1F
100
AcDbEntity
  8
_65275
  6
AUSGEZOGEN
 62
   240
370
    13
100
AcDbCircle
 10
-2.882396630105073
 20
0.254355203812439
 30
0.0
 40
0.004
  0
LINE
  5
C1
330
1F
100
AcDbEntity
  8
_65281
  6
AUSGEZOGEN
 62
     4
370
    25
100
AcDbLine
 10
-3.047396630105133
 20
0.2623139248770691
 30
0.0
 11
-3.047396630105133
 21
0.2603139248770691
 31
0.0
  0
ARC
  5
C2
330
1F
100
AcDbEntity
  8
_65281
  6
AUSGEZOGEN
 62
     4
370
    25
100
AcDbCircle
 10
-3.120296630105154
 20
0.2562139248770891
 30
0.0
 40
0.0020999999999796
100
AcDbArc
 50
90.0
 51
269.9999999998303
  0
ARC
  5
C3
330
1F
100
AcDbEntity
  8
_65281
  6
AUSGEZOGEN
 62
     4
370
    25
100
AcDbCircle
 10
-3.116396630105132
 20
0.2603139248770691
 30
0.0
 40
0.002
100
AcDbArc
 50
270.0
 51
0.0
  0
LINE
  5
C4
330
1F
100
AcDbEntity
  8
_65281
  6
AUSGEZOGEN
 62
     4
370
    25
100
AcDbLine
 10
-3.114396630105132
 20
0.2623139248770691
 30
0.0
 11
-3.114396630105132
 21
0.2603139248770691
 31
0.0
  0
LINE
  5
C5
330
1F
100
AcDbEntity
  8
_65281
  6
AUSGEZOGEN
 62
     4
370
    25
100
AcDbLine
 10
-3.116396630105132
 20
0.2583139248770691
 30
0.0
 11
-3.120296630105154
 21
0.2583139248770691
 31
0.0
  0
ARC
  5
C6
330
1F
100
AcDbEntity
  8
_65281
  6
AUSGEZOGEN
 62
     4
370
    25
100
AcDbCircle
 10
-3.053296630105154
 20
0.2562139248770891
 30
0.0
 40
0.0020999999999796
100
AcDbArc
 50
90.0
 51
269.9999999998303
  0
LINE
  5
C7
330
1F
100
AcDbEntity
  8
_65281
  6
AUSGEZOGEN
 62
     4
370
    25
100
AcDbLine
 10
-3.049396630105132
 20
0.2583139248770691
 30
0.0
 11
-3.053296630105154
 21
0.2583139248770691
 31
0.0
  0
LINE
  5
C8
330
1F
100
AcDbEntity
  8
_65281
  6
AUSGEZOGEN
 62
     4
370
    25
100
AcDbLine
 10
-3.03189058204903
 20
0.2541139248771291
 30
0.0
 11
-3.053296630105159
 21
0.254113924877179
 31
0.0
  0
ARC
  5
C9
330
1F
100
AcDbEntity
  8
_65281
  6
AUSGEZOGEN
 62
     4
370
    25
100
AcDbCircle
 10
-3.098890582049021
 20
0.2581139248771291
 30
0.0
 40
0.004
100
AcDbArc
 50
269.9999999998664
 51
333.8860873696252
  0
ARC
  5
CA
330
1F
100
AcDbEntity
  8
_65281
  6
AUSGEZOGEN
 62
     4
370
    25
100
AcDbCircle
 10
-3.09014965413319
 20
0.262313924877089
 30
0.0
 40
0.002
100
AcDbArc
 50
89.99999999987278
 51
153.886087369621
  0
LINE
  5
CB
330
1F
100
AcDbEntity
  8
_65281
  6
AUSGEZOGEN
 62
     4
370
    25
100
AcDbLine
 10
-3.091945495578642
 20
0.2631942393111391
 30
0.0
 11
-3.095298899158114
 21
0.2563532960090291
 31
0.0
  0
LINE
  5
CC
330
1F
100
AcDbEntity
  8
_65281
  6
AUSGEZOGEN
 62
     4
370
    25
100
AcDbLine
 10
-3.09889058204903
 20
0.2541139248771291
 30
0.0
 11
-3.120296630105159
 21
0.254113924877179
 31
0.0
  0
ARC
  5
CD
330
1F
100
AcDbEntity
  8
_65281
  6
AUSGEZOGEN
 62
     4
370
    25
100
AcDbCircle
 10
-3.031890582049021
 20
0.2581139248771291
 30
0.0
 40
0.004
100
AcDbArc
 50
269.9999999998664
 51
333.8860873696252
  0
ARC
  5
CE
330
1F
100
AcDbEntity
  8
_65281
  6
AUSGEZOGEN
 62
     4
370
    25
100
AcDbCircle
 10
-3.023149654133188
 20
0.262313924877089
 30
0.0
 40
0.002
100
AcDbArc
 50
89.9999999998855
 51
153.886087369621
  0
LINE
  5
CF
330
1F
100
AcDbEntity
  8
_65281
  6
AUSGEZOGEN
 62
     4
370
    25
100
AcDbLine
 10
-3.024945495578641
 20
0.2631942393111391
 30
0.0
 11
-3.028298899158114
 21
0.2563532960090291
 31
0.0
  0
ARC
  5
D0
330
1F
100
AcDbEntity
  8
_65281
  6
AUSGEZOGEN
 62
     4
370
    25
100
AcDbCircle
 10
-2.986296630105154
 20
0.2562139248770891
 30
0.0
 40
0.0020999999999796
100
AcDbArc
 50
90.0
 51
269.9999999998182
  0
LINE
  5
D1
330
1F
100
AcDbEntity
  8
_65281
  6
AUSGEZOGEN
 62
     4
370
    25
100
AcDbLine
 10
-2.982396630105133
 20
0.2583139248770691
 30
0.0
 11
-2.986296630105154
 21
0.2583139248770691
 31
0.0
  0
LINE
  5
D2
330
1F
100
AcDbEntity
  8
_65281
  6
AUSGEZOGEN
 62
     4
370
    25
100
AcDbLine
 10
-2.96489058204903
 20
0.2541139248771291
 30
0.0
 11
-2.98629663010516
 21
0.254113924877179
 31
0.0
  0
ARC
  5
D3
330
1F
100
AcDbEntity
  8
_65281
  6
AUSGEZOGEN
 62
     4
370
    25
100
AcDbCircle
 10
-2.982396630105133
 20
0.2603139248770691
 30
0.0
 40
0.002
100
AcDbArc
 50
270.0
 51
0.0
  0
LINE
  5
D4
330
1F
100
AcDbEntity
  8
_65281
  6
AUSGEZOGEN
 62
     4
370
    25
100
AcDbLine
 10
-2.980396630105133
 20
0.2623139248770691
 30
0.0
 11
-2.980396630105133
 21
0.2603139248770691
 31
0.0
  0
ARC
  5
D5
330
1F
100
AcDbEntity
  8
_65281
  6
AUSGEZOGEN
 62
     4
370
    25
100
AcDbCircle
 10
-2.964890582049021
 20
0.2581139248771291
 30
0.0
 40
0.004
100
AcDbArc
 50
269.9999999998728
 51
333.8860873696252
  0
ARC
  5
D6
330
1F
100
AcDbEntity
  8
_65281
  6
AUSGEZOGEN
 62
     4
370
    25
100
AcDbCircle
 10
-2.95614965413319
 20
0.262313924877089
 30
0.0
 40
0.002
100
AcDbArc
 50
89.9999999998855
 51
153.886087369621
  0
LINE
  5
D7
330
1F
100
AcDbEntity
  8
_65281
  6
AUSGEZOGEN
 62
     4
370
    25
100
AcDbLine
 10
-2.957945495578642
 20
0.2631942393111391
 30
0.0
 11
-2.961298899158115
 21
0.2563532960090291
 31
0.0
  0
ARC
  5
D8
330
1F
100
AcDbEntity
  8
_65281
  6
AUSGEZOGEN
 62
     4
370
    25
100
AcDbCircle
 10
-2.919296630105154
 20
0.2562139248770891
 30
0.0
 40
0.0020999999999796
100
AcDbArc
 50
90.0
 51
269.9999999998303
  0
ARC
  5
D9
330
1F
100
AcDbEntity
  8
_65281
  6
AUSGEZOGEN
 62
     4
370
    25
100
AcDbCircle
 10
-2.915396630105133
 20
0.2603139248770691
 30
0.0
 40
0.002
100
AcDbArc
 50
270.0
 51
0.0
  0
LINE
  5
DA
330
1F
100
AcDbEntity
  8
_65281
  6
AUSGEZOGEN
 62
     4
370
    25
100
AcDbLine
 10
-2.915396630105133
 20
0.2583139248770691
 30
0.0
 11
-2.919296630105154
 21
0.2583139248770691
 31
0.0
  0
LINE
  5
DB
330
1F
100
AcDbEntity
  8
_65281
  6
AUSGEZOGEN
 62
     4
370
    25
100
AcDbLine
 10
-2.913396630105134
 20
0.2623139248770691
 30
0.0
 11
-2.913396630105134
 21
0.2603139248770691
 31
0.0
  0
ARC
  5
DC
330
1F
100
AcDbEntity
  8
_65281
  6
AUSGEZOGEN
 62
     4
370
    25
100
AcDbCircle
 10
-2.89789058204902
 20
0.2581139248771291
 30
0.0
 40
0.004
100
AcDbArc
 50
269.9999999998664
 51
333.8860873696252
  0
LINE
  5
DD
330
1F
100
AcDbEntity
  8
_65281
  6
AUSGEZOGEN
 62
     4
370
    25
100
AcDbLine
 10
-2.897890582049029
 20
0.2541139248771291
 30
0.0
 11
-2.91929663010516
 21
0.254113924877179
 31
0.0
  0
ARC
  5
DE
330
1F
100
AcDbEntity
  8
_65281
  6
AUSGEZOGEN
 62
     4
370
    25
100
AcDbCircle
 10
-2.889149654133189
 20
0.262313924877089
 30
0.0
 40
0.002
100
AcDbArc
 50
89.9999999998855
 51
153.886087369621
  0
LINE
  5
DF
330
1F
100
AcDbEntity
  8
_65281
  6
AUSGEZOGEN
 62
     4
370
    25
100
AcDbLine
 10
-2.890945495578642
 20
0.2631942393111391
 30
0.0
 11
-2.894298899158115
 21
0.2563532960090291
 31
0.0
  0
ARC
  5
E0
330
1F
100
AcDbEntity
  8
_65281
  6
AUSGEZOGEN
 62
     4
370
    25
100
AcDbCircle
 10
-2.874196630105043
 20
0.263813924877049
 30
0.0
 40
0.0005
100
AcDbArc
 50
0.0
 51
90.0
  0
ARC
  5
E1
330
1F
100
AcDbEntity
  8
_65281
  6
AUSGEZOGEN
 62
     4
370
    25
100
AcDbCircle
 10
-2.872896630105043
 20
0.261613924877049
 30
0.0
 40
0.0015
100
AcDbArc
 50
0.0
 51
90.0
  0
ARC
  5
E2
330
1F
100
AcDbEntity
  8
_65281
  6
AUSGEZOGEN
 62
     4
370
    25
100
AcDbCircle
 10
-2.873196630105043
 20
0.263613924877049
 30
0.0
 40
0.0005
100
AcDbArc
 50
180.0
 51
270.0
  0
LINE
  5
E3
330
1F
100
AcDbEntity
  8
_65281
  6
AUSGEZOGEN
 62
     4
370
    25
100
AcDbLine
 10
-2.872896630105043
 20
0.263113924877049
 30
0.0
 11
-2.873196630105043
 21
0.263113924877049
 31
0.0
  0
LINE
  5
E4
330
1F
100
AcDbEntity
  8
_65281
  6
AUSGEZOGEN
 62
     4
370
    25
100
AcDbLine
 10
-2.873696630105044
 20
0.263613924877049
 30
0.0
 11
-2.873696630105044
 21
0.263813924877049
 31
0.0
  0
LINE
  5
E5
330
1F
100
AcDbEntity
  8
_65281
  6
AUSGEZOGEN
 62
     4
370
    25
100
AcDbLine
 10
-2.874196630105043
 20
0.264313924877049
 30
0.0
 11
-2.889149654133173
 21
0.264313924877089
 31
0.0
  0
ARC
  5
E6
330
1F
100
AcDbEntity
  8
_65281
  6
AUSGEZOGEN
 62
     4
370
    25
100
AcDbCircle
 10
-2.869396630105091
 20
0.2555362997186091
 30
0.0
 40
0.002
100
AcDbArc
 50
180.0
 51
261.4692343904331
  0
LINE
  5
E7
330
1F
100
AcDbEntity
  8
_65281
  6
AUSGEZOGEN
 62
     4
370
    25
100
AcDbLine
 10
-2.871396630105043
 20
0.261613924877049
 30
0.0
 11
-2.871396630105091
 21
0.2555362997186191
 31
0.0
  0
ARC
  5
E8
330
1F
100
AcDbEntity
  8
_65281
  6
AUSGEZOGEN
 62
     4
370
    25
100
AcDbCircle
 10
-2.861109367912781
 20
0.2502484607065891
 30
0.0
 40
0.002
100
AcDbArc
 50
10.26773586049918
 51
81.46923439044551
  0
ARC
  5
E9
330
1F
100
AcDbEntity
  8
_65281
  6
AUSGEZOGEN
 62
     4
370
    25
100
AcDbCircle
 10
-2.860396630105133
 20
0.2463139248770591
 30
0.0
 40
0.002
100
AcDbArc
 50
270.0
 51
10.26773586050003
  0
LINE
  5
EA
330
1F
100
AcDbEntity
  8
_65281
  6
AUSGEZOGEN
 62
     4
370
    25
100
AcDbLine
 10
-2.869693311010939
 20
0.2535584270128691
 30
0.0
 11
-2.860812687006935
 21
0.252226333412329
 31
0.0
  0
ARC
  5
EB
330
1F
100
AcDbEntity
  8
_65281
  6
AUSGEZOGEN
 62
     4
370
    25
100
AcDbCircle
 10
-3.116396630105132
 20
0.2623139248770691
 30
0.0
 40
0.002
100
AcDbArc
 50
0.0
 51
90.0
  0
LINE
  5
EC
330
1F
100
AcDbEntity
  8
_65281
  6
AUSGEZOGEN
 62
     4
370
    25
100
AcDbLine
 10
-3.049396630105124
 20
0.264313924876909
 30
0.0
 11
-3.090149654133184
 21
0.264313924877089
 31
0.0
  0
ARC
  5
ED
330
1F
100
AcDbEntity
  8
_65281
  6
AUSGEZOGEN
 62
     4
370
    25
100
AcDbCircle
 10
-2.982396630105133
 20
0.2623139248770691
 30
0.0
 40
0.002
100
AcDbArc
 50
0.0
 51
90.0
  0
LINE
  5
EE
330
1F
100
AcDbEntity
  8
_65281
  6
AUSGEZOGEN
 62
     4
370
    25
100
AcDbLine
 10
-2.982396630105124
 20
0.264313924876909
 30
0.0
 11
-3.023149654133185
 21
0.264313924877089
 31
0.0
  0
ARC
  5
EF
330
1F
100
AcDbEntity
  8
_65281
  6
AUSGEZOGEN
 62
     4
370
    25
100
AcDbCircle
 10
-2.915396630105133
 20
0.2623139248770691
 30
0.0
 40
0.002
100
AcDbArc
 50
0.0
 51
90.0
  0
LINE
  5
F0
330
1F
100
AcDbEntity
  8
_65281
  6
AUSGEZOGEN
 62
     4
370
    25
100
AcDbLine
 10
-2.915396630105124
 20
0.264313924876919
 30
0.0
 11
-2.956149654133185
 21
0.264313924877089
 31
0.0
  0
ARC
  5
F1
330
1F
100
AcDbEntity
  8
_65281
  6
AUSGEZOGEN
 62
     4
370
    25
100
AcDbCircle
 10
-3.049396630105132
 20
0.2603139248770691
 30
0.0
 40
0.002
100
AcDbArc
 50
270.0
 51
0.0
  0
ARC
  5
F2
330
1F
100
AcDbEntity
  8
_65281
  6
AUSGEZOGEN
 62
     4
370
    25
100
AcDbCircle
 10
-3.049396630105132
 20
0.2623139248770691
 30
0.0
 40
0.002
100
AcDbArc
 50
0.0
 51
90.0
  0
HATCH
  5
F3
330
1F
100
AcDbEntity
  8
STANDARD
  6
AUSGEZOGEN
 62
     9
420
 13092807
370
    18
100
AcDbHatch
 10
0.0
 20
0.0
 30
0.0
210
0.0
220
0.0
230
1.0
  2
SOLID
 70
     1
 71
     0
 91
        8
 92
        3
 72
     0
 73
     1
 93
      861
 10
-3.053296630105159
 20
0.254113924877109
 10
-3.05340653561327
 20
0.254116802854119
 10
-3.05351613987802
 20
0.254125428896839
 10
-3.053625142481741
 20
0.2541397793618591
 10
-3.053733244655873
 20
0.254159814915569
 10
-3.053840150099869
 20
0.2541854806418991
 10
-3.05394556579334
 20
0.2542167061928891
 10
-3.054049202799197
 20
0.2542534059814691
 10
-3.05415077705561
 20
0.2542954794160591
 10
-3.054250010154602
 20
0.2543428111763091
 10
-3.054346630105148
 20
0.2543952715291591
 10
-3.054440372078679
 20
0.254452716684419
 10
-3.05453097913496
 20
0.2545149891889191
 10
-3.05461820292635
 20
0.2545819183580491
 10
-3.054701804378497
 20
0.2546533207435991
 10
-3.054781554345634
 20
0.254729000636609
 10
-3.054857234238644
 20
0.2548087506037491
 10
-3.0549286366242
 20
0.2548923520558991
 10
-3.054995565793327
 20
0.2549795758472891
 10
-3.055057838297825
 20
0.255070182903569
 10
-3.055115283453085
 20
0.255163924877099
 10
-3.055167743805933
 20
0.255260544827649
 10
-3.055215075566187
 20
0.2553597779266391
 10
-3.05525714900078
 20
0.2554613521830491
 10
-3.055293848789356
 20
0.2555649891889091
 10
-3.055325074340341
 20
0.2556704048823791
 10
-3.055350740066676
 20
0.2557773103263791
 10
-3.055370775620384
 20
0.2558854125005091
 10
-3.055385126085407
 20
0.255994415104229
 10
-3.055393752128118
 20
0.256104019368979
 10
-3.055396630105133
 20
0.2562139248770891
 10
-3.055393752128118
 20
0.256323830385199
 10
-3.055385126085407
 20
0.2564334346499491
 10
-3.055370775620383
 20
0.256542437253669
 10
-3.055350740066674
 20
0.2566505394277991
 10
-3.05532507434034
 20
0.2567574448717991
 10
-3.055293848789353
 20
0.256862860565269
 10
-3.055257149000778
 20
0.256966497571129
 10
-3.055215075566183
 20
0.257068071827539
 10
-3.05516774380593
 20
0.257167304926529
 10
-3.055115283453082
 20
0.2572639248770791
 10
-3.055057838297821
 20
0.2573576668506091
 10
-3.054995565793323
 20
0.2574482739068891
 10
-3.054928636624197
 20
0.2575354976982791
 10
-3.054857234238641
 20
0.2576190991504291
 10
-3.05478155434563
 20
0.2576988491175691
 10
-3.054701804378493
 20
0.2577745290105791
 10
-3.054618202926345
 20
0.257845931396129
 10
-3.054530979134955
 20
0.2579128605652591
 10
-3.054440372078673
 20
0.2579751330697591
 10
-3.054346630105142
 20
0.2580325782250191
 10
-3.054250010154597
 20
0.2580850385778691
 10
-3.054150777055605
 20
0.258132370338119
 10
-3.05404920279919
 20
0.2581744437727091
 10
-3.053945565793335
 20
0.2582111435612891
 10
-3.053840150099863
 20
0.258242369112279
 10
-3.053733244655866
 20
0.2582680348386091
 10
-3.053625142481735
 20
0.258288070392319
 10
-3.053516139878014
 20
0.258302420857339
 10
-3.053406535613262
 20
0.2583110469000491
 10
-3.053296630105154
 20
0.2583139248770691
 10
-3.049396630105132
 20
0.2583139248770691
 10
-3.049291958192646
 20
0.2583166658075591
 10
-3.049187573178598
 20
0.258324881086329
 10
-3.049083761175052
 20
0.2583385481958791
 10
-3.048980806723497
 20
0.258357629675599
 10
-3.048878992014928
 20
0.2583820732244891
 10
-3.048778596116383
 20
0.2584118118444791
 10
-3.048679894206042
 20
0.2584467640240691
 10
-3.048583156818982
 20
0.2584868339617791
 10
-3.048488649105654
 20
0.2585319118286891
 10
-3.048396630105132
 20
0.2585818740694991
 10
-3.048307352035103
 20
0.258636583741179
 10
-3.048221059600548
 20
0.258695890888319
 10
-3.048137989323033
 20
0.2587596329541491
 10
-3.048058368892415
 20
0.2588276352261091
 10
-3.047982416542759
 20
0.2588997113146891
 10
-3.047910340454178
 20
0.258975663664349
 10
-3.047842338182219
 20
0.2590552840949691
 10
-3.047778596116383
 20
0.2591383543724791
 10
-3.047719288969243
 20
0.259224646807039
 10
-3.047664579297564
 20
0.2593139248770691
 10
-3.047614617056756
 20
0.259405943877589
 10
-3.047569539189847
 20
0.2595004515909191
 10
-3.047529469252138
 20
0.2595971889779791
 10
-3.047494517072542
 20
0.259695890888319
 10
-3.047464778452554
 20
0.259796286786859
 10
-3.047440334903665
 20
0.259898101495429
 10
-3.047421253423942
 20
0.260001055946989
 10
-3.047407586314396
 20
0.2601048679505291
 10
-3.047399371035624
 20
0.260209252964579
 10
-3.047396630105133
 20
0.2603139248770691
 10
-3.047396630105133
 20
0.2623139248770691
 10
-3.047399371035624
 20
0.262418596789549
 10
-3.047407586314396
 20
0.2625229818035991
 10
-3.047421253423942
 20
0.262626793807149
 10
-3.047440334903665
 20
0.262729748258699
 10
-3.047464778452554
 20
0.2628315629672691
 10
-3.047494517072542
 20
0.262931958865819
 10
-3.047529469252138
 20
0.2630306607761591
 10
-3.047569539189847
 20
0.263127398163219
 10
-3.047614617056756
 20
0.263221905876549
 10
-3.047664579297564
 20
0.2633139248770691
 10
-3.047719288969243
 20
0.263403202947099
 10
-3.047778596116383
 20
0.2634894953816491
 10
-3.047842338182219
 20
0.2635725656591691
 10
-3.047910340454178
 20
0.263652186089789
 10
-3.047982416542759
 20
0.2637281384394391
 10
-3.048058368892415
 20
0.2638002145280191
 10
-3.048137989323033
 20
0.2638682167999791
 10
-3.048221059600548
 20
0.263931958865819
 10
-3.048307352035103
 20
0.263991266012959
 10
-3.048396630105132
 20
0.2640459756846391
 10
-3.048488649105654
 20
0.2640959379254391
 10
-3.048583156818982
 20
0.2641410157923491
 10
-3.048679894206042
 20
0.2641810857300591
 10
-3.048778596116383
 20
0.2642160379096591
 10
-3.048878992014928
 20
0.264245776529649
 10
-3.048980806723497
 20
0.2642702200785391
 10
-3.049083761175052
 20
0.2642893015582591
 10
-3.049187573178598
 20
0.2643029686677991
 10
-3.049291958192646
 20
0.264311183946579
 10
-3.049396630105124
 20
0.264313924876909
 10
-3.090149654133184
 20
0.264313924877089
 10
-3.090250976429818
 20
0.2643113566762191
 10
-3.090352038510441
 20
0.2643036586692891
 10
-3.090452580827333
 20
0.2642908506263191
 10
-3.090552345167626
 20
0.264272965440929
 10
-3.090651075316458
 20
0.2642500490458791
 10
-3.090748517714975
 20
0.2642221602950591
 10
-3.090844422111523
 20
0.264189370812399
 10
-3.090938542204352
 20
0.2641517648078691
 10
-3.091030636274153
 20
0.2641094388612391
 10
-3.091120467804862
 20
0.264062501674049
 10
-3.091207806091062
 20
0.2640110737904291
 10
-3.09129242683049
 20
0.2639552872874991
 10
-3.091374112700091
 20
0.263895285436209
 10
-3.091452653914144
 20
0.2638312223333691
 10
-3.091527848763036
 20
0.2637632625058891
 10
-3.091599504131291
 20
0.263691580488259
 10
-3.091667435993529
 20
0.2636163603743091
 10
-3.091731469887086
 20
0.263537795344389
 10
-3.091791441360058
 20
0.263456087169269
 10
-3.091847196393657
 20
0.263371445691979
 10
-3.09189859179776
 20
0.2632840882888091
 10
-3.091945495578642
 20
0.2631942393111391
 10
-3.095298899158114
 20
0.256353296009039
 10
-3.095392706719881
 20
0.256173598053679
 10
-3.095495497528086
 20
0.255998883247349
 10
-3.095607007595286
 20
0.2558296002927591
 10
-3.095726950541229
 20
0.255666183942539
 10
-3.095855018328341
 20
0.2555090538826891
 10
-3.095990882052819
 20
0.2553586136547791
 10
-3.096134192789327
 20
0.2552152496195291
 10
-3.096284582487112
 20
0.2550793299645691
 10
-3.096441664915218
 20
0.2549512037588891
 10
-3.096605036654422
 20
0.254831200056309
 10
-3.096774278133277
 20
0.254719627050449
 10
-3.096948954705677
 20
0.254616771283199
 10
-3.097128617767093
 20
0.2545228969088191
 10
-3.0973128059067
 20
0.2544382450155691
 10
-3.097501046092354
 20
0.2543630330065091
 10
-3.097692854885452
 20
0.2542974540411791
 10
-3.097887739682485
 20
0.254241676539549
 10
-3.098085199980148
 20
0.2541958437494491
 10
-3.098284728660736
 20
0.2541600733786691
 10
-3.098485813294518
 20
0.2541344572927191
 10
-3.098687937455764
 20
0.2541190612788591
 10
-3.09889058204903
 20
0.2541139248771291
 10
-3.120296630105159
 20
0.254113924877109
 10
-3.12040653561327
 20
0.254116802854119
 10
-3.120516139878019
 20
0.254125428896839
 10
-3.120625142481741
 20
0.2541397793618591
 10
-3.120733244655873
 20
0.254159814915569
 10
-3.120840150099869
 20
0.2541854806418991
 10
-3.12094556579334
 20
0.2542167061928891
 10
-3.121049202799197
 20
0.2542534059814691
 10
-3.12115077705561
 20
0.2542954794160591
 10
-3.121250010154602
 20
0.2543428111763091
 10
-3.121346630105148
 20
0.2543952715291591
 10
-3.121440372078679
 20
0.254452716684419
 10
-3.12153097913496
 20
0.2545149891889191
 10
-3.12161820292635
 20
0.2545819183580491
 10
-3.121701804378497
 20
0.2546533207435991
 10
-3.121781554345635
 20
0.254729000636609
 10
-3.121857234238645
 20
0.2548087506037491
 10
-3.121928636624201
 20
0.2548923520558991
 10
-3.121995565793327
 20
0.2549795758472891
 10
-3.122057838297825
 20
0.255070182903569
 10
-3.122115283453085
 20
0.255163924877099
 10
-3.122167743805933
 20
0.255260544827649
 10
-3.122215075566187
 20
0.2553597779266391
 10
-3.12225714900078
 20
0.2554613521830491
 10
-3.122293848789355
 20
0.2555649891889091
 10
-3.122325074340341
 20
0.2556704048823791
 10
-3.122350740066676
 20
0.2557773103263791
 10
-3.122370775620384
 20
0.2558854125005091
 10
-3.122385126085407
 20
0.255994415104229
 10
-3.122393752128118
 20
0.256104019368979
 10
-3.122396630105133
 20
0.2562139248770891
 10
-3.122393752128118
 20
0.256323830385199
 10
-3.122385126085407
 20
0.2564334346499491
 10
-3.122370775620383
 20
0.256542437253669
 10
-3.122350740066674
 20
0.2566505394277991
 10
-3.122325074340341
 20
0.2567574448717991
 10
-3.122293848789353
 20
0.256862860565269
 10
-3.122257149000779
 20
0.256966497571129
 10
-3.122215075566183
 20
0.257068071827539
 10
-3.12216774380593
 20
0.257167304926529
 10
-3.122115283453083
 20
0.2572639248770791
 10
-3.122057838297821
 20
0.2573576668506091
 10
-3.121995565793323
 20
0.2574482739068891
 10
-3.121928636624197
 20
0.2575354976982791
 10
-3.121857234238641
 20
0.2576190991504291
 10
-3.12178155434563
 20
0.2576988491175691
 10
-3.121701804378493
 20
0.2577745290105791
 10
-3.121618202926345
 20
0.257845931396129
 10
-3.121530979134955
 20
0.2579128605652591
 10
-3.121440372078673
 20
0.2579751330697591
 10
-3.121346630105142
 20
0.2580325782250191
 10
-3.121250010154597
 20
0.2580850385778691
 10
-3.121150777055604
 20
0.258132370338119
 10
-3.121049202799191
 20
0.2581744437727091
 10
-3.120945565793335
 20
0.2582111435612891
 10
-3.120840150099863
 20
0.258242369112279
 10
-3.120733244655866
 20
0.2582680348386091
 10
-3.120625142481735
 20
0.258288070392319
 10
-3.120516139878014
 20
0.258302420857339
 10
-3.120406535613262
 20
0.2583110469000491
 10
-3.120296630105154
 20
0.2583139248770691
 10
-3.116396630105132
 20
0.2583139248770691
 10
-3.116291958192646
 20
0.2583166658075591
 10
-3.116187573178598
 20
0.258324881086329
 10
-3.116083761175053
 20
0.2583385481958791
 10
-3.115980806723497
 20
0.258357629675599
 10
-3.115878992014927
 20
0.2583820732244891
 10
-3.115778596116384
 20
0.2584118118444791
 10
-3.115679894206043
 20
0.2584467640240691
 10
-3.115583156818981
 20
0.2584868339617791
 10
-3.115488649105654
 20
0.2585319118286891
 10
-3.115396630105133
 20
0.2585818740694991
 10
-3.115307352035103
 20
0.258636583741179
 10
-3.115221059600548
 20
0.258695890888319
 10
-3.115137989323033
 20
0.2587596329541491
 10
-3.115058368892415
 20
0.2588276352261091
 10
-3.114982416542759
 20
0.2588997113146891
 10
-3.114910340454177
 20
0.258975663664349
 10
-3.114842338182219
 20
0.2590552840949691
 10
-3.114778596116384
 20
0.2591383543724791
 10
-3.114719288969242
 20
0.259224646807039
 10
-3.114664579297564
 20
0.2593139248770691
 10
-3.114614617056756
 20
0.259405943877589
 10
-3.114569539189847
 20
0.2595004515909191
 10
-3.114529469252139
 20
0.2595971889779791
 10
-3.114494517072543
 20
0.259695890888319
 10
-3.114464778452554
 20
0.259796286786859
 10
-3.114440334903665
 20
0.259898101495429
 10
-3.114421253423942
 20
0.260001055946989
 10
-3.114407586314396
 20
0.2601048679505291
 10
-3.114399371035624
 20
0.260209252964579
 10
-3.114396630105132
 20
0.2603139248770691
 10
-3.114396630105132
 20
0.2623139248770691
 10
-3.114399371035624
 20
0.262418596789549
 10
-3.114407586314396
 20
0.2625229818035991
 10
-3.114421253423942
 20
0.262626793807149
 10
-3.114440334903665
 20
0.262729748258699
 10
-3.114464778452554
 20
0.2628315629672691
 10
-3.114494517072543
 20
0.262931958865819
 10
-3.114529469252139
 20
0.2630306607761591
 10
-3.114569539189847
 20
0.263127398163219
 10
-3.114614617056756
 20
0.263221905876549
 10
-3.114664579297564
 20
0.2633139248770691
 10
-3.114719288969242
 20
0.263403202947099
 10
-3.114778596116384
 20
0.2634894953816491
 10
-3.114842338182219
 20
0.2635725656591691
 10
-3.114910340454177
 20
0.263652186089789
 10
-3.114982416542759
 20
0.2637281384394391
 10
-3.115058368892415
 20
0.2638002145280191
 10
-3.115137989323033
 20
0.2638682167999791
 10
-3.115221059600548
 20
0.263931958865819
 10
-3.115307352035103
 20
0.263991266012959
 10
-3.115396630105133
 20
0.2640459756846391
 10
-3.115488649105654
 20
0.2640959379254391
 10
-3.115583156818981
 20
0.2641410157923491
 10
-3.115679894206042
 20
0.2641810857300591
 10
-3.115778596116384
 20
0.2642160379096591
 10
-3.115878992014927
 20
0.264245776529649
 10
-3.115980806723497
 20
0.2642702200785391
 10
-3.116083761175053
 20
0.2642893015582591
 10
-3.116187573178598
 20
0.2643029686677991
 10
-3.116291958192646
 20
0.264311183946579
 10
-3.116396630105132
 20
0.2643139248770691
 10
-3.124804526775078
 20
0.2643139248770691
 10
-3.124804526775078
 20
0.2443139248772491
 10
-2.860396630105133
 20
0.2443139248770591
 10
-2.860293734250179
 20
0.2443165735201291
 10
-2.860191110929618
 20
0.2443245124340291
 10
-2.860089031955996
 20
0.2443377205914091
 10
-2.859987767700081
 20
0.244356163008569
 10
-2.85988758637474
 20
0.2443797908381291
 10
-2.859788753324548
 20
0.2444085414984191
 10
-2.859691530322978
 20
0.2444423388391791
 10
-2.859596174879059
 20
0.2444810933433291
 10
-2.859502939555326
 20
0.244524702364019
 10
-2.859412071298875
 20
0.2445730503965191
 10
-2.859323810787282
 20
0.2446260093841391
 10
-2.859238391791139
 20
0.2446834390574391
 10
-2.859156040554881
 20
0.2447451873056991
 10
-2.859076975197535
 20
0.2448110905798591
 10
-2.859001405135015
 20
0.2448809743256591
 10
-2.858929530525442
 20
0.2449546534460091
 10
-2.858861541739001
 20
0.245031932791219
 10
-2.858797618853723
 20
0.2451126076758791
 10
-2.858737931178513
 20
0.2451964644210091
 10
-2.85868263680472
 20
0.2452832809200391
 10
-2.858631882187403
 20
0.2453728272270491
 10
-2.858585801757426
 20
0.2454648661658191
 10
-2.858544517565402
 20
0.2455591539580591
 10
-2.858508138958421
 20
0.2456554408690691
 10
-2.858476762290425
 20
0.2457534718691691
 10
-2.858450470667012
 20
0.2458529873092591
 10
-2.858429333725306
 20
0.2459537236084391
 10
-2.858413407449521
 20
0.2460554139522091
 10
-2.858402734022679
 20
0.2461577889991491
 10
-2.858397341714875
 20
0.2462605775943091
 10
-2.85839724480841
 20
0.246363507487369
 10
-2.858402443559953
 20
0.2464663060537991
 10
-2.858412924199869
 20
0.2465687010168691
 10
-2.858428658968681
 20
0.2466704211688991
 10
-2.859141396776329
 20
0.2506049569984291
 10
-2.859162485177781
 20
0.250706333632369
 10
-2.85918879217046
 20
0.250806482944509
 10
-2.859220247238848
 20
0.2509051364860391
 10
-2.859256766068087
 20
0.2510020298175791
 10
-2.85929825076998
 20
0.251096903217929
 10
-2.859344590145377
 20
0.2511895023803091
 10
-2.859395659982249
 20
0.2512795790939891
 10
-2.85945132338863
 20
0.2513668919096291
 10
-2.859511431159559
 20
0.2514512067864891
 10
-2.859575822177019
 20
0.2515322977197391
 10
-2.859644323841812
 20
0.251609947346309
 10
-2.859716752536209
 20
0.2516839475274791
 10
-2.859792914116133
 20
0.2517540999068291
 10
-2.859872604431565
 20
0.251820216441919
 10
-2.859955609873754
 20
0.251882119908319
 10
-2.860041707947806
 20
0.251939644374669
 10
-2.86013066786907
 20
0.2519926356474891
 10
-2.860222251181753
 20
0.2520409516843991
 10
-2.8603162123981
 20
0.2520844629749791
 10
-2.86041229965642
 20
0.252123052887829
 10
-2.860510255396195
 20
0.2521566179832491
 10
-2.860609817048471
 20
0.252185068290479
 10
-2.86071071773967
 20
0.2522083275488691
 10
-2.860812687006935
 20
0.252226333412329
 10
-2.869693311010939
 20
0.2535584270128691
 10
-2.869793326445573
 20
0.2535760364675491
 10
-2.869892319080012
 20
0.253598700059199
 10
-2.869990033682038
 20
0.253626359354389
 10
-2.870086218314577
 20
0.2536589430392991
 10
-2.870180624985275
 20
0.2536963671035791
 10
-2.870273010285882
 20
0.253738535056949
 10
-2.870363136019838
 20
0.253785338177979
 10
-2.870450769816411
 20
0.2538366557944191
 10
-2.870535685729823
 20
0.2538923555943191
 10
-2.870617664821794
 20
0.2539522939671691
 10
-2.870696495726043
 20
0.2540163163741391
 10
-2.870771975193242
 20
0.254084257746589
 10
-2.870843908615057
 20
0.2541559429116191
 10
-2.870912110525904
 20
0.254231187043729
 10
-2.870976405081135
 20
0.2543097961413391
 10
-2.871036626510424
 20
0.2543915675269991
 10
-2.871092619545154
 20
0.254476290369969
 10
-2.871144239818767
 20
0.2545637462297591
 10
-2.871191354238968
 20
0.2546537096193591
 10
-2.87123384133088
 20
0.254745948586619
 10
-2.871271591550248
 20
0.2548402253122591
 10
-2.871304507565868
 20
0.2549362967230691
 10
-2.871332504510543
 20
0.2550339151186091
 10
-2.87135551019989
 20
0.255132828809859
 10
-2.871373465318452
 20
0.2552327827681491
 10
-2.871386323572639
 20
0.2553335192826691
 10
-2.871394051810077
 20
0.255434778624979
 10
-2.871396630105091
 20
0.2555362997186191
 10
-2.871396630105043
 20
0.261613924877049
 10
-2.871398685802911
 20
0.2616924288114091
 10
-2.871404847261991
 20
0.261770717571949
 10
-2.87141509759415
 20
0.2618485765746091
 10
-2.871429408703943
 20
0.2619257924132691
 10
-2.87144774136561
 20
0.2620021534446991
 10
-2.871470045330601
 20
0.2620774503686091
 10
-2.871496259465297
 20
0.2621514768013591
 10
-2.871526311918579
 20
0.262224029841659
 10
-2.871560120318761
 20
0.2622949106266591
 10
-2.871597591999367
 20
0.2623639248770491
 10
-2.871638624253124
 20
0.2624308834295691
 10
-2.871683104613481
 20
0.262495602755479
 10
-2.871730911162858
 20
0.262557905463619
 10
-2.871781912866827
 20
0.2626176207865791
 10
-2.871835969933263
 20
0.2626745850488291
 10
-2.871892934195504
 20
0.262728642115259
 10
-2.871952649518469
 20
0.262779643819229
 10
-2.872014952226605
 20
0.2628274503686091
 10
-2.872079671552521
 20
0.262871930728959
 10
-2.872146630105043
 20
0.262912962982719
 10
-2.872215644355434
 20
0.262950434663329
 10
-2.872286525140429
 20
0.262984243063509
 10
-2.872359078180725
 20
0.2630142955167891
 10
-2.872433104613481
 20
0.2630405096514891
 10
-2.872508401537389
 20
0.263062813616479
 10
-2.872584762568817
 20
0.263081146278149
 10
-2.872661978407483
 20
0.263095457387939
 10
-2.872739837410141
 20
0.2631057077200991
 10
-2.872818126170679
 20
0.2631118691791791
 10
-2.872896630105043
 20
0.263113924877049
 10
-2.873196630105043
 20
0.263113924877049
 10
-2.873221954689463
 20
0.2631145666234591
 10
-2.873247214266037
 20
0.2631164902153491
 10
-2.873272343993795
 20
0.263119690714879
 10
-2.873297279365088
 20
0.263124159906419
 10
-2.873321956371172
 20
0.2631298863176091
 10
-2.87334631166653
 20
0.2631368552488491
 10
-2.873370282731466
 20
0.2631450488109691
 10
-2.8733938080326
 20
0.263154445971239
 10
-2.873416827180822
 20
0.263165022607259
 10
-2.873439281086308
 20
0.2631767515689691
 10
-2.873461112110206
 20
0.2631896027482991
 10
-2.873482264212591
 20
0.2632035431564391
 10
-2.873502683096317
 20
0.2632185370085791
 10
-2.873522316346405
 20
0.2632345458156991
 10
-2.873541113564581
 20
0.2632515284834291
 10
-2.873559026498658
 20
0.263269441417509
 10
-2.87357600916639
 20
0.263288238635689
 10
-2.873592017973512
 20
0.263307871885769
 10
-2.873607011825646
 20
0.263328290769499
 10
-2.87362095223379
 20
0.2633494428718791
 10
-2.873633803413116
 20
0.263371273895779
 10
-2.873645532374829
 20
0.2633937278012691
 10
-2.873656109010854
 20
0.263416746949489
 10
-2.873665506171117
 20
0.2634402722506191
 10
-2.873673699733243
 20
0.263464243315559
 10
-2.873680668664477
 20
0.2634885986109191
 10
-2.873686395075669
 20
0.2635132756169991
 10
-2.873690864267208
 20
0.2635382109882891
 10
-2.87369406476674
 20
0.263563340716049
 10
-2.873695988358629
 20
0.263588600292629
 10
-2.873696630105044
 20
0.263613924877049
 10
-2.873696630105044
 20
0.263813924877049
 10
-2.873697315337666
 20
0.2638400928551691
 10
-2.873699369157359
 20
0.2638661891086791
 10
-2.873702785934745
 20
0.2638921421095691
 10
-2.873707556304677
 20
0.2639178807224491
 10
-2.873713667191899
 20
0.263943334399599
 10
-2.873721101846895
 20
0.263968433374229
 10
-2.873729839891795
 20
0.263993108851819
 10
-2.873739857376222
 20
0.2640172931985791
 10
-2.873751126842949
 20
0.264040920126919
 10
-2.873763617403152
 20
0.264063924877049
 10
-2.873777294821071
 20
0.2640862443945491
 10
-2.873792121607856
 20
0.2641078175031891
 10
-2.873808057124315
 20
0.2641285850725691
 10
-2.873825057692305
 20
0.264148490180229
 10
-2.87384307671445
 20
0.2641674782676391
 10
-2.873862064801864
 20
0.2641854972897791
 10
-2.873881969909518
 20
0.2642024978577691
 10
-2.873902737478898
 20
0.2642184333742291
 10
-2.873924310587536
 20
0.2642332601610191
 10
-2.873946630105043
 20
0.2642469375789391
 10
-2.873969634855174
 20
0.2642594281391391
 10
-2.873993261783506
 20
0.264270697605869
 10
-2.87401744613027
 20
0.2642807150902891
 10
-2.874042121607856
 20
0.264289453135189
 10
-2.874067220582492
 20
0.2642968877901891
 10
-2.874092674259635
 20
0.264302998677409
 10
-2.874118412872523
 20
0.264307769047339
 10
-2.87414436587341
 20
0.2643111858247291
 10
-2.874170462126922
 20
0.2643132396444191
 10
-2.874196630105043
 20
0.264313924877049
 10
-2.889149654133186
 20
0.264313924877089
 10
-2.889250976429818
 20
0.2643113566762191
 10
-2.889352038510441
 20
0.2643036586692891
 10
-2.889452580827332
 20
0.2642908506263191
 10
-2.889552345167625
 20
0.264272965440929
 10
-2.889651075316458
 20
0.2642500490458791
 10
-2.889748517714974
 20
0.2642221602950591
 10
-2.889844422111522
 20
0.264189370812399
 10
-2.889938542204351
 20
0.2641517648078691
 10
-2.890030636274153
 20
0.2641094388612391
 10
-2.890120467804862
 20
0.264062501674049
 10
-2.890207806091061
 20
0.2640110737904291
 10
-2.890292426830489
 20
0.2639552872874991
 10
-2.890374112700091
 20
0.263895285436209
 10
-2.890452653914144
 20
0.2638312223333691
 10
-2.890527848763036
 20
0.2637632625058891
 10
-2.890599504131291
 20
0.263691580488259
 10
-2.89066743599353
 20
0.2636163603743091
 10
-2.890731469887085
 20
0.263537795344389
 10
-2.890791441360058
 20
0.263456087169269
 10
-2.890847196393657
 20
0.263371445691979
 10
-2.890898591797759
 20
0.2632840882888091
 10
-2.890945495578642
 20
0.2631942393111391
 10
-2.894298899158115
 20
0.256353296009039
 10
-2.894392706719882
 20
0.256173598053679
 10
-2.894495497528085
 20
0.255998883247349
 10
-2.894607007595285
 20
0.2558296002927591
 10
-2.89472695054123
 20
0.255666183942539
 10
-2.894855018328341
 20
0.2555090538826891
 10
-2.894990882052818
 20
0.2553586136547791
 10
-2.895134192789328
 20
0.2552152496195291
 10
-2.895284582487111
 20
0.2550793299645691
 10
-2.895441664915219
 20
0.2549512037588891
 10
-2.895605036654421
 20
0.254831200056309
 10
-2.895774278133278
 20
0.254719627050449
 10
-2.895948954705676
 20
0.254616771283199
 10
-2.896128617767093
 20
0.2545228969088191
 10
-2.896312805906699
 20
0.2544382450155691
 10
-2.896501046092353
 20
0.2543630330065091
 10
-2.896692854885452
 20
0.2542974540411791
 10
-2.896887739682485
 20
0.254241676539549
 10
-2.897085199980148
 20
0.2541958437494491
 10
-2.897284728660736
 20
0.2541600733786691
 10
-2.897485813294518
 20
0.2541344572927191
 10
-2.897687937455764
 20
0.2541190612788591
 10
-2.897890582049029
 20
0.2541139248771291
 10
-2.91929663010516
 20
0.254113924877109
 10
-2.919406535613269
 20
0.254116802854119
 10
-2.91951613987802
 20
0.254125428896839
 10
-2.919625142481741
 20
0.2541397793618591
 10
-2.919733244655872
 20
0.254159814915569
 10
-2.91984015009987
 20
0.2541854806418991
 10
-2.91994556579334
 20
0.2542167061928891
 10
-2.920049202799197
 20
0.2542534059814691
 10
-2.920150777055609
 20
0.2542954794160591
 10
-2.920250010154603
 20
0.2543428111763091
 10
-2.920346630105148
 20
0.2543952715291591
 10
-2.920440372078679
 20
0.254452716684419
 10
-2.92053097913496
 20
0.2545149891889191
 10
-2.92061820292635
 20
0.2545819183580491
 10
-2.920701804378497
 20
0.2546533207435991
 10
-2.920781554345635
 20
0.254729000636609
 10
-2.920857234238644
 20
0.2548087506037491
 10
-2.9209286366242
 20
0.2548923520558991
 10
-2.920995565793328
 20
0.2549795758472891
 10
-2.921057838297824
 20
0.255070182903569
 10
-2.921115283453086
 20
0.255163924877099
 10
-2.921167743805932
 20
0.255260544827649
 10
-2.921215075566187
 20
0.2553597779266391
 10
-2.92125714900078
 20
0.2554613521830491
 10
-2.921293848789355
 20
0.2555649891889091
 10
-2.921325074340342
 20
0.2556704048823791
 10
-2.921350740066675
 20
0.2557773103263791
 10
-2.921370775620384
 20
0.2558854125005091
 10
-2.921385126085407
 20
0.255994415104229
 10
-2.921393752128119
 20
0.256104019368979
 10
-2.921396630105134
 20
0.2562139248770891
 10
-2.921393752128118
 20
0.256323830385199
 10
-2.921385126085406
 20
0.2564334346499491
 10
-2.921370775620383
 20
0.256542437253669
 10
-2.921350740066674
 20
0.2566505394277991
 10
-2.92132507434034
 20
0.2567574448717991
 10
-2.921293848789353
 20
0.256862860565269
 10
-2.921257149000778
 20
0.256966497571129
 10
-2.921215075566184
 20
0.257068071827539
 10
-2.921167743805931
 20
0.257167304926529
 10
-2.921115283453082
 20
0.2572639248770791
 10
-2.921057838297821
 20
0.2573576668506091
 10
-2.920995565793324
 20
0.2574482739068891
 10
-2.920928636624196
 20
0.2575354976982791
 10
-2.92085723423864
 20
0.2576190991504291
 10
-2.92078155434563
 20
0.2576988491175691
 10
-2.920701804378492
 20
0.2577745290105791
 10
-2.920618202926345
 20
0.257845931396129
 10
-2.920530979134956
 20
0.2579128605652591
 10
-2.920440372078673
 20
0.2579751330697591
 10
-2.920346630105143
 20
0.2580325782250191
 10
-2.920250010154597
 20
0.2580850385778691
 10
-2.920150777055604
 20
0.258132370338119
 10
-2.920049202799191
 20
0.2581744437727091
 10
-2.919945565793334
 20
0.2582111435612891
 10
-2.919840150099863
 20
0.258242369112279
 10
-2.919733244655867
 20
0.2582680348386091
 10
-2.919625142481735
 20
0.258288070392319
 10
-2.919516139878014
 20
0.258302420857339
 10
-2.919406535613263
 20
0.2583110469000491
 10
-2.919296630105154
 20
0.2583139248770691
 10
-2.915396630105133
 20
0.2583139248770691
 10
-2.915291958192647
 20
0.2583166658075591
 10
-2.915187573178598
 20
0.258324881086329
 10
-2.915083761175052
 20
0.2583385481958791
 10
-2.914980806723497
 20
0.258357629675599
 10
-2.914878992014928
 20
0.2583820732244891
 10
-2.914778596116383
 20
0.2584118118444791
 10
-2.914679894206042
 20
0.2584467640240691
 10
-2.914583156818981
 20
0.2584868339617791
 10
-2.914488649105653
 20
0.2585319118286891
 10
-2.914396630105133
 20
0.2585818740694991
 10
-2.914307352035103
 20
0.258636583741179
 10
-2.914221059600548
 20
0.258695890888319
 10
-2.914137989323033
 20
0.2587596329541491
 10
-2.914058368892414
 20
0.2588276352261091
 10
-2.91398241654276
 20
0.2588997113146891
 10
-2.913910340454179
 20
0.258975663664349
 10
-2.913842338182219
 20
0.2590552840949691
 10
-2.913778596116383
 20
0.2591383543724791
 10
-2.913719288969241
 20
0.259224646807039
 10
-2.913664579297564
 20
0.2593139248770691
 10
-2.913614617056755
 20
0.259405943877589
 10
-2.913569539189848
 20
0.2595004515909191
 10
-2.913529469252139
 20
0.2595971889779791
 10
-2.913494517072542
 20
0.259695890888319
 10
-2.913464778452555
 20
0.259796286786859
 10
-2.913440334903666
 20
0.259898101495429
 10
-2.913421253423943
 20
0.260001055946989
 10
-2.913407586314396
 20
0.2601048679505291
 10
-2.913399371035624
 20
0.260209252964579
 10
-2.913396630105134
 20
0.2603139248770691
 10
-2.913396630105134
 20
0.2623139248770691
 10
-2.913399371035624
 20
0.262418596789549
 10
-2.913407586314396
 20
0.2625229818035991
 10
-2.913421253423943
 20
0.262626793807149
 10
-2.913440334903666
 20
0.262729748258699
 10
-2.913464778452555
 20
0.2628315629672691
 10
-2.913494517072542
 20
0.262931958865819
 10
-2.913529469252139
 20
0.2630306607761591
 10
-2.913569539189848
 20
0.263127398163219
 10
-2.913614617056755
 20
0.263221905876549
 10
-2.913664579297564
 20
0.2633139248770691
 10
-2.913719288969241
 20
0.263403202947099
 10
-2.913778596116383
 20
0.2634894953816491
 10
-2.913842338182219
 20
0.2635725656591691
 10
-2.913910340454179
 20
0.263652186089789
 10
-2.91398241654276
 20
0.2637281384394391
 10
-2.914058368892414
 20
0.2638002145280191
 10
-2.914137989323033
 20
0.2638682167999791
 10
-2.914221059600548
 20
0.263931958865819
 10
-2.914307352035103
 20
0.263991266012959
 10
-2.914396630105133
 20
0.2640459756846391
 10
-2.914488649105653
 20
0.2640959379254391
 10
-2.914583156818981
 20
0.2641410157923491
 10
-2.914679894206042
 20
0.2641810857300591
 10
-2.914778596116383
 20
0.2642160379096591
 10
-2.914878992014928
 20
0.264245776529649
 10
-2.914980806723497
 20
0.2642702200785391
 10
-2.915083761175052
 20
0.2642893015582591
 10
-2.915187573178598
 20
0.2643029686677991
 10
-2.915291958192647
 20
0.264311183946579
 10
-2.915396630105125
 20
0.264313924876919
 10
-2.956149654133185
 20
0.264313924877089
 10
-2.956250976429819
 20
0.2643113566762191
 10
-2.956352038510442
 20
0.2643036586692891
 10
-2.956452580827332
 20
0.2642908506263191
 10
-2.956552345167626
 20
0.264272965440929
 10
-2.956651075316458
 20
0.2642500490458791
 10
-2.956748517714974
 20
0.2642221602950591
 10
-2.956844422111523
 20
0.264189370812399
 10
-2.956938542204352
 20
0.2641517648078691
 10
-2.957030636274154
 20
0.2641094388612391
 10
-2.957120467804862
 20
0.264062501674049
 10
-2.957207806091061
 20
0.2640110737904291
 10
-2.95729242683049
 20
0.2639552872874991
 10
-2.95737411270009
 20
0.263895285436209
 10
-2.957452653914145
 20
0.2638312223333691
 10
-2.957527848763037
 20
0.2637632625058891
 10
-2.957599504131291
 20
0.263691580488259
 10
-2.95766743599353
 20
0.2636163603743091
 10
-2.957731469887085
 20
0.263537795344389
 10
-2.957791441360058
 20
0.263456087169269
 10
-2.957847196393657
 20
0.263371445691979
 10
-2.957898591797759
 20
0.2632840882888091
 10
-2.957945495578642
 20
0.2631942393111391
 10
-2.961298899158115
 20
0.256353296009039
 10
-2.961392706719882
 20
0.256173598053679
 10
-2.961495497528085
 20
0.255998883247349
 10
-2.961607007595285
 20
0.2558296002927591
 10
-2.96172695054123
 20
0.255666183942539
 10
-2.961855018328341
 20
0.2555090538826891
 10
-2.961990882052819
 20
0.2553586136547791
 10
-2.962134192789328
 20
0.2552152496195291
 10
-2.962284582487112
 20
0.2550793299645691
 10
-2.962441664915219
 20
0.2549512037588891
 10
-2.962605036654422
 20
0.254831200056309
 10
-2.962774278133277
 20
0.254719627050449
 10
-2.962948954705677
 20
0.254616771283199
 10
-2.963128617767094
 20
0.2545228969088191
 10
-2.963312805906699
 20
0.2544382450155691
 10
-2.963501046092354
 20
0.2543630330065091
 10
-2.963692854885452
 20
0.2542974540411791
 10
-2.963887739682485
 20
0.254241676539549
 10
-2.964085199980148
 20
0.2541958437494491
 10
-2.964284728660736
 20
0.2541600733786691
 10
-2.964485813294517
 20
0.2541344572927191
 10
-2.964687937455765
 20
0.2541190612788591
 10
-2.96489058204903
 20
0.2541139248771291
 10
-2.98629663010516
 20
0.254113924877109
 10
-2.986406535613269
 20
0.254116802854119
 10
-2.98651613987802
 20
0.254125428896839
 10
-2.986625142481741
 20
0.2541397793618591
 10
-2.986733244655872
 20
0.254159814915569
 10
-2.986840150099869
 20
0.2541854806418991
 10
-2.986945565793341
 20
0.2542167061928891
 10
-2.987049202799197
 20
0.2542534059814691
 10
-2.98715077705561
 20
0.2542954794160591
 10
-2.987250010154603
 20
0.2543428111763091
 10
-2.987346630105149
 20
0.2543952715291591
 10
-2.987440372078679
 20
0.254452716684419
 10
-2.98753097913496
 20
0.2545149891889191
 10
-2.987618202926349
 20
0.2545819183580491
 10
-2.987701804378498
 20
0.2546533207435991
 10
-2.987781554345635
 20
0.254729000636609
 10
-2.987857234238644
 20
0.2548087506037491
 10
-2.987928636624201
 20
0.2548923520558991
 10
-2.987995565793328
 20
0.2549795758472891
 10
-2.988057838297824
 20
0.255070182903569
 10
-2.988115283453086
 20
0.255163924877099
 10
-2.988167743805932
 20
0.255260544827649
 10
-2.988215075566187
 20
0.2553597779266391
 10
-2.988257149000781
 20
0.2554613521830491
 10
-2.988293848789355
 20
0.2555649891889091
 10
-2.988325074340342
 20
0.2556704048823791
 10
-2.988350740066675
 20
0.2557773103263791
 10
-2.988370775620384
 20
0.2558854125005091
 10
-2.988385126085407
 20
0.255994415104229
 10
-2.988393752128118
 20
0.256104019368979
 10
-2.988396630105133
 20
0.2562139248770891
 10
-2.988393752128118
 20
0.256323830385199
 10
-2.988385126085406
 20
0.2564334346499491
 10
-2.988370775620383
 20
0.256542437253669
 10
-2.988350740066674
 20
0.2566505394277991
 10
-2.988325074340341
 20
0.2567574448717991
 10
-2.988293848789354
 20
0.256862860565269
 10
-2.988257149000779
 20
0.256966497571129
 10
-2.988215075566184
 20
0.257068071827539
 10
-2.98816774380593
 20
0.257167304926529
 10
-2.988115283453082
 20
0.2572639248770791
 10
-2.988057838297821
 20
0.2573576668506091
 10
-2.987995565793324
 20
0.2574482739068891
 10
-2.987928636624196
 20
0.2575354976982791
 10
-2.98785723423864
 20
0.2576190991504291
 10
-2.98778155434563
 20
0.2576988491175691
 10
-2.987701804378493
 20
0.2577745290105791
 10
-2.987618202926345
 20
0.257845931396129
 10
-2.987530979134955
 20
0.2579128605652591
 10
-2.987440372078673
 20
0.2579751330697591
 10
-2.987346630105143
 20
0.2580325782250191
 10
-2.987250010154597
 20
0.2580850385778691
 10
-2.987150777055604
 20
0.258132370338119
 10
-2.987049202799192
 20
0.2581744437727091
 10
-2.986945565793335
 20
0.2582111435612891
 10
-2.986840150099864
 20
0.258242369112279
 10
-2.986733244655866
 20
0.2582680348386091
 10
-2.986625142481734
 20
0.258288070392319
 10
-2.986516139878013
 20
0.258302420857339
 10
-2.986406535613263
 20
0.2583110469000491
 10
-2.986296630105154
 20
0.2583139248770691
 10
-2.982396630105133
 20
0.2583139248770691
 10
-2.982291958192647
 20
0.2583166658075591
 10
-2.982187573178598
 20
0.258324881086329
 10
-2.982083761175052
 20
0.2583385481958791
 10
-2.981980806723497
 20
0.258357629675599
 10
-2.981878992014928
 20
0.2583820732244891
 10
-2.981778596116383
 20
0.2584118118444791
 10
-2.981679894206042
 20
0.2584467640240691
 10
-2.981583156818981
 20
0.2584868339617791
 10
-2.981488649105654
 20
0.2585319118286891
 10
-2.981396630105133
 20
0.2585818740694991
 10
-2.981307352035103
 20
0.258636583741179
 10
-2.981221059600548
 20
0.258695890888319
 10
-2.981137989323033
 20
0.2587596329541491
 10
-2.981058368892415
 20
0.2588276352261091
 10
-2.98098241654276
 20
0.2588997113146891
 10
-2.980910340454178
 20
0.258975663664349
 10
-2.98084233818222
 20
0.2590552840949691
 10
-2.980778596116383
 20
0.2591383543724791
 10
-2.980719288969242
 20
0.259224646807039
 10
-2.980664579297563
 20
0.2593139248770691
 10
-2.980614617056756
 20
0.259405943877589
 10
-2.980569539189848
 20
0.2595004515909191
 10
-2.980529469252138
 20
0.2595971889779791
 10
-2.980494517072542
 20
0.259695890888319
 10
-2.980464778452555
 20
0.259796286786859
 10
-2.980440334903666
 20
0.259898101495429
 10
-2.980421253423943
 20
0.260001055946989
 10
-2.980407586314396
 20
0.2601048679505291
 10
-2.980399371035623
 20
0.260209252964579
 10
-2.980396630105133
 20
0.2603139248770691
 10
-2.980396630105133
 20
0.2623139248770691
 10
-2.980399371035623
 20
0.262418596789549
 10
-2.980407586314396
 20
0.2625229818035991
 10
-2.980421253423943
 20
0.262626793807149
 10
-2.980440334903666
 20
0.262729748258699
 10
-2.980464778452555
 20
0.2628315629672691
 10
-2.980494517072542
 20
0.262931958865819
 10
-2.980529469252138
 20
0.2630306607761591
 10
-2.980569539189848
 20
0.263127398163219
 10
-2.980614617056756
 20
0.263221905876549
 10
-2.980664579297564
 20
0.2633139248770691
 10
-2.980719288969242
 20
0.263403202947099
 10
-2.980778596116383
 20
0.2634894953816491
 10
-2.98084233818222
 20
0.2635725656591691
 10
-2.980910340454178
 20
0.263652186089789
 10
-2.98098241654276
 20
0.2637281384394391
 10
-2.981058368892414
 20
0.2638002145280191
 10
-2.981137989323033
 20
0.2638682167999791
 10
-2.981221059600548
 20
0.263931958865819
 10
-2.981307352035103
 20
0.263991266012959
 10
-2.981396630105133
 20
0.2640459756846391
 10
-2.981488649105654
 20
0.2640959379254391
 10
-2.981583156818981
 20
0.2641410157923491
 10
-2.981679894206042
 20
0.2641810857300591
 10
-2.981778596116383
 20
0.2642160379096591
 10
-2.981878992014928
 20
0.264245776529649
 10
-2.981980806723497
 20
0.2642702200785391
 10
-2.982083761175052
 20
0.2642893015582591
 10
-2.982187573178598
 20
0.2643029686677991
 10
-2.982291958192647
 20
0.264311183946579
 10
-2.982396630105124
 20
0.264313924876909
 10
-3.023149654133185
 20
0.264313924877089
 10
-3.023250976429817
 20
0.2643113566762191
 10
-3.023352038510441
 20
0.2643036586692891
 10
-3.023452580827331
 20
0.2642908506263191
 10
-3.023552345167626
 20
0.264272965440929
 10
-3.023651075316458
 20
0.2642500490458791
 10
-3.023748517714973
 20
0.2642221602950591
 10
-3.023844422111523
 20
0.264189370812399
 10
-3.02393854220435
 20
0.2641517648078691
 10
-3.024030636274153
 20
0.2641094388612391
 10
-3.024120467804861
 20
0.264062501674049
 10
-3.02420780609106
 20
0.2640110737904291
 10
-3.024292426830489
 20
0.2639552872874991
 10
-3.02437411270009
 20
0.263895285436209
 10
-3.024452653914143
 20
0.2638312223333691
 10
-3.024527848763036
 20
0.2637632625058891
 10
-3.02459950413129
 20
0.263691580488259
 10
-3.024667435993529
 20
0.2636163603743091
 10
-3.024731469887084
 20
0.263537795344389
 10
-3.024791441360057
 20
0.263456087169269
 10
-3.024847196393656
 20
0.263371445691979
 10
-3.024898591797758
 20
0.2632840882888091
 10
-3.024945495578641
 20
0.2631942393111391
 10
-3.028298899158114
 20
0.256353296009039
 10
-3.028392706719881
 20
0.256173598053679
 10
-3.028495497528086
 20
0.255998883247349
 10
-3.028607007595286
 20
0.2558296002927591
 10
-3.028726950541229
 20
0.255666183942539
 10
-3.028855018328342
 20
0.2555090538826891
 10
-3.028990882052819
 20
0.2553586136547791
 10
-3.029134192789327
 20
0.2552152496195291
 10
-3.029284582487112
 20
0.2550793299645691
 10
-3.029441664915218
 20
0.2549512037588891
 10
-3.029605036654421
 20
0.254831200056309
 10
-3.029774278133277
 20
0.254719627050449
 10
-3.029948954705676
 20
0.254616771283199
 10
-3.030128617767093
 20
0.2545228969088191
 10
-3.030312805906699
 20
0.2544382450155691
 10
-3.030501046092354
 20
0.2543630330065091
 10
-3.030692854885452
 20
0.2542974540411791
 10
-3.030887739682484
 20
0.254241676539549
 10
-3.031085199980148
 20
0.2541958437494491
 10
-3.031284728660736
 20
0.2541600733786691
 10
-3.031485813294518
 20
0.2541344572927191
 10
-3.031687937455764
 20
0.2541190612788591
 10
-3.03189058204903
 20
0.2541139248771291
 97
        0
 92
       18
 72
     0
 73
     1
 93
      120
 10
-2.882814743958142
 20
0.250377116230969
 10
-2.883022367965234
 20
0.250404450450059
 10
-2.883228276868344
 20
0.2504426134095091
 10
-2.883431906285483
 20
0.2504915005072891
 10
-2.883632698082573
 20
0.250550977747259
 10
-2.883830101903254
 20
0.2506208821064491
 10
-2.884023576677376
 20
0.2507010219818691
 10
-2.88421259210403
 20
0.250791177715689
 10
-2.884396630105073
 20
0.250891102197299
 10
-2.884575186245133
 20
0.251000521540659
 10
-2.884747771114242
 20
0.2511191358349391
 10
-2.884913911669271
 20
0.2512466199666091
 10
-2.885073152530508
 20
0.2513826245105291
 10
-2.885225057229818
 20
0.2515267766876991
 10
-2.885369209406982
 20
0.2516786813870091
 10
-2.885505213950901
 20
0.2518379222482391
 10
-2.885632698082572
 20
0.252004062803269
 10
-2.885751312376855
 20
0.2521766476723791
 10
-2.88586073172021
 20
0.252355203812439
 10
-2.885960656201826
 20
0.2525392418134791
 10
-2.886050811935643
 20
0.252728257240139
 10
-2.886130951811061
 20
0.252921732014259
 10
-2.886200856170253
 20
0.2531191358349391
 10
-2.886260333410229
 20
0.253319927632029
 10
-2.886309220508009
 20
0.2535235570491691
 10
-2.886347383467453
 20
0.253729465952279
 10
-2.886374717686545
 20
0.253937089959369
 10
-2.886391148244091
 20
0.2541458599874691
 10
-2.886396630105073
 20
0.254355203812439
 10
-2.886391148244091
 20
0.254564547637409
 10
-2.886374717686545
 20
0.254773317665509
 10
-2.886347383467453
 20
0.254980941672599
 10
-2.886309220508009
 20
0.2551868505757091
 10
-2.886260333410229
 20
0.2553904799928491
 10
-2.886200856170253
 20
0.2555912717899391
 10
-2.886130951811061
 20
0.2557886756106191
 10
-2.886050811935643
 20
0.255982150384739
 10
-2.885960656201826
 20
0.2561711658113991
 10
-2.88586073172021
 20
0.2563552038124391
 10
-2.885751312376855
 20
0.2565337599524991
 10
-2.885632698082572
 20
0.256706344821609
 10
-2.885505213950901
 20
0.256872485376639
 10
-2.885369209406982
 20
0.2570317262378791
 10
-2.885225057229818
 20
0.257183630937189
 10
-2.885073152530508
 20
0.257327783114349
 10
-2.884913911669271
 20
0.257463787658269
 10
-2.884747771114242
 20
0.257591271789939
 10
-2.884575186245133
 20
0.2577098860842191
 10
-2.884396630105073
 20
0.257819305427579
 10
-2.88421259210403
 20
0.2579192299091991
 10
-2.884023576677376
 20
0.2580093856430091
 10
-2.883830101903254
 20
0.258089525518429
 10
-2.883632698082573
 20
0.2581594298776191
 10
-2.883431906285483
 20
0.2582189071175991
 10
-2.883228276868344
 20
0.258267794215379
 10
-2.883022367965234
 20
0.258305957174819
 10
-2.882814743958142
 20
0.2583332913939091
 10
-2.882605973930044
 20
0.2583497219514591
 10
-2.882396630105073
 20
0.2583552038124391
 10
-2.882187286280101
 20
0.2583497219514591
 10
-2.881978516252002
 20
0.2583332913939091
 10
-2.881770892244911
 20
0.258305957174819
 10
-2.881564983341801
 20
0.258267794215379
 10
-2.881361353924663
 20
0.2582189071175991
 10
-2.881160562127572
 20
0.2581594298776191
 10
-2.880963158306892
 20
0.258089525518429
 10
-2.88076968353277
 20
0.2580093856430091
 10
-2.880580668106115
 20
0.2579192299091991
 10
-2.880396630105073
 20
0.257819305427579
 10
-2.880218073965012
 20
0.2577098860842191
 10
-2.880045489095903
 20
0.257591271789939
 10
-2.879879348540873
 20
0.257463787658269
 10
-2.879720107679637
 20
0.257327783114349
 10
-2.879568202980327
 20
0.257183630937189
 10
-2.879424050803164
 20
0.2570317262378791
 10
-2.879288046259245
 20
0.256872485376639
 10
-2.879160562127572
 20
0.256706344821609
 10
-2.879041947833291
 20
0.2565337599524991
 10
-2.878932528489935
 20
0.2563552038124391
 10
-2.878832604008319
 20
0.2561711658113991
 10
-2.878742448274503
 20
0.255982150384739
 10
-2.878662308399083
 20
0.2557886756106191
 10
-2.878592404039892
 20
0.2555912717899391
 10
-2.878532926799917
 20
0.2553904799928491
 10
-2.878484039702137
 20
0.2551868505757091
 10
-2.878445876742691
 20
0.254980941672599
 10
-2.878418542523599
 20
0.254773317665509
 10
-2.878402111966054
 20
0.254564547637409
 10
-2.878396630105073
 20
0.254355203812439
 10
-2.878402111966054
 20
0.2541458599874691
 10
-2.878418542523599
 20
0.253937089959369
 10
-2.878445876742691
 20
0.253729465952279
 10
-2.878484039702137
 20
0.2535235570491691
 10
-2.878532926799917
 20
0.253319927632029
 10
-2.878592404039892
 20
0.2531191358349391
 10
-2.878662308399083
 20
0.252921732014259
 10
-2.878742448274503
 20
0.252728257240139
 10
-2.878832604008319
 20
0.2525392418134791
 10
-2.878932528489935
 20
0.252355203812439
 10
-2.879041947833291
 20
0.2521766476723791
 10
-2.879160562127572
 20
0.252004062803269
 10
-2.879288046259245
 20
0.2518379222482391
 10
-2.879424050803164
 20
0.2516786813870091
 10
-2.879568202980327
 20
0.2515267766876991
 10
-2.879720107679637
 20
0.2513826245105291
 10
-2.879879348540873
 20
0.2512466199666091
 10
-2.880045489095903
 20
0.2511191358349391
 10
-2.880218073965012
 20
0.251000521540659
 10
-2.880396630105073
 20
0.250891102197299
 10
-2.880580668106115
 20
0.250791177715689
 10
-2.88076968353277
 20
0.2507010219818691
 10
-2.880963158306892
 20
0.2506208821064491
 10
-2.881160562127572
 20
0.250550977747259
 10
-2.881361353924663
 20
0.2504915005072891
 10
-2.881564983341801
 20
0.2504426134095091
 10
-2.881770892244911
 20
0.250404450450059
 10
-2.881978516252002
 20
0.250377116230969
 10
-2.882187286280101
 20
0.2503606856734191
 10
-2.882396630105073
 20
0.250355203812439
 10
-2.882605973930044
 20
0.2503606856734191
 97
        0
 92
       18
 72
     0
 73
     1
 93
      120
 10
-2.933187286280101
 20
0.2503194067380691
 10
-2.933396630105073
 20
0.250313924877079
 10
-2.933605973930045
 20
0.2503194067380691
 10
-2.933814743958143
 20
0.250335837295609
 10
-2.934022367965234
 20
0.2503631715146991
 10
-2.934228276868344
 20
0.2504013344741491
 10
-2.934431906285483
 20
0.2504502215719291
 10
-2.934632698082572
 20
0.2505096988118991
 10
-2.934830101903253
 20
0.2505796031710891
 10
-2.935023576677376
 20
0.2506597430465091
 10
-2.935212592104032
 20
0.2507498987803291
 10
-2.935396630105073
 20
0.250849823261949
 10
-2.935575186245133
 20
0.2509592426052991
 10
-2.935747771114243
 20
0.2510778568995791
 10
-2.935913911669272
 20
0.2512053410312591
 10
-2.936073152530508
 20
0.2513413455751691
 10
-2.936225057229819
 20
0.2514854977523391
 10
-2.936369209406983
 20
0.2516374024516491
 10
-2.936505213950901
 20
0.251796643312879
 10
-2.936632698082573
 20
0.251962783867909
 10
-2.936751312376855
 20
0.2521353687370191
 10
-2.93686073172021
 20
0.252313924877079
 10
-2.936960656201826
 20
0.252497962878129
 10
-2.937050811935644
 20
0.252686978304779
 10
-2.937130951811061
 20
0.2528804530788991
 10
-2.937200856170253
 20
0.2530778568995791
 10
-2.93726033341023
 20
0.2532786486966691
 10
-2.937309220508008
 20
0.2534822781138091
 10
-2.937347383467453
 20
0.253688187016919
 10
-2.937374717686546
 20
0.253895811024009
 10
-2.937391148244091
 20
0.2541045810521091
 10
-2.937396630105073
 20
0.254313924877079
 10
-2.937391148244091
 20
0.254523268702059
 10
-2.937374717686546
 20
0.254732038730149
 10
-2.937347383467453
 20
0.2549396627372491
 10
-2.937309220508008
 20
0.2551455716403591
 10
-2.937260333410229
 20
0.2553492010574891
 10
-2.937200856170253
 20
0.2555499928545791
 10
-2.937130951811061
 20
0.255747396675269
 10
-2.937050811935644
 20
0.255940871449389
 10
-2.936960656201826
 20
0.256129886876039
 10
-2.93686073172021
 20
0.256313924877079
 10
-2.936751312376855
 20
0.2564924810171391
 10
-2.936632698082573
 20
0.2566650658862491
 10
-2.936505213950901
 20
0.256831206441279
 10
-2.936369209406983
 20
0.2569904473025191
 10
-2.936225057229819
 20
0.2571423520018291
 10
-2.936073152530508
 20
0.2572865041789891
 10
-2.935913911669272
 20
0.257422508722909
 10
-2.935747771114243
 20
0.257549992854579
 10
-2.935575186245133
 20
0.2576686071488691
 10
-2.935396630105073
 20
0.257778026492219
 10
-2.935212592104031
 20
0.2578779509738391
 10
-2.935023576677376
 20
0.257968106707649
 10
-2.934830101903253
 20
0.2580482465830691
 10
-2.934632698082572
 20
0.258118150942259
 10
-2.934431906285483
 20
0.258177628182239
 10
-2.934228276868343
 20
0.2582265152800191
 10
-2.934022367965234
 20
0.258264678239459
 10
-2.933814743958143
 20
0.258292012458559
 10
-2.933605973930045
 20
0.2583084430160991
 10
-2.933396630105073
 20
0.258313924877079
 10
-2.933187286280101
 20
0.2583084430160991
 10
-2.932978516252002
 20
0.258292012458559
 10
-2.932770892244912
 20
0.258264678239459
 10
-2.932564983341801
 20
0.2582265152800191
 10
-2.932361353924663
 20
0.258177628182239
 10
-2.932160562127573
 20
0.258118150942259
 10
-2.931963158306891
 20
0.2580482465830691
 10
-2.93176968353277
 20
0.257968106707649
 10
-2.931580668106115
 20
0.2578779509738391
 10
-2.931396630105073
 20
0.257778026492219
 10
-2.931218073965012
 20
0.2576686071488691
 10
-2.931045489095903
 20
0.257549992854579
 10
-2.930879348540874
 20
0.257422508722909
 10
-2.930720107679637
 20
0.2572865041789891
 10
-2.930568202980326
 20
0.2571423520018291
 10
-2.930424050803163
 20
0.2569904473025191
 10
-2.930288046259245
 20
0.256831206441279
 10
-2.930160562127573
 20
0.2566650658862491
 10
-2.930041947833292
 20
0.2564924810171391
 10
-2.929932528489935
 20
0.256313924877079
 10
-2.92983260400832
 20
0.256129886876039
 10
-2.929742448274503
 20
0.255940871449389
 10
-2.929662308399084
 20
0.255747396675269
 10
-2.929592404039892
 20
0.2555499928545791
 10
-2.929532926799917
 20
0.2553492010574891
 10
-2.929484039702138
 20
0.2551455716403591
 10
-2.929445876742692
 20
0.2549396627372491
 10
-2.929418542523599
 20
0.254732038730149
 10
-2.929402111966055
 20
0.254523268702059
 10
-2.929396630105073
 20
0.254313924877079
 10
-2.929402111966055
 20
0.2541045810521091
 10
-2.929418542523599
 20
0.253895811024009
 10
-2.929445876742692
 20
0.253688187016919
 10
-2.929484039702138
 20
0.2534822781138091
 10
-2.929532926799917
 20
0.2532786486966691
 10
-2.929592404039892
 20
0.2530778568995791
 10
-2.929662308399084
 20
0.2528804530788991
 10
-2.929742448274503
 20
0.252686978304779
 10
-2.92983260400832
 20
0.252497962878129
 10
-2.929932528489935
 20
0.252313924877079
 10
-2.930041947833292
 20
0.2521353687370191
 10
-2.930160562127573
 20
0.251962783867909
 10
-2.930288046259245
 20
0.251796643312879
 10
-2.930424050803163
 20
0.2516374024516491
 10
-2.930568202980326
 20
0.2514854977523391
 10
-2.930720107679637
 20
0.2513413455751691
 10
-2.930879348540874
 20
0.2512053410312591
 10
-2.931045489095903
 20
0.2510778568995791
 10
-2.931218073965012
 20
0.2509592426052991
 10
-2.931396630105073
 20
0.250849823261949
 10
-2.931580668106115
 20
0.2507498987803291
 10
-2.93176968353277
 20
0.2506597430465091
 10
-2.931963158306891
 20
0.2505796031710891
 10
-2.932160562127573
 20
0.2505096988118991
 10
-2.932361353924663
 20
0.2504502215719291
 10
-2.932564983341801
 20
0.2504013344741491
 10
-2.932770892244912
 20
0.2503631715146991
 10
-2.932978516252002
 20
0.250335837295609
 97
        0
 92
       18
 72
     0
 73
     1
 93
      120
 10
-2.950022367965234
 20
0.2503631715146991
 10
-2.950228276868343
 20
0.2504013344741491
 10
-2.950431906285483
 20
0.2504502215719291
 10
-2.950632698082572
 20
0.2505096988118991
 10
-2.950830101903254
 20
0.2505796031710891
 10
-2.951023576677376
 20
0.2506597430465091
 10
-2.951212592104032
 20
0.2507498987803291
 10
-2.951396630105073
 20
0.250849823261949
 10
-2.951575186245133
 20
0.2509592426052991
 10
-2.951747771114243
 20
0.2510778568995791
 10
-2.951913911669272
 20
0.2512053410312591
 10
-2.952073152530508
 20
0.2513413455751691
 10
-2.952225057229819
 20
0.2514854977523391
 10
-2.952369209406983
 20
0.2516374024516491
 10
-2.952505213950901
 20
0.251796643312879
 10
-2.952632698082573
 20
0.251962783867909
 10
-2.952751312376855
 20
0.2521353687370191
 10
-2.95286073172021
 20
0.252313924877079
 10
-2.952960656201826
 20
0.252497962878129
 10
-2.953050811935644
 20
0.252686978304779
 10
-2.953130951811062
 20
0.2528804530788991
 10
-2.953200856170253
 20
0.2530778568995791
 10
-2.953260333410229
 20
0.2532786486966691
 10
-2.953309220508008
 20
0.2534822781138091
 10
-2.953347383467453
 20
0.253688187016919
 10
-2.953374717686545
 20
0.253895811024009
 10
-2.953391148244092
 20
0.2541045810521091
 10
-2.953396630105073
 20
0.254313924877079
 10
-2.953391148244092
 20
0.254523268702059
 10
-2.953374717686545
 20
0.254732038730149
 10
-2.953347383467453
 20
0.2549396627372491
 10
-2.953309220508008
 20
0.2551455716403591
 10
-2.953260333410229
 20
0.2553492010574891
 10
-2.953200856170253
 20
0.2555499928545791
 10
-2.953130951811061
 20
0.255747396675269
 10
-2.953050811935644
 20
0.255940871449389
 10
-2.952960656201826
 20
0.256129886876039
 10
-2.95286073172021
 20
0.256313924877079
 10
-2.952751312376855
 20
0.2564924810171391
 10
-2.952632698082573
 20
0.2566650658862491
 10
-2.952505213950901
 20
0.256831206441279
 10
-2.952369209406983
 20
0.2569904473025191
 10
-2.952225057229819
 20
0.2571423520018291
 10
-2.952073152530508
 20
0.2572865041789891
 10
-2.951913911669272
 20
0.257422508722909
 10
-2.951747771114243
 20
0.257549992854579
 10
-2.951575186245133
 20
0.2576686071488691
 10
-2.951396630105073
 20
0.257778026492219
 10
-2.951212592104032
 20
0.2578779509738391
 10
-2.951023576677376
 20
0.257968106707649
 10
-2.950830101903254
 20
0.2580482465830691
 10
-2.950632698082572
 20
0.258118150942259
 10
-2.950431906285483
 20
0.258177628182239
 10
-2.950228276868343
 20
0.2582265152800191
 10
-2.950022367965234
 20
0.258264678239459
 10
-2.949814743958143
 20
0.258292012458559
 10
-2.949605973930045
 20
0.2583084430160991
 10
-2.949396630105073
 20
0.258313924877079
 10
-2.949187286280101
 20
0.2583084430160991
 10
-2.948978516252002
 20
0.258292012458559
 10
-2.948770892244912
 20
0.258264678239459
 10
-2.948564983341801
 20
0.2582265152800191
 10
-2.948361353924663
 20
0.258177628182239
 10
-2.948160562127573
 20
0.258118150942259
 10
-2.947963158306892
 20
0.2580482465830691
 10
-2.94776968353277
 20
0.257968106707649
 10
-2.947580668106115
 20
0.2578779509738391
 10
-2.947396630105073
 20
0.257778026492219
 10
-2.947218073965013
 20
0.2576686071488691
 10
-2.947045489095903
 20
0.257549992854579
 10
-2.946879348540874
 20
0.257422508722909
 10
-2.946720107679637
 20
0.2572865041789891
 10
-2.946568202980326
 20
0.2571423520018291
 10
-2.946424050803163
 20
0.2569904473025191
 10
-2.946288046259245
 20
0.256831206441279
 10
-2.946160562127573
 20
0.2566650658862491
 10
-2.946041947833292
 20
0.2564924810171391
 10
-2.945932528489935
 20
0.256313924877079
 10
-2.94583260400832
 20
0.256129886876039
 10
-2.945742448274503
 20
0.255940871449389
 10
-2.945662308399084
 20
0.255747396675269
 10
-2.945592404039892
 20
0.2555499928545791
 10
-2.945532926799917
 20
0.2553492010574891
 10
-2.945484039702138
 20
0.2551455716403591
 10
-2.945445876742692
 20
0.2549396627372491
 10
-2.945418542523599
 20
0.254732038730149
 10
-2.945402111966054
 20
0.254523268702059
 10
-2.945396630105073
 20
0.254313924877079
 10
-2.945402111966054
 20
0.2541045810521091
 10
-2.945418542523599
 20
0.253895811024009
 10
-2.945445876742692
 20
0.253688187016919
 10
-2.945484039702138
 20
0.2534822781138091
 10
-2.945532926799917
 20
0.2532786486966691
 10
-2.945592404039892
 20
0.2530778568995791
 10
-2.945662308399084
 20
0.2528804530788991
 10
-2.945742448274503
 20
0.252686978304779
 10
-2.94583260400832
 20
0.252497962878129
 10
-2.945932528489935
 20
0.252313924877079
 10
-2.946041947833292
 20
0.2521353687370191
 10
-2.946160562127573
 20
0.251962783867909
 10
-2.946288046259245
 20
0.251796643312879
 10
-2.946424050803163
 20
0.2516374024516491
 10
-2.946568202980326
 20
0.2514854977523391
 10
-2.946720107679637
 20
0.2513413455751691
 10
-2.946879348540874
 20
0.2512053410312591
 10
-2.947045489095903
 20
0.2510778568995791
 10
-2.947218073965013
 20
0.2509592426052991
 10
-2.947396630105073
 20
0.250849823261949
 10
-2.947580668106115
 20
0.2507498987803291
 10
-2.94776968353277
 20
0.2506597430465091
 10
-2.947963158306892
 20
0.2505796031710891
 10
-2.948160562127573
 20
0.2505096988118991
 10
-2.948361353924663
 20
0.2504502215719291
 10
-2.948564983341802
 20
0.2504013344741491
 10
-2.948770892244912
 20
0.2503631715146991
 10
-2.948978516252002
 20
0.250335837295609
 10
-2.949187286280101
 20
0.2503194067380691
 10
-2.949396630105073
 20
0.250313924877079
 10
-2.949605973930045
 20
0.2503194067380691
 10
-2.949814743958143
 20
0.250335837295609
 97
        0
 92
       18
 72
     0
 73
     1
 93
      120
 10
-2.999978516252002
 20
0.250335837295609
 10
-3.000187286280101
 20
0.2503194067380691
 10
-3.000396630105073
 20
0.250313924877079
 10
-3.000605973930044
 20
0.2503194067380691
 10
-3.000814743958144
 20
0.250335837295609
 10
-3.001022367965234
 20
0.2503631715146991
 10
-3.001228276868344
 20
0.2504013344741491
 10
-3.001431906285483
 20
0.2504502215719291
 10
-3.001632698082572
 20
0.2505096988118991
 10
-3.001830101903254
 20
0.2505796031710891
 10
-3.002023576677376
 20
0.2506597430465091
 10
-3.002212592104032
 20
0.2507498987803291
 10
-3.002396630105073
 20
0.250849823261949
 10
-3.002575186245133
 20
0.2509592426052991
 10
-3.002747771114243
 20
0.2510778568995791
 10
-3.002913911669272
 20
0.2512053410312591
 10
-3.003073152530508
 20
0.2513413455751691
 10
-3.003225057229819
 20
0.2514854977523391
 10
-3.003369209406983
 20
0.2516374024516491
 10
-3.003505213950901
 20
0.251796643312879
 10
-3.003632698082573
 20
0.251962783867909
 10
-3.003751312376855
 20
0.2521353687370191
 10
-3.003860731720211
 20
0.252313924877079
 10
-3.003960656201826
 20
0.252497962878129
 10
-3.004050811935643
 20
0.252686978304779
 10
-3.004130951811062
 20
0.2528804530788991
 10
-3.004200856170253
 20
0.2530778568995791
 10
-3.00426033341023
 20
0.2532786486966691
 10
-3.004309220508008
 20
0.2534822781138091
 10
-3.004347383467453
 20
0.253688187016919
 10
-3.004374717686546
 20
0.253895811024009
 10
-3.004391148244091
 20
0.2541045810521091
 10
-3.004396630105073
 20
0.254313924877079
 10
-3.004391148244091
 20
0.254523268702059
 10
-3.004374717686546
 20
0.254732038730149
 10
-3.004347383467453
 20
0.2549396627372491
 10
-3.004309220508008
 20
0.2551455716403591
 10
-3.00426033341023
 20
0.2553492010574891
 10
-3.004200856170253
 20
0.2555499928545791
 10
-3.004130951811061
 20
0.255747396675269
 10
-3.004050811935643
 20
0.255940871449389
 10
-3.003960656201826
 20
0.256129886876039
 10
-3.003860731720211
 20
0.256313924877079
 10
-3.003751312376855
 20
0.2564924810171391
 10
-3.003632698082573
 20
0.2566650658862491
 10
-3.003505213950901
 20
0.256831206441279
 10
-3.003369209406983
 20
0.2569904473025191
 10
-3.003225057229819
 20
0.2571423520018291
 10
-3.003073152530508
 20
0.2572865041789891
 10
-3.002913911669272
 20
0.257422508722909
 10
-3.002747771114243
 20
0.257549992854579
 10
-3.002575186245133
 20
0.2576686071488691
 10
-3.002396630105073
 20
0.257778026492219
 10
-3.002212592104032
 20
0.2578779509738391
 10
-3.002023576677376
 20
0.257968106707649
 10
-3.001830101903254
 20
0.2580482465830691
 10
-3.001632698082572
 20
0.258118150942259
 10
-3.001431906285483
 20
0.258177628182239
 10
-3.001228276868344
 20
0.2582265152800191
 10
-3.001022367965234
 20
0.258264678239459
 10
-3.000814743958144
 20
0.258292012458559
 10
-3.000605973930044
 20
0.2583084430160991
 10
-3.000396630105073
 20
0.258313924877079
 10
-3.000187286280101
 20
0.2583084430160991
 10
-2.999978516252002
 20
0.258292012458559
 10
-2.999770892244912
 20
0.258264678239459
 10
-2.999564983341801
 20
0.2582265152800191
 10
-2.999361353924663
 20
0.258177628182239
 10
-2.999160562127573
 20
0.258118150942259
 10
-2.998963158306892
 20
0.2580482465830691
 10
-2.99876968353277
 20
0.257968106707649
 10
-2.998580668106115
 20
0.2578779509738391
 10
-2.998396630105073
 20
0.257778026492219
 10
-2.998218073965012
 20
0.2576686071488691
 10
-2.998045489095903
 20
0.257549992854579
 10
-2.997879348540873
 20
0.257422508722909
 10
-2.997720107679637
 20
0.2572865041789891
 10
-2.997568202980327
 20
0.2571423520018291
 10
-2.997424050803164
 20
0.2569904473025191
 10
-2.997288046259245
 20
0.256831206441279
 10
-2.997160562127573
 20
0.2566650658862491
 10
-2.997041947833292
 20
0.2564924810171391
 10
-2.996932528489935
 20
0.256313924877079
 10
-2.996832604008319
 20
0.256129886876039
 10
-2.996742448274503
 20
0.255940871449389
 10
-2.996662308399085
 20
0.255747396675269
 10
-2.996592404039892
 20
0.2555499928545791
 10
-2.996532926799917
 20
0.2553492010574891
 10
-2.996484039702138
 20
0.2551455716403591
 10
-2.996445876742692
 20
0.2549396627372491
 10
-2.996418542523599
 20
0.254732038730149
 10
-2.996402111966054
 20
0.254523268702059
 10
-2.996396630105073
 20
0.254313924877079
 10
-2.996402111966054
 20
0.2541045810521091
 10
-2.996418542523599
 20
0.253895811024009
 10
-2.996445876742692
 20
0.253688187016919
 10
-2.996484039702138
 20
0.2534822781138091
 10
-2.996532926799917
 20
0.2532786486966691
 10
-2.996592404039892
 20
0.2530778568995791
 10
-2.996662308399085
 20
0.2528804530788991
 10
-2.996742448274503
 20
0.252686978304779
 10
-2.996832604008319
 20
0.252497962878129
 10
-2.996932528489935
 20
0.252313924877079
 10
-2.997041947833292
 20
0.2521353687370191
 10
-2.997160562127573
 20
0.251962783867909
 10
-2.997288046259245
 20
0.251796643312879
 10
-2.997424050803164
 20
0.2516374024516491
 10
-2.997568202980327
 20
0.2514854977523391
 10
-2.997720107679637
 20
0.2513413455751691
 10
-2.997879348540873
 20
0.2512053410312591
 10
-2.998045489095903
 20
0.2510778568995791
 10
-2.998218073965012
 20
0.2509592426052991
 10
-2.998396630105073
 20
0.250849823261949
 10
-2.998580668106115
 20
0.2507498987803291
 10
-2.99876968353277
 20
0.2506597430465091
 10
-2.998963158306892
 20
0.2505796031710891
 10
-2.999160562127573
 20
0.2505096988118991
 10
-2.999361353924663
 20
0.2504502215719291
 10
-2.999564983341801
 20
0.2504013344741491
 10
-2.999770892244912
 20
0.2503631715146991
 97
        0
 92
       18
 72
     0
 73
     1
 93
      120
 10
-3.017228276868344
 20
0.2504013344741491
 10
-3.017431906285483
 20
0.2504502215719291
 10
-3.017632698082573
 20
0.2505096988118991
 10
-3.017830101903254
 20
0.2505796031710891
 10
-3.018023576677376
 20
0.2506597430465091
 10
-3.018212592104031
 20
0.2507498987803291
 10
-3.018396630105072
 20
0.250849823261949
 10
-3.018575186245133
 20
0.2509592426052991
 10
-3.018747771114243
 20
0.2510778568995791
 10
-3.018913911669272
 20
0.2512053410312591
 10
-3.019073152530508
 20
0.2513413455751691
 10
-3.019225057229819
 20
0.2514854977523391
 10
-3.019369209406982
 20
0.2516374024516491
 10
-3.019505213950901
 20
0.251796643312879
 10
-3.019632698082573
 20
0.251962783867909
 10
-3.019751312376854
 20
0.2521353687370191
 10
-3.019860731720211
 20
0.252313924877079
 10
-3.019960656201826
 20
0.252497962878129
 10
-3.020050811935643
 20
0.252686978304779
 10
-3.020130951811062
 20
0.2528804530788991
 10
-3.020200856170253
 20
0.2530778568995791
 10
-3.020260333410229
 20
0.2532786486966691
 10
-3.020309220508008
 20
0.2534822781138091
 10
-3.020347383467453
 20
0.253688187016919
 10
-3.020374717686547
 20
0.253895811024009
 10
-3.020391148244092
 20
0.2541045810521091
 10
-3.020396630105072
 20
0.254313924877079
 10
-3.020391148244092
 20
0.254523268702059
 10
-3.020374717686547
 20
0.254732038730149
 10
-3.020347383467453
 20
0.2549396627372491
 10
-3.020309220508008
 20
0.2551455716403591
 10
-3.020260333410229
 20
0.2553492010574891
 10
-3.020200856170253
 20
0.2555499928545791
 10
-3.020130951811062
 20
0.255747396675269
 10
-3.020050811935643
 20
0.255940871449389
 10
-3.019960656201826
 20
0.256129886876039
 10
-3.019860731720211
 20
0.256313924877079
 10
-3.019751312376854
 20
0.2564924810171391
 10
-3.019632698082573
 20
0.2566650658862491
 10
-3.019505213950901
 20
0.256831206441279
 10
-3.019369209406982
 20
0.2569904473025191
 10
-3.019225057229819
 20
0.2571423520018291
 10
-3.019073152530508
 20
0.2572865041789891
 10
-3.018913911669272
 20
0.257422508722909
 10
-3.018747771114243
 20
0.257549992854579
 10
-3.018575186245133
 20
0.2576686071488691
 10
-3.018396630105072
 20
0.257778026492219
 10
-3.018212592104031
 20
0.2578779509738391
 10
-3.018023576677376
 20
0.257968106707649
 10
-3.017830101903254
 20
0.2580482465830691
 10
-3.017632698082573
 20
0.258118150942259
 10
-3.017431906285483
 20
0.258177628182239
 10
-3.017228276868344
 20
0.2582265152800191
 10
-3.017022367965234
 20
0.258264678239459
 10
-3.016814743958144
 20
0.258292012458559
 10
-3.016605973930044
 20
0.2583084430160991
 10
-3.016396630105072
 20
0.258313924877079
 10
-3.016187286280101
 20
0.2583084430160991
 10
-3.015978516252002
 20
0.258292012458559
 10
-3.015770892244912
 20
0.258264678239459
 10
-3.015564983341802
 20
0.2582265152800191
 10
-3.015361353924662
 20
0.258177628182239
 10
-3.015160562127573
 20
0.258118150942259
 10
-3.014963158306892
 20
0.2580482465830691
 10
-3.01476968353277
 20
0.257968106707649
 10
-3.014580668106114
 20
0.2578779509738391
 10
-3.014396630105072
 20
0.257778026492219
 10
-3.014218073965013
 20
0.2576686071488691
 10
-3.014045489095903
 20
0.257549992854579
 10
-3.013879348540873
 20
0.257422508722909
 10
-3.013720107679637
 20
0.2572865041789891
 10
-3.013568202980327
 20
0.2571423520018291
 10
-3.013424050803163
 20
0.2569904473025191
 10
-3.013288046259245
 20
0.256831206441279
 10
-3.013160562127573
 20
0.2566650658862491
 10
-3.013041947833291
 20
0.2564924810171391
 10
-3.012932528489935
 20
0.256313924877079
 10
-3.012832604008319
 20
0.256129886876039
 10
-3.012742448274502
 20
0.255940871449389
 10
-3.012662308399085
 20
0.255747396675269
 10
-3.012592404039892
 20
0.2555499928545791
 10
-3.012532926799916
 20
0.2553492010574891
 10
-3.012484039702137
 20
0.2551455716403591
 10
-3.012445876742692
 20
0.2549396627372491
 10
-3.0124185425236
 20
0.254732038730149
 10
-3.012402111966055
 20
0.254523268702059
 10
-3.012396630105072
 20
0.254313924877079
 10
-3.012402111966055
 20
0.2541045810521091
 10
-3.0124185425236
 20
0.253895811024009
 10
-3.012445876742692
 20
0.253688187016919
 10
-3.012484039702137
 20
0.2534822781138091
 10
-3.012532926799916
 20
0.2532786486966691
 10
-3.012592404039892
 20
0.2530778568995791
 10
-3.012662308399085
 20
0.2528804530788991
 10
-3.012742448274502
 20
0.252686978304779
 10
-3.012832604008319
 20
0.252497962878129
 10
-3.012932528489935
 20
0.252313924877079
 10
-3.013041947833291
 20
0.2521353687370191
 10
-3.013160562127573
 20
0.251962783867909
 10
-3.013288046259245
 20
0.251796643312879
 10
-3.013424050803163
 20
0.2516374024516491
 10
-3.013568202980327
 20
0.2514854977523391
 10
-3.013720107679637
 20
0.2513413455751691
 10
-3.013879348540873
 20
0.2512053410312591
 10
-3.014045489095903
 20
0.2510778568995791
 10
-3.014218073965013
 20
0.2509592426052991
 10
-3.014396630105072
 20
0.250849823261949
 10
-3.014580668106114
 20
0.2507498987803291
 10
-3.01476968353277
 20
0.2506597430465091
 10
-3.014963158306892
 20
0.2505796031710891
 10
-3.015160562127573
 20
0.2505096988118991
 10
-3.015361353924662
 20
0.2504502215719291
 10
-3.015564983341802
 20
0.2504013344741491
 10
-3.015770892244912
 20
0.2503631715146991
 10
-3.015978516252002
 20
0.250335837295609
 10
-3.016187286280101
 20
0.2503194067380691
 10
-3.016396630105072
 20
0.250313924877079
 10
-3.016605973930044
 20
0.2503194067380691
 10
-3.016814743958144
 20
0.250335837295609
 10
-3.017022367965234
 20
0.2503631715146991
 97
        0
 92
       18
 72
     0
 73
     1
 93
      120
 10
-3.066770892244912
 20
0.2503631715146991
 10
-3.066978516252002
 20
0.250335837295609
 10
-3.067187286280101
 20
0.2503194067380691
 10
-3.067396630105073
 20
0.250313924877079
 10
-3.067605973930045
 20
0.2503194067380691
 10
-3.067814743958143
 20
0.250335837295609
 10
-3.068022367965233
 20
0.2503631715146991
 10
-3.068228276868345
 20
0.2504013344741491
 10
-3.068431906285483
 20
0.2504502215719291
 10
-3.068632698082573
 20
0.2505096988118991
 10
-3.068830101903254
 20
0.2505796031710891
 10
-3.069023576677376
 20
0.2506597430465091
 10
-3.069212592104031
 20
0.2507498987803291
 10
-3.069396630105072
 20
0.250849823261949
 10
-3.069575186245133
 20
0.2509592426052991
 10
-3.069747771114243
 20
0.2510778568995791
 10
-3.069913911669272
 20
0.2512053410312591
 10
-3.070073152530508
 20
0.2513413455751691
 10
-3.070225057229819
 20
0.2514854977523391
 10
-3.070369209406982
 20
0.2516374024516491
 10
-3.070505213950901
 20
0.251796643312879
 10
-3.070632698082572
 20
0.251962783867909
 10
-3.070751312376854
 20
0.2521353687370191
 10
-3.07086073172021
 20
0.252313924877079
 10
-3.070960656201826
 20
0.252497962878129
 10
-3.071050811935643
 20
0.252686978304779
 10
-3.071130951811062
 20
0.2528804530788991
 10
-3.071200856170254
 20
0.2530778568995791
 10
-3.071260333410229
 20
0.2532786486966691
 10
-3.071309220508008
 20
0.2534822781138091
 10
-3.071347383467453
 20
0.253688187016919
 10
-3.071374717686546
 20
0.253895811024009
 10
-3.071391148244092
 20
0.2541045810521091
 10
-3.071396630105072
 20
0.254313924877079
 10
-3.071391148244092
 20
0.254523268702059
 10
-3.071374717686546
 20
0.254732038730149
 10
-3.071347383467453
 20
0.2549396627372491
 10
-3.071309220508008
 20
0.2551455716403591
 10
-3.071260333410229
 20
0.2553492010574891
 10
-3.071200856170254
 20
0.2555499928545791
 10
-3.071130951811062
 20
0.255747396675269
 10
-3.071050811935643
 20
0.255940871449389
 10
-3.070960656201826
 20
0.256129886876039
 10
-3.07086073172021
 20
0.256313924877079
 10
-3.070751312376854
 20
0.2564924810171391
 10
-3.070632698082572
 20
0.2566650658862491
 10
-3.070505213950901
 20
0.256831206441279
 10
-3.070369209406982
 20
0.2569904473025191
 10
-3.070225057229819
 20
0.2571423520018291
 10
-3.070073152530508
 20
0.2572865041789891
 10
-3.069913911669272
 20
0.257422508722909
 10
-3.069747771114243
 20
0.257549992854579
 10
-3.069575186245133
 20
0.2576686071488691
 10
-3.069396630105072
 20
0.257778026492219
 10
-3.069212592104031
 20
0.2578779509738391
 10
-3.069023576677376
 20
0.257968106707649
 10
-3.068830101903254
 20
0.2580482465830691
 10
-3.068632698082573
 20
0.258118150942259
 10
-3.068431906285483
 20
0.258177628182239
 10
-3.068228276868345
 20
0.2582265152800191
 10
-3.068022367965233
 20
0.258264678239459
 10
-3.067814743958143
 20
0.258292012458559
 10
-3.067605973930045
 20
0.2583084430160991
 10
-3.067396630105073
 20
0.258313924877079
 10
-3.067187286280101
 20
0.2583084430160991
 10
-3.066978516252002
 20
0.258292012458559
 10
-3.066770892244912
 20
0.258264678239459
 10
-3.066564983341802
 20
0.2582265152800191
 10
-3.066361353924663
 20
0.258177628182239
 10
-3.066160562127573
 20
0.258118150942259
 10
-3.065963158306892
 20
0.2580482465830691
 10
-3.06576968353277
 20
0.257968106707649
 10
-3.065580668106114
 20
0.2578779509738391
 10
-3.065396630105072
 20
0.257778026492219
 10
-3.065218073965013
 20
0.2576686071488691
 10
-3.065045489095904
 20
0.257549992854579
 10
-3.064879348540873
 20
0.257422508722909
 10
-3.064720107679638
 20
0.2572865041789891
 10
-3.064568202980327
 20
0.2571423520018291
 10
-3.064424050803163
 20
0.2569904473025191
 10
-3.064288046259245
 20
0.256831206441279
 10
-3.064160562127573
 20
0.2566650658862491
 10
-3.064041947833291
 20
0.2564924810171391
 10
-3.063932528489935
 20
0.256313924877079
 10
-3.063832604008319
 20
0.256129886876039
 10
-3.063742448274502
 20
0.255940871449389
 10
-3.063662308399084
 20
0.255747396675269
 10
-3.063592404039893
 20
0.2555499928545791
 10
-3.063532926799916
 20
0.2553492010574891
 10
-3.063484039702137
 20
0.2551455716403591
 10
-3.063445876742692
 20
0.2549396627372491
 10
-3.0634185425236
 20
0.254732038730149
 10
-3.063402111966055
 20
0.254523268702059
 10
-3.063396630105073
 20
0.254313924877079
 10
-3.063402111966055
 20
0.2541045810521091
 10
-3.0634185425236
 20
0.253895811024009
 10
-3.063445876742692
 20
0.253688187016919
 10
-3.063484039702137
 20
0.2534822781138091
 10
-3.063532926799916
 20
0.2532786486966691
 10
-3.063592404039893
 20
0.2530778568995791
 10
-3.063662308399084
 20
0.2528804530788991
 10
-3.063742448274502
 20
0.252686978304779
 10
-3.063832604008319
 20
0.252497962878129
 10
-3.063932528489935
 20
0.252313924877079
 10
-3.064041947833291
 20
0.2521353687370191
 10
-3.064160562127573
 20
0.251962783867909
 10
-3.064288046259245
 20
0.251796643312879
 10
-3.064424050803163
 20
0.2516374024516491
 10
-3.064568202980327
 20
0.2514854977523391
 10
-3.064720107679638
 20
0.2513413455751691
 10
-3.064879348540873
 20
0.2512053410312591
 10
-3.065045489095904
 20
0.2510778568995791
 10
-3.065218073965013
 20
0.2509592426052991
 10
-3.065396630105072
 20
0.250849823261949
 10
-3.065580668106114
 20
0.2507498987803291
 10
-3.06576968353277
 20
0.2506597430465091
 10
-3.065963158306892
 20
0.2505796031710891
 10
-3.066160562127573
 20
0.2505096988118991
 10
-3.066361353924663
 20
0.2504502215719291
 10
-3.066564983341802
 20
0.2504013344741491
 97
        0
 92
       18
 72
     0
 73
     1
 93
      120
 10
-3.084431906285483
 20
0.2504502215719291
 10
-3.084632698082573
 20
0.2505096988118991
 10
-3.084830101903254
 20
0.2505796031710891
 10
-3.085023576677376
 20
0.2506597430465091
 10
-3.085212592104031
 20
0.2507498987803291
 10
-3.085396630105072
 20
0.250849823261949
 10
-3.085575186245133
 20
0.2509592426052991
 10
-3.085747771114243
 20
0.2510778568995791
 10
-3.085913911669272
 20
0.2512053410312591
 10
-3.086073152530508
 20
0.2513413455751691
 10
-3.086225057229819
 20
0.2514854977523391
 10
-3.086369209406982
 20
0.2516374024516491
 10
-3.086505213950901
 20
0.251796643312879
 10
-3.086632698082572
 20
0.251962783867909
 10
-3.086751312376854
 20
0.2521353687370191
 10
-3.08686073172021
 20
0.252313924877079
 10
-3.086960656201826
 20
0.252497962878129
 10
-3.087050811935643
 20
0.252686978304779
 10
-3.087130951811062
 20
0.2528804530788991
 10
-3.087200856170254
 20
0.2530778568995791
 10
-3.087260333410229
 20
0.2532786486966691
 10
-3.087309220508008
 20
0.2534822781138091
 10
-3.087347383467453
 20
0.253688187016919
 10
-3.087374717686546
 20
0.253895811024009
 10
-3.087391148244092
 20
0.2541045810521091
 10
-3.087396630105072
 20
0.254313924877079
 10
-3.087391148244092
 20
0.254523268702059
 10
-3.087374717686546
 20
0.254732038730149
 10
-3.087347383467453
 20
0.2549396627372491
 10
-3.087309220508008
 20
0.2551455716403591
 10
-3.087260333410229
 20
0.2553492010574891
 10
-3.087200856170254
 20
0.2555499928545791
 10
-3.087130951811062
 20
0.255747396675269
 10
-3.087050811935643
 20
0.255940871449389
 10
-3.086960656201826
 20
0.256129886876039
 10
-3.08686073172021
 20
0.256313924877079
 10
-3.086751312376854
 20
0.2564924810171391
 10
-3.086632698082572
 20
0.2566650658862491
 10
-3.086505213950901
 20
0.256831206441279
 10
-3.086369209406982
 20
0.2569904473025191
 10
-3.086225057229819
 20
0.2571423520018291
 10
-3.086073152530508
 20
0.2572865041789891
 10
-3.085913911669272
 20
0.257422508722909
 10
-3.085747771114243
 20
0.257549992854579
 10
-3.085575186245133
 20
0.2576686071488691
 10
-3.085396630105072
 20
0.257778026492219
 10
-3.085212592104031
 20
0.2578779509738391
 10
-3.085023576677376
 20
0.257968106707649
 10
-3.084830101903254
 20
0.2580482465830691
 10
-3.084632698082573
 20
0.258118150942259
 10
-3.084431906285483
 20
0.258177628182239
 10
-3.084228276868345
 20
0.2582265152800191
 10
-3.084022367965233
 20
0.258264678239459
 10
-3.083814743958143
 20
0.258292012458559
 10
-3.083605973930045
 20
0.2583084430160991
 10
-3.083396630105072
 20
0.258313924877079
 10
-3.083187286280101
 20
0.2583084430160991
 10
-3.082978516252002
 20
0.258292012458559
 10
-3.082770892244912
 20
0.258264678239459
 10
-3.082564983341802
 20
0.2582265152800191
 10
-3.082361353924663
 20
0.258177628182239
 10
-3.082160562127573
 20
0.258118150942259
 10
-3.081963158306892
 20
0.2580482465830691
 10
-3.08176968353277
 20
0.257968106707649
 10
-3.081580668106114
 20
0.2578779509738391
 10
-3.081396630105072
 20
0.257778026492219
 10
-3.081218073965013
 20
0.2576686071488691
 10
-3.081045489095904
 20
0.257549992854579
 10
-3.080879348540873
 20
0.257422508722909
 10
-3.080720107679638
 20
0.2572865041789891
 10
-3.080568202980327
 20
0.2571423520018291
 10
-3.080424050803163
 20
0.2569904473025191
 10
-3.080288046259245
 20
0.256831206441279
 10
-3.080160562127573
 20
0.2566650658862491
 10
-3.080041947833291
 20
0.2564924810171391
 10
-3.079932528489935
 20
0.256313924877079
 10
-3.079832604008319
 20
0.256129886876039
 10
-3.079742448274502
 20
0.255940871449389
 10
-3.079662308399084
 20
0.255747396675269
 10
-3.079592404039892
 20
0.2555499928545791
 10
-3.079532926799916
 20
0.2553492010574891
 10
-3.079484039702137
 20
0.2551455716403591
 10
-3.079445876742692
 20
0.2549396627372491
 10
-3.0794185425236
 20
0.254732038730149
 10
-3.079402111966055
 20
0.254523268702059
 10
-3.079396630105072
 20
0.254313924877079
 10
-3.079402111966055
 20
0.2541045810521091
 10
-3.0794185425236
 20
0.253895811024009
 10
-3.079445876742692
 20
0.253688187016919
 10
-3.079484039702137
 20
0.2534822781138091
 10
-3.079532926799916
 20
0.2532786486966691
 10
-3.079592404039892
 20
0.2530778568995791
 10
-3.079662308399084
 20
0.2528804530788991
 10
-3.079742448274502
 20
0.252686978304779
 10
-3.079832604008319
 20
0.252497962878129
 10
-3.079932528489935
 20
0.252313924877079
 10
-3.080041947833291
 20
0.2521353687370191
 10
-3.080160562127573
 20
0.251962783867909
 10
-3.080288046259245
 20
0.251796643312879
 10
-3.080424050803163
 20
0.2516374024516491
 10
-3.080568202980327
 20
0.2514854977523391
 10
-3.080720107679638
 20
0.2513413455751691
 10
-3.080879348540873
 20
0.2512053410312591
 10
-3.081045489095904
 20
0.2510778568995791
 10
-3.081218073965013
 20
0.2509592426052991
 10
-3.081396630105072
 20
0.250849823261949
 10
-3.081580668106114
 20
0.2507498987803291
 10
-3.08176968353277
 20
0.2506597430465091
 10
-3.081963158306892
 20
0.2505796031710891
 10
-3.082160562127573
 20
0.2505096988118991
 10
-3.082361353924663
 20
0.2504502215719291
 10
-3.082564983341802
 20
0.2504013344741491
 10
-3.082770892244912
 20
0.2503631715146991
 10
-3.082978516252002
 20
0.250335837295609
 10
-3.083187286280101
 20
0.2503194067380691
 10
-3.083396630105072
 20
0.250313924877079
 10
-3.083605973930045
 20
0.2503194067380691
 10
-3.083814743958143
 20
0.250335837295609
 10
-3.084022367965233
 20
0.2503631715146991
 10
-3.084228276868345
 20
0.2504013344741491
 97
        0
 75
     0
 76
     1
 98
        0
  0
LINE
  5
F4
330
1F
100
AcDbEntity
  8
_65281
  6
AUSGEZOGEN
 62
     4
370
    25
100
AcDbLine
 10
-3.124804526775078
 20
0.2443139248772491
 30
0.0
 11
-2.860396630105133
 21
0.2443139248770591
 31
0.0
  0
LINE
  5
F5
330
1F
100
AcDbEntity
  8
_65281
  6
AUSGEZOGEN
 62
     4
370
    25
100
AcDbLine
 10
-3.116396630105132
 20
0.2643139248770691
 30
0.0
 11
-3.124804526775078
 21
0.2643139248770691
 31
0.0
  0
CIRCLE
  5
F6
330
1F
100
AcDbEntity
  8
_65281
  6
AUSGEZOGEN
 62
     4
370
    13
100
AcDbCircle
 10
-2.700396630105073
 20
0.254313924877079
 30
0.0
 40
0.004
  0
CIRCLE
  5
F7
330
1F
100
AcDbEntity
  8
_65281
  6
AUSGEZOGEN
 62
     4
370
    13
100
AcDbCircle
 10
-2.716396630105073
 20
0.254313924877079
 30
0.0
 40
0.004
  0
CIRCLE
  5
F8
330
1F
100
AcDbEntity
  8
_65281
  6
AUSGEZOGEN
 62
     4
370
    13
100
AcDbCircle
 10
-2.633396630105073
 20
0.254313924877079
 30
0.0
 40
0.004
  0
CIRCLE
  5
F9
330
1F
100
AcDbEntity
  8
_65281
  6
AUSGEZOGEN
 62
     4
370
    13
100
AcDbCircle
 10
-2.649396630105073
 20
0.254313924877079
 30
0.0
 40
0.004
  0
CIRCLE
  5
FA
330
1F
100
AcDbEntity
  8
_65281
  6
AUSGEZOGEN
 62
     4
370
    13
100
AcDbCircle
 10
-2.767396630105073
 20
0.254313924877079
 30
0.0
 40
0.004
  0
CIRCLE
  5
FB
330
1F
100
AcDbEntity
  8
_65281
  6
AUSGEZOGEN
 62
     4
370
    13
100
AcDbCircle
 10
-2.783396630105073
 20
0.254313924877079
 30
0.0
 40
0.004
  0
LINE
  5
FC
330
1F
100
AcDbEntity
  8
_65281
  6
AUSGEZOGEN
 62
     4
370
    13
100
AcDbLine
 10
-2.843646630105103
 20
0.254832765961399
 30
0.0
 11
-2.843646630105103
 21
0.2568139248770691
 31
0.0
  0
ARC
  5
FD
330
1F
100
AcDbEntity
  8
_65281
  6
AUSGEZOGEN
 62
     4
370
    13
100
AcDbCircle
 10
-2.842146630105103
 20
0.2568139248770691
 30
0.0
 40
0.0015
100
AcDbArc
 50
90.0
 51
180.0
  0
LINE
  5
FE
330
1F
100
AcDbEntity
  8
_65281
  6
AUSGEZOGEN
 62
     4
370
    13
100
AcDbLine
 10
-2.830646630105103
 20
0.2583139248770691
 30
0.0
 11
-2.842146630105103
 21
0.2583139248770691
 31
0.0
  0
ARC
  5
FF
330
1F
100
AcDbEntity
  8
_65281
  6
AUSGEZOGEN
 62
     4
370
    13
100
AcDbCircle
 10
-2.839684400252977
 20
0.2518139248770691
 30
0.0
 40
0.0015
100
AcDbArc
 50
219.201403531428
 51
270.0
  0
LINE
  5
100
330
1F
100
AcDbEntity
  8
_65281
  6
AUSGEZOGEN
 62
     4
370
    13
100
AcDbLine
 10
-2.840846793762168
 20
0.2508658524485091
 30
0.0
 11
-2.843309023614295
 21
0.253884693532839
 31
0.0
  0
ARC
  5
101
330
1F
100
AcDbEntity
  8
_65281
  6
AUSGEZOGEN
 62
     4
370
    13
100
AcDbCircle
 10
-2.833110585867113
 20
0.2518139248770691
 30
0.0
 40
0.0015
100
AcDbArc
 50
270.0
 51
320.9061411137779
  0
LINE
  5
102
330
1F
100
AcDbEntity
  8
_65281
  6
AUSGEZOGEN
 62
     4
370
    13
100
AcDbLine
 10
-2.831946414866938
 20
0.2508680359394291
 30
0.0
 11
-2.829482459104929
 21
0.2539005968772791
 31
0.0
  0
LINE
  5
103
330
1F
100
AcDbEntity
  8
_65281
  6
AUSGEZOGEN
 62
     4
370
    13
100
AcDbLine
 10
-2.839590770093161
 20
0.250313924877069
 30
0.0
 11
-2.833202490117046
 21
0.250313924877069
 31
0.0
  0
LINE
  5
104
330
1F
100
AcDbEntity
  8
_65281
  6
AUSGEZOGEN
 62
     4
370
    13
100
AcDbLine
 10
-2.833110585867113
 20
0.250313924877069
 30
0.0
 11
-2.839684400252977
 21
0.250313924877069
 31
0.0
  0
ARC
  5
105
330
1F
100
AcDbEntity
  8
_65281
  6
AUSGEZOGEN
 62
     4
370
    13
100
AcDbCircle
 10
-2.830646630105103
 20
0.2568139248770691
 30
0.0
 40
0.0015
100
AcDbArc
 50
0.0
 51
90.0
  0
ARC
  5
106
330
1F
100
AcDbEntity
  8
_65281
  6
AUSGEZOGEN
 62
     4
370
    13
100
AcDbCircle
 10
-2.830646630105103
 20
0.254846485814919
 30
0.0
 40
0.0015
100
AcDbArc
 50
320.9061411137779
 51
0.0
  0
LINE
  5
107
330
1F
100
AcDbEntity
  8
_65281
  6
AUSGEZOGEN
 62
     4
370
    13
100
AcDbLine
 10
-2.829146630105103
 20
0.2568139248770691
 30
0.0
 11
-2.829146630105103
 21
0.254846485814919
 31
0.0
  0
CIRCLE
  5
108
330
1F
100
AcDbEntity
  8
_65275
  6
AUSGEZOGEN
 62
   240
370
    13
100
AcDbCircle
 10
-2.582396630105073
 20
0.254355203812439
 30
0.0
 40
0.004
  0
LINE
  5
109
330
1F
100
AcDbEntity
  8
_65281
  6
AUSGEZOGEN
 62
     4
370
    25
100
AcDbLine
 10
-2.747396630105133
 20
0.2623139248770691
 30
0.0
 11
-2.747396630105133
 21
0.2603139248770691
 31
0.0
  0
ARC
  5
10A
330
1F
100
AcDbEntity
  8
_65281
  6
AUSGEZOGEN
 62
     4
370
    25
100
AcDbCircle
 10
-2.861896630105133
 20
0.2616139248770791
 30
0.0
 40
0.0015
100
AcDbArc
 50
90.0
 51
180.0
  0
ARC
  5
10B
330
1F
100
AcDbEntity
  8
_65281
  6
AUSGEZOGEN
 62
     4
370
    25
100
AcDbCircle
 10
-2.860596630105133
 20
0.2638139248770791
 30
0.0
 40
0.0005
100
AcDbArc
 50
90.0
 51
180.0
  0
ARC
  5
10C
330
1F
100
AcDbEntity
  8
_65281
  6
AUSGEZOGEN
 62
     4
370
    25
100
AcDbCircle
 10
-2.861596630105133
 20
0.2636139248770791
 30
0.0
 40
0.0005
100
AcDbArc
 50
270.0
 51
0.0
  0
ARC
  5
10D
330
1F
100
AcDbEntity
  8
_65281
  6
AUSGEZOGEN
 62
     4
370
    25
100
AcDbCircle
 10
-2.861396630105134
 20
0.2585297627906291
 30
0.0
 40
0.002
100
AcDbArc
 50
180.0
 51
261.2538377382565
  0
LINE
  5
10E
330
1F
100
AcDbEntity
  8
_65281
  6
AUSGEZOGEN
 62
     4
370
    25
100
AcDbLine
 10
-2.861896630105133
 20
0.2631139248770791
 30
0.0
 11
-2.861596630105133
 21
0.2631139248770791
 31
0.0
  0
LINE
  5
10F
330
1F
100
AcDbEntity
  8
_65281
  6
AUSGEZOGEN
 62
     4
370
    25
100
AcDbLine
 10
-2.861096630105133
 20
0.2636139248770791
 30
0.0
 11
-2.861096630105133
 21
0.2638139248770791
 31
0.0
  0
LINE
  5
110
330
1F
100
AcDbEntity
  8
_65281
  6
AUSGEZOGEN
 62
     4
370
    25
100
AcDbLine
 10
-2.863396630105133
 20
0.2616139248770791
 30
0.0
 11
-2.863396630105134
 21
0.2585297627906291
 31
0.0
  0
LINE
  5
111
330
1F
100
AcDbEntity
  8
_65281
  6
AUSGEZOGEN
 62
     4
370
    25
100
AcDbLine
 10
-2.851792866472437
 20
0.255028730472209
 30
0.0
 11
-2.861700744473614
 21
0.256553019395329
 31
0.0
  0
LINE
  5
112
330
1F
100
AcDbEntity
  8
_65281
  6
AUSGEZOGEN
 62
     4
370
    25
100
AcDbLine
 10
-2.856496630105135
 20
0.2643139248770691
 30
0.0
 11
-2.860596630105133
 21
0.2643139248770791
 31
0.0
  0
ARC
  5
113
330
1F
100
AcDbEntity
  8
_65281
  6
AUSGEZOGEN
 62
     4
370
    25
100
AcDbCircle
 10
-2.852096980840916
 20
0.2530519870769091
 30
0.0
 40
0.002
100
AcDbArc
 50
10.78429786756066
 51
81.25383773825656
  0
ARC
  5
114
330
1F
100
AcDbEntity
  8
_65281
  6
AUSGEZOGEN
 62
     4
370
    25
100
AcDbCircle
 10
-2.846741624550235
 20
0.246313924877259
 30
0.0
 40
0.002
100
AcDbArc
 50
190.7842978675598
 51
269.9999999999491
  0
LINE
  5
115
330
1F
100
AcDbEntity
  8
_65281
  6
AUSGEZOGEN
 62
     4
370
    25
100
AcDbLine
 10
-2.84870630168308
 20
0.2459397006614791
 30
0.0
 11
-2.850132303708071
 21
0.2534262112926891
 31
0.0
  0
ARC
  5
116
330
1F
100
AcDbEntity
  8
_65281
  6
AUSGEZOGEN
 62
     4
370
    25
100
AcDbCircle
 10
-2.820296630105155
 20
0.2562139248770891
 30
0.0
 40
0.0020999999999796
100
AcDbArc
 50
90.0
 51
269.9999999998182
  0
ARC
  5
117
330
1F
100
AcDbEntity
  8
_65281
  6
AUSGEZOGEN
 62
     4
370
    25
100
AcDbCircle
 10
-2.816396630105133
 20
0.2603139248770691
 30
0.0
 40
0.002
100
AcDbArc
 50
270.0
 51
0.0
  0
LINE
  5
118
330
1F
100
AcDbEntity
  8
_65281
  6
AUSGEZOGEN
 62
     4
370
    25
100
AcDbLine
 10
-2.814396630105133
 20
0.2623139248770691
 30
0.0
 11
-2.814396630105133
 21
0.2603139248770691
 31
0.0
  0
LINE
  5
119
330
1F
100
AcDbEntity
  8
_65281
  6
AUSGEZOGEN
 62
     4
370
    25
100
AcDbLine
 10
-2.816396630105133
 20
0.2583139248770691
 30
0.0
 11
-2.820296630105155
 21
0.2583139248770691
 31
0.0
  0
ARC
  5
11A
330
1F
100
AcDbEntity
  8
_65281
  6
AUSGEZOGEN
 62
     4
370
    25
100
AcDbCircle
 10
-2.753296630105155
 20
0.2562139248770891
 30
0.0
 40
0.0020999999999796
100
AcDbArc
 50
90.0
 51
269.9999999998303
  0
LINE
  5
11B
330
1F
100
AcDbEntity
  8
_65281
  6
AUSGEZOGEN
 62
     4
370
    25
100
AcDbLine
 10
-2.749396630105133
 20
0.2583139248770691
 30
0.0
 11
-2.753296630105155
 21
0.2583139248770691
 31
0.0
  0
LINE
  5
11C
330
1F
100
AcDbEntity
  8
_65281
  6
AUSGEZOGEN
 62
     4
370
    25
100
AcDbLine
 10
-2.73189058204903
 20
0.2541139248771291
 30
0.0
 11
-2.75329663010516
 21
0.254113924877179
 31
0.0
  0
ARC
  5
11D
330
1F
100
AcDbEntity
  8
_65281
  6
AUSGEZOGEN
 62
     4
370
    25
100
AcDbCircle
 10
-2.798890582049022
 20
0.2581139248771291
 30
0.0
 40
0.004
100
AcDbArc
 50
269.9999999998728
 51
333.8860873696252
  0
ARC
  5
11E
330
1F
100
AcDbEntity
  8
_65281
  6
AUSGEZOGEN
 62
     4
370
    25
100
AcDbCircle
 10
-2.790149654133191
 20
0.262313924877089
 30
0.0
 40
0.002
100
AcDbArc
 50
89.9999999998855
 51
153.886087369621
  0
LINE
  5
11F
330
1F
100
AcDbEntity
  8
_65281
  6
AUSGEZOGEN
 62
     4
370
    25
100
AcDbLine
 10
-2.791945495578642
 20
0.2631942393111391
 30
0.0
 11
-2.795298899158115
 21
0.2563532960090291
 31
0.0
  0
LINE
  5
120
330
1F
100
AcDbEntity
  8
_65281
  6
AUSGEZOGEN
 62
     4
370
    25
100
AcDbLine
 10
-2.79889058204903
 20
0.2541139248771291
 30
0.0
 11
-2.82029663010516
 21
0.254113924877179
 31
0.0
  0
ARC
  5
121
330
1F
100
AcDbEntity
  8
_65281
  6
AUSGEZOGEN
 62
     4
370
    25
100
AcDbCircle
 10
-2.731890582049022
 20
0.2581139248771291
 30
0.0
 40
0.004
100
AcDbArc
 50
269.9999999998664
 51
333.8860873696252
  0
ARC
  5
122
330
1F
100
AcDbEntity
  8
_65281
  6
AUSGEZOGEN
 62
     4
370
    25
100
AcDbCircle
 10
-2.723149654133189
 20
0.262313924877089
 30
0.0
 40
0.002
100
AcDbArc
 50
89.99999999987278
 51
153.886087369621
  0
LINE
  5
123
330
1F
100
AcDbEntity
  8
_65281
  6
AUSGEZOGEN
 62
     4
370
    25
100
AcDbLine
 10
-2.724945495578643
 20
0.2631942393111391
 30
0.0
 11
-2.728298899158115
 21
0.2563532960090291
 31
0.0
  0
ARC
  5
124
330
1F
100
AcDbEntity
  8
_65281
  6
AUSGEZOGEN
 62
     4
370
    25
100
AcDbCircle
 10
-2.686296630105155
 20
0.2562139248770891
 30
0.0
 40
0.0020999999999796
100
AcDbArc
 50
90.0
 51
269.9999999998303
  0
LINE
  5
125
330
1F
100
AcDbEntity
  8
_65281
  6
AUSGEZOGEN
 62
     4
370
    25
100
AcDbLine
 10
-2.682396630105133
 20
0.2583139248770691
 30
0.0
 11
-2.686296630105155
 21
0.2583139248770691
 31
0.0
  0
LINE
  5
126
330
1F
100
AcDbEntity
  8
_65281
  6
AUSGEZOGEN
 62
     4
370
    25
100
AcDbLine
 10
-2.66489058204903
 20
0.2541139248771291
 30
0.0
 11
-2.68629663010516
 21
0.254113924877179
 31
0.0
  0
ARC
  5
127
330
1F
100
AcDbEntity
  8
_65281
  6
AUSGEZOGEN
 62
     4
370
    25
100
AcDbCircle
 10
-2.682396630105133
 20
0.2603139248770691
 30
0.0
 40
0.002
100
AcDbArc
 50
270.0
 51
0.0
  0
LINE
  5
128
330
1F
100
AcDbEntity
  8
_65281
  6
AUSGEZOGEN
 62
     4
370
    25
100
AcDbLine
 10
-2.680396630105133
 20
0.2623139248770691
 30
0.0
 11
-2.680396630105133
 21
0.2603139248770691
 31
0.0
  0
ARC
  5
129
330
1F
100
AcDbEntity
  8
_65281
  6
AUSGEZOGEN
 62
     4
370
    25
100
AcDbCircle
 10
-2.664890582049022
 20
0.2581139248771291
 30
0.0
 40
0.004
100
AcDbArc
 50
269.9999999998664
 51
333.8860873696252
  0
ARC
  5
12A
330
1F
100
AcDbEntity
  8
_65281
  6
AUSGEZOGEN
 62
     4
370
    25
100
AcDbCircle
 10
-2.656149654133191
 20
0.262313924877089
 30
0.0
 40
0.002
100
AcDbArc
 50
89.9999999998855
 51
153.886087369621
  0
LINE
  5
12B
330
1F
100
AcDbEntity
  8
_65281
  6
AUSGEZOGEN
 62
     4
370
    25
100
AcDbLine
 10
-2.657945495578642
 20
0.2631942393111391
 30
0.0
 11
-2.661298899158115
 21
0.2563532960090291
 31
0.0
  0
ARC
  5
12C
330
1F
100
AcDbEntity
  8
_65281
  6
AUSGEZOGEN
 62
     4
370
    25
100
AcDbCircle
 10
-2.619296630105155
 20
0.2562139248770891
 30
0.0
 40
0.0020999999999796
100
AcDbArc
 50
90.0
 51
269.9999999998182
  0
ARC
  5
12D
330
1F
100
AcDbEntity
  8
_65281
  6
AUSGEZOGEN
 62
     4
370
    25
100
AcDbCircle
 10
-2.615396630105133
 20
0.2603139248770691
 30
0.0
 40
0.002
100
AcDbArc
 50
270.0
 51
0.0
  0
LINE
  5
12E
330
1F
100
AcDbEntity
  8
_65281
  6
AUSGEZOGEN
 62
     4
370
    25
100
AcDbLine
 10
-2.615396630105133
 20
0.2583139248770691
 30
0.0
 11
-2.619296630105155
 21
0.2583139248770691
 31
0.0
  0
LINE
  5
12F
330
1F
100
AcDbEntity
  8
_65281
  6
AUSGEZOGEN
 62
     4
370
    25
100
AcDbLine
 10
-2.613396630105133
 20
0.2623139248770691
 30
0.0
 11
-2.613396630105133
 21
0.2603139248770691
 31
0.0
  0
ARC
  5
130
330
1F
100
AcDbEntity
  8
_65281
  6
AUSGEZOGEN
 62
     4
370
    25
100
AcDbCircle
 10
-2.597890582049021
 20
0.2581139248771291
 30
0.0
 40
0.004
100
AcDbArc
 50
269.9999999998728
 51
333.8860873696252
  0
LINE
  5
131
330
1F
100
AcDbEntity
  8
_65281
  6
AUSGEZOGEN
 62
     4
370
    25
100
AcDbLine
 10
-2.59789058204903
 20
0.2541139248771291
 30
0.0
 11
-2.61929663010516
 21
0.254113924877179
 31
0.0
  0
ARC
  5
132
330
1F
100
AcDbEntity
  8
_65281
  6
AUSGEZOGEN
 62
     4
370
    25
100
AcDbCircle
 10
-2.58914965413319
 20
0.262313924877089
 30
0.0
 40
0.002
100
AcDbArc
 50
89.9999999998855
 51
153.886087369621
  0
LINE
  5
133
330
1F
100
AcDbEntity
  8
_65281
  6
AUSGEZOGEN
 62
     4
370
    25
100
AcDbLine
 10
-2.590945495578642
 20
0.2631942393111391
 30
0.0
 11
-2.594298899158115
 21
0.2563532960090291
 31
0.0
  0
ARC
  5
134
330
1F
100
AcDbEntity
  8
_65281
  6
AUSGEZOGEN
 62
     4
370
    25
100
AcDbCircle
 10
-2.574196630105043
 20
0.263813924877049
 30
0.0
 40
0.0005
100
AcDbArc
 50
0.0
 51
90.0
  0
ARC
  5
135
330
1F
100
AcDbEntity
  8
_65281
  6
AUSGEZOGEN
 62
     4
370
    25
100
AcDbCircle
 10
-2.573196630105044
 20
0.263613924877049
 30
0.0
 40
0.0005
100
AcDbArc
 50
180.0
 51
270.0
  0
LINE
  5
136
330
1F
100
AcDbEntity
  8
_65281
  6
AUSGEZOGEN
 62
     4
370
    25
100
AcDbLine
 10
-2.573696630105043
 20
0.263613924877049
 30
0.0
 11
-2.573696630105043
 21
0.263813924877049
 31
0.0
  0
LINE
  5
137
330
1F
100
AcDbEntity
  8
_65281
  6
AUSGEZOGEN
 62
     4
370
    25
100
AcDbLine
 10
-2.574196630105043
 20
0.264313924877049
 30
0.0
 11
-2.589149654133172
 21
0.264313924877089
 31
0.0
  0
ARC
  5
138
330
1F
100
AcDbEntity
  8
_65281
  6
AUSGEZOGEN
 62
     4
370
    25
100
AcDbCircle
 10
-2.569396630105092
 20
0.2555362997186091
 30
0.0
 40
0.002
100
AcDbArc
 50
180.0
 51
261.4692343904458
  0
ARC
  5
139
330
1F
100
AcDbEntity
  8
_65281
  6
AUSGEZOGEN
 62
     4
370
    25
100
AcDbCircle
 10
-2.561109367912783
 20
0.2502484607065891
 30
0.0
 40
0.002
100
AcDbArc
 50
10.26773586049918
 51
81.46923439044551
  0
ARC
  5
13A
330
1F
100
AcDbEntity
  8
_65281
  6
AUSGEZOGEN
 62
     4
370
    25
100
AcDbCircle
 10
-2.560396630105133
 20
0.2463139248770591
 30
0.0
 40
0.002
100
AcDbArc
 50
270.0
 51
10.26773586049779
  0
LINE
  5
13B
330
1F
100
AcDbEntity
  8
_65281
  6
AUSGEZOGEN
 62
     4
370
    25
100
AcDbLine
 10
-2.559141396776329
 20
0.2506049569984291
 30
0.0
 11
-2.558428658968682
 21
0.2466704211688991
 31
0.0
  0
LINE
  5
13C
330
1F
100
AcDbEntity
  8
_65281
  6
AUSGEZOGEN
 62
     4
370
    25
100
AcDbLine
 10
-2.569693311010939
 20
0.2535584270128691
 30
0.0
 11
-2.560812687006935
 21
0.252226333412329
 31
0.0
  0
ARC
  5
13D
330
1F
100
AcDbEntity
  8
_65281
  6
AUSGEZOGEN
 62
     4
370
    25
100
AcDbCircle
 10
-2.816396630105133
 20
0.2623139248770691
 30
0.0
 40
0.002
100
AcDbArc
 50
0.0
 51
90.0
  0
LINE
  5
13E
330
1F
100
AcDbEntity
  8
_65281
  6
AUSGEZOGEN
 62
     4
370
    25
100
AcDbLine
 10
-2.816396630105133
 20
0.2643139248770691
 30
0.0
 11
-2.860596630105133
 21
0.2643139248770791
 31
0.0
  0
LINE
  5
13F
330
1F
100
AcDbEntity
  8
_65281
  6
AUSGEZOGEN
 62
     4
370
    25
100
AcDbLine
 10
-2.749396630105125
 20
0.264313924876909
 30
0.0
 11
-2.790149654133185
 21
0.264313924877089
 31
0.0
  0
ARC
  5
140
330
1F
100
AcDbEntity
  8
_65281
  6
AUSGEZOGEN
 62
     4
370
    25
100
AcDbCircle
 10
-2.682396630105133
 20
0.2623139248770691
 30
0.0
 40
0.002
100
AcDbArc
 50
0.0
 51
90.0
  0
LINE
  5
141
330
1F
100
AcDbEntity
  8
_65281
  6
AUSGEZOGEN
 62
     4
370
    25
100
AcDbLine
 10
-2.682396630105125
 20
0.264313924876909
 30
0.0
 11
-2.723149654133185
 21
0.264313924877089
 31
0.0
  0
ARC
  5
142
330
1F
100
AcDbEntity
  8
_65281
  6
AUSGEZOGEN
 62
     4
370
    25
100
AcDbCircle
 10
-2.615396630105133
 20
0.2623139248770691
 30
0.0
 40
0.002
100
AcDbArc
 50
0.0
 51
90.0
  0
ARC
  5
143
330
1F
100
AcDbEntity
  8
_65281
  6
AUSGEZOGEN
 62
     4
370
    13
100
AcDbCircle
 10
-2.842146630105103
 20
0.254832765961399
 30
0.0
 40
0.0015
100
AcDbArc
 50
180.0
 51
219.2014035314156
  0
ARC
  5
144
330
1F
100
AcDbEntity
  8
_65281
  6
AUSGEZOGEN
 62
     4
370
    25
100
AcDbCircle
 10
-2.749396630105133
 20
0.2603139248770691
 30
0.0
 40
0.002
100
AcDbArc
 50
270.0
 51
0.0
  0
ARC
  5
145
330
1F
100
AcDbEntity
  8
_65281
  6
AUSGEZOGEN
 62
     4
370
    25
100
AcDbCircle
 10
-2.749396630105133
 20
0.2623139248770691
 30
0.0
 40
0.002
100
AcDbArc
 50
0.0
 51
90.0
  0
LINE
  5
146
330
1F
100
AcDbEntity
  8
_65281
  6
AUSGEZOGEN
 62
     4
370
    25
100
AcDbLine
 10
-2.846741624550237
 20
0.2443139248772591
 30
0.0
 11
-2.560396630105133
 21
0.2443139248770591
 31
0.0
  0
LINE
  5
147
330
1F
100
AcDbEntity
  8
_65281
  6
AUSGEZOGEN
 62
     4
370
    25
100
AcDbLine
 10
-2.859141396776329
 20
0.2506049569984291
 30
0.0
 11
-2.858428658968682
 21
0.2466704211688991
 31
0.0
  0
LINE
  5
148
330
1F
100
AcDbEntity
  8
_65281
  6
AUSGEZOGEN
 62
     4
370
    25
100
AcDbLine
 10
-2.615396630105125
 20
0.264313924876909
 30
0.0
 11
-2.656149654133185
 21
0.264313924877089
 31
0.0
  0
LINE
  5
149
330
1F
100
AcDbEntity
  8
_65281
  6
AUSGEZOGEN
 62
     4
370
    25
100
AcDbLine
 10
-2.872896630105044
 20
0.263113924877049
 30
0.0
 11
-2.873196630105043
 21
0.263113924877049
 31
0.0
  0
LINE
  5
14A
330
1F
100
AcDbEntity
  8
_64844
  6
AUSGEZOGEN
 62
     7
370
    18
100
AcDbLine
 10
-2.854896630105077
 20
0.2670584430159191
 30
0.0
 11
-2.849396630105077
 21
0.2670584430159191
 31
0.0
  0
LINE
  5
14B
330
1F
100
AcDbEntity
  8
_64844
  6
AUSGEZOGEN
 62
     7
370
    18
100
AcDbLine
 10
-2.859340005778051
 20
0.2670584430159191
 30
0.0
 11
-2.854896630105077
 21
0.2670584430159191
 31
0.0
  0
LINE
  5
14C
330
1F
100
AcDbEntity
  8
_64844
  6
AUSGEZOGEN
 62
     7
370
    18
100
AcDbLine
 10
-2.859340005778051
 20
0.2670584430159191
 30
0.0
 11
-2.859453254432103
 21
0.2670584430159191
 31
0.0
  0
LINE
  5
14D
330
1F
100
AcDbEntity
  8
_64844
  6
AUSGEZOGEN
 62
     7
370
    18
100
AcDbLine
 10
-2.863896630105077
 20
0.2670584430159091
 30
0.0
 11
-2.859453254432103
 21
0.2670584430159191
 31
0.0
  0
LINE
  5
14E
330
1F
100
AcDbEntity
  8
_64844
  6
AUSGEZOGEN
 62
     7
370
    18
100
AcDbLine
 10
-2.869396630105077
 20
0.2670584430159091
 30
0.0
 11
-2.863896630105077
 21
0.2670584430159091
 31
0.0
  0
ARC
  5
14F
330
1F
100
AcDbEntity
  8
_64844
  6
AUSGEZOGEN
 62
     7
370
    18
100
AcDbCircle
 10
-2.859453254432105
 20
0.2685584430159191
 30
0.0
 40
0.0015
100
AcDbArc
 50
210.0000000000115
 51
270.0
  0
ARC
  5
150
330
1F
100
AcDbEntity
  8
_64844
  6
AUSGEZOGEN
 62
     7
370
    18
100
AcDbCircle
 10
-2.859340005778052
 20
0.2685584430159191
 30
0.0
 40
0.0015
100
AcDbArc
 50
270.0
 51
330.000000000016
  0
LINE
  5
151
330
1F
100
AcDbEntity
  8
_64844
  6
AUSGEZOGEN
 62
     7
370
    18
100
AcDbLine
 10
-2.857896630105079
 20
0.2680584430159191
 30
0.0
 11
-2.858040967672376
 21
0.2678084430159191
 31
0.0
  0
LINE
  5
152
330
1F
100
AcDbEntity
  8
_64844
  6
AUSGEZOGEN
 62
     7
370
    18
100
AcDbLine
 10
-2.860896630105079
 20
0.2680584430159191
 30
0.0
 11
-2.86075229253778
 21
0.2678084430159191
 31
0.0
  0
LINE
  5
153
330
1F
100
AcDbEntity
  8
_64844
  6
AUSGEZOGEN
 62
     7
370
    18
100
AcDbLine
 10
-2.829396630105078
 20
0.2680584430159391
 30
0.0
 11
-2.831396630105078
 21
0.2680584430159391
 31
0.0
  0
LINE
  5
154
330
1F
100
AcDbEntity
  8
_64844
  6
AUSGEZOGEN
 62
     7
370
    18
100
AcDbLine
 10
-2.887396630105079
 20
0.2680584430159191
 30
0.0
 11
-2.889396630105079
 21
0.2680584430159191
 31
0.0
  0
LINE
  5
155
330
1F
100
AcDbEntity
  8
_64844
  6
AUSGEZOGEN
 62
     7
370
    18
100
AcDbLine
 10
-2.829396630105078
 20
0.2680584430159391
 30
0.0
 11
-2.829396630105078
 21
0.2710584430159391
 31
0.0
  0
LINE
  5
156
330
1F
100
AcDbEntity
  8
_64844
  6
AUSGEZOGEN
 62
     7
370
    18
100
AcDbLine
 10
-2.831396630105078
 20
0.2710584430159391
 30
0.0
 11
-2.829396630105078
 21
0.2710584430159391
 31
0.0
  0
LINE
  5
157
330
1F
100
AcDbEntity
  8
_64844
  6
AUSGEZOGEN
 62
     7
370
    18
100
AcDbLine
 10
-2.889396630105079
 20
0.2710584430159191
 30
0.0
 11
-2.887396630105079
 21
0.2710584430159191
 31
0.0
  0
LINE
  5
158
330
1F
100
AcDbEntity
  8
_64844
  6
AUSGEZOGEN
 62
     7
370
    18
100
AcDbLine
 10
-2.889396630105079
 20
0.2710584430159191
 30
0.0
 11
-2.889396630105079
 21
0.2680584430159191
 31
0.0
  0
LINE
  5
159
330
1F
100
AcDbEntity
  8
_64844
  6
AUSGEZOGEN
 62
     7
370
    18
100
AcDbLine
 10
-2.831396630105078
 20
0.2710584430159391
 30
0.0
 11
-2.887396630105079
 21
0.2710584430159191
 31
0.0
  0
LINE
  5
15A
330
1F
100
AcDbEntity
  8
_64844
  6
AUSGEZOGEN
 62
     7
370
    18
100
AcDbLine
 10
-2.845896630105077
 20
0.2670584430159191
 30
0.0
 11
-2.849396630105077
 21
0.2670584430159191
 31
0.0
  0
LINE
  5
15B
330
1F
100
AcDbEntity
  8
_64844
  6
AUSGEZOGEN
 62
     7
370
    18
100
AcDbLine
 10
-2.869396630105077
 20
0.2670584430159091
 30
0.0
 11
-2.872896630105077
 21
0.2670584430159091
 31
0.0
  0
ARC
  5
15C
330
1F
100
AcDbEntity
  8
_64844
  6
AUSGEZOGEN
 62
     7
370
    18
100
AcDbCircle
 10
-2.877896630105077
 20
0.2650584430159091
 30
0.0
 40
0.006
100
AcDbArc
 50
150.0000000000172
 51
180.0
  0
ARC
  5
15D
330
1F
100
AcDbEntity
  8
_64844
  6
AUSGEZOGEN
 62
     7
370
    18
100
AcDbCircle
 10
-2.840896630105077
 20
0.2650584430159191
 30
0.0
 40
0.006
100
AcDbArc
 50
0.0
 51
30.000000000017
  0
LINE
  5
15E
330
1F
100
AcDbEntity
  8
_64844
  6
AUSGEZOGEN
 62
     7
370
    18
100
AcDbLine
 10
-2.887396630105079
 20
0.2680584430159191
 30
0.0
 11
-2.831396630105078
 21
0.2680584430159391
 31
0.0
  0
LINE
  5
15F
330
1F
100
AcDbEntity
  8
_64844
  6
AUSGEZOGEN
 62
     7
370
    18
100
AcDbLine
 10
-2.879896630105074
 20
0.255251818688879
 30
0.0
 11
-2.879896630105074
 21
0.255308443015909
 31
0.0
  0
ARC
  5
160
330
1F
100
AcDbEntity
  8
_64844
  6
AUSGEZOGEN
 62
     7
370
    18
100
AcDbCircle
 10
-2.881396630105074
 20
0.255251818688879
 30
0.0
 40
0.0015
100
AcDbArc
 50
300.0000000000061
 51
0.0
  0
LINE
  5
161
330
1F
100
AcDbEntity
  8
_64844
  6
AUSGEZOGEN
 62
     7
370
    18
100
AcDbLine
 10
-2.880646630105074
 20
0.2539527805832091
 30
0.0
 11
-2.880896630105074
 21
0.253808443015909
 31
0.0
  0
LINE
  5
162
330
1F
100
AcDbEntity
  8
_64844
  6
AUSGEZOGEN
 62
     7
370
    18
100
AcDbLine
 10
-2.883896630105073
 20
0.252808443015909
 30
0.0
 11
-2.883896630105073
 21
0.250808443015909
 31
0.0
  0
LINE
  5
163
330
1F
100
AcDbEntity
  8
_64844
  6
AUSGEZOGEN
 62
     7
370
    18
100
AcDbLine
 10
-2.883896630105073
 20
0.252808443015909
 30
0.0
 11
-2.883896630105075
 21
0.257308443015909
 31
0.0
  0
LINE
  5
164
330
1F
100
AcDbEntity
  8
_64844
  6
AUSGEZOGEN
 62
     7
370
    18
100
AcDbLine
 10
-2.880896630105075
 20
0.257308443015909
 30
0.0
 11
-2.880896630105073
 21
0.252808443015909
 31
0.0
  0
LINE
  5
165
330
1F
100
AcDbEntity
  8
_64844
  6
AUSGEZOGEN
 62
     7
370
    18
100
AcDbLine
 10
-2.880896630105073
 20
0.250808443015909
 30
0.0
 11
-2.880896630105073
 21
0.252808443015909
 31
0.0
  0
LINE
  5
166
330
1F
100
AcDbEntity
  8
_64844
  6
AUSGEZOGEN
 62
     7
370
    18
100
AcDbLine
 10
-2.880896630105075
 20
0.2583084430159091
 30
0.0
 11
-2.883896630105075
 21
0.2583084430159091
 31
0.0
  0
LINE
  5
167
330
1F
100
AcDbEntity
  8
_64844
  6
AUSGEZOGEN
 62
     7
370
    18
100
AcDbLine
 10
-2.880896630105073
 20
0.250808443015909
 30
0.0
 11
-2.883896630105073
 21
0.250808443015909
 31
0.0
  0
LINE
  5
168
330
1F
100
AcDbEntity
  8
_64844
  6
AUSGEZOGEN
 62
     7
370
    18
100
AcDbLine
 10
-2.834896630105075
 20
0.2583084430159191
 30
0.0
 11
-2.834896630105075
 21
0.2573084430159191
 31
0.0
  0
LINE
  5
169
330
1F
100
AcDbEntity
  8
_64844
  6
AUSGEZOGEN
 62
     7
370
    18
100
AcDbLine
 10
-2.834896630105073
 20
0.2528084430159191
 30
0.0
 11
-2.834896630105075
 21
0.2573084430159191
 31
0.0
  0
LINE
  5
16A
330
1F
100
AcDbEntity
  8
_64844
  6
AUSGEZOGEN
 62
     7
370
    18
100
AcDbLine
 10
-2.834896630105073
 20
0.2528084430159191
 30
0.0
 11
-2.834896630105073
 21
0.2508084430159191
 31
0.0
  0
LINE
  5
16B
330
1F
100
AcDbEntity
  8
_64844
  6
AUSGEZOGEN
 62
     7
370
    18
100
AcDbLine
 10
-2.837896630105075
 20
0.2583084430159191
 30
0.0
 11
-2.834896630105075
 21
0.2583084430159191
 31
0.0
  0
LINE
  5
16C
330
1F
100
AcDbEntity
  8
_64844
  6
AUSGEZOGEN
 62
     7
370
    18
100
AcDbLine
 10
-2.837896630105073
 20
0.2508084430159191
 30
0.0
 11
-2.834896630105073
 21
0.2508084430159191
 31
0.0
  0
LINE
  5
16D
330
1F
100
AcDbEntity
  8
_64844
  6
AUSGEZOGEN
 62
     7
370
    18
100
AcDbLine
 10
-2.837896630105073
 20
0.2508084430159191
 30
0.0
 11
-2.837896630105073
 21
0.2528084430159191
 31
0.0
  0
LINE
  5
16E
330
1F
100
AcDbEntity
  8
_64844
  6
AUSGEZOGEN
 62
     7
370
    18
100
AcDbLine
 10
-2.837896630105075
 20
0.2573084430159191
 30
0.0
 11
-2.837896630105073
 21
0.2528084430159191
 31
0.0
  0
LINE
  5
16F
330
1F
100
AcDbEntity
  8
_64844
  6
AUSGEZOGEN
 62
     7
370
    18
100
AcDbLine
 10
-2.837896630105075
 20
0.2573084430159191
 30
0.0
 11
-2.837896630105075
 21
0.2583084430159191
 31
0.0
  0
LINE
  5
170
330
1F
100
AcDbEntity
  8
_64844
  6
AUSGEZOGEN
 62
     7
370
    18
100
AcDbLine
 10
-2.838896630105074
 20
0.2552518186888891
 30
0.0
 11
-2.838896630105074
 21
0.2553084430159191
 31
0.0
  0
LINE
  5
171
330
1F
100
AcDbEntity
  8
_64844
  6
AUSGEZOGEN
 62
     7
370
    18
100
AcDbLine
 10
-2.838896630105076
 20
0.2603084430159191
 30
0.0
 11
-2.838896630105076
 21
0.2603650673429491
 31
0.0
  0
ARC
  5
172
330
1F
100
AcDbEntity
  8
_64844
  6
AUSGEZOGEN
 62
     7
370
    18
100
AcDbCircle
 10
-2.837396630105074
 20
0.2552518186888991
 30
0.0
 40
0.0015
100
AcDbArc
 50
180.0
 51
240.0000000000328
  0
LINE
  5
173
330
1F
100
AcDbEntity
  8
_64844
  6
AUSGEZOGEN
 62
     7
370
    18
100
AcDbLine
 10
-2.838146630105074
 20
0.2539527805832191
 30
0.0
 11
-2.837896630105074
 21
0.2538084430159191
 31
0.0
  0
LINE
  5
174
330
1F
100
AcDbEntity
  8
_64844
  6
AUSGEZOGEN
 62
     7
370
    18
100
AcDbLine
 10
-2.838896630105075
 20
0.2583139248770691
 30
0.0
 11
-2.838896630105074
 21
0.2553084430159191
 31
0.0
  0
LINE
  5
175
330
1F
100
AcDbEntity
  8
_64844
  6
AUSGEZOGEN
 62
     7
370
    18
100
AcDbLine
 10
-2.837896630105075
 20
0.2583084430159191
 30
0.0
 11
-2.837896630105075
 21
0.2583139248770691
 31
0.0
  0
LINE
  5
176
330
1F
100
AcDbEntity
  8
_64844
  6
AUSGEZOGEN
 62
     7
370
    18
100
AcDbLine
 10
-2.834896630105075
 20
0.2583084430159191
 30
0.0
 11
-2.834896630105075
 21
0.2583139248770691
 31
0.0
  0
LINE
  5
177
330
1F
100
AcDbEntity
  8
_64844
  6
AUSGEZOGEN
 62
     7
370
    18
100
AcDbLine
 10
-2.834896630105077
 20
0.2643139248770691
 30
0.0
 11
-2.834896630105077
 21
0.2650584430159191
 31
0.0
  0
LINE
  5
178
330
1F
100
AcDbEntity
  8
_64844
  6
AUSGEZOGEN
 62
     7
370
    18
100
AcDbLine
 10
-2.845896630105077
 20
0.2643139248770691
 30
0.0
 11
-2.845896630105078
 21
0.2680584430159291
 31
0.0
  0
LINE
  5
179
330
1F
100
AcDbEntity
  8
STANDARD
  6
AUSGEZOGEN
 62
     7
370
    18
100
AcDbLine
 10
-2.838896630105076
 20
0.2643139248770691
 30
0.0
 11
-2.838896630105076
 21
0.2680584430159291
 31
0.0
  0
LINE
  5
17A
330
1F
100
AcDbEntity
  8
_64844
  6
AUSGEZOGEN
 62
     7
370
    18
100
AcDbLine
 10
-2.872896630105077
 20
0.263113924877049
 30
0.0
 11
-2.872896630105079
 21
0.2680584430159191
 31
0.0
  0
LINE
  5
17B
330
1F
100
AcDbEntity
  8
STANDARD
  6
AUSGEZOGEN
 62
     7
370
    18
100
AcDbLine
 10
-2.879896630105074
 20
0.2643139248770591
 30
0.0
 11
-2.879896630105069
 21
0.2680584430159191
 31
0.0
  0
LINE
  5
17C
330
1F
100
AcDbEntity
  8
_64844
  6
AUSGEZOGEN
 62
     7
370
    18
100
AcDbLine
 10
-2.880896630105077
 20
0.2643139248770591
 30
0.0
 11
-2.880896630105079
 21
0.2680584430159191
 31
0.0
  0
LINE
  5
17D
330
1F
100
AcDbEntity
  8
_64844
  6
AUSGEZOGEN
 62
     7
370
    18
100
AcDbLine
 10
-2.883896630105075
 20
0.2580633030559891
 30
0.0
 11
-2.883896630105075
 21
0.257308443015909
 31
0.0
  0
LINE
  5
17E
330
1F
100
AcDbEntity
  8
_64844
  6
AUSGEZOGEN
 62
     7
370
    18
100
AcDbLine
 10
-2.880896630105075
 20
0.257308443015909
 30
0.0
 11
-2.880896630105075
 21
0.2580633030559891
 31
0.0
  0
LINE
  5
17F
330
1F
100
AcDbEntity
  8
_64844
  6
AUSGEZOGEN
 62
     7
370
    18
100
AcDbLine
 10
-2.879896630105075
 20
0.2574777028116391
 30
0.0
 11
-2.879896630105074
 21
0.255308443015909
 31
0.0
  0
LINE
  5
180
330
1F
100
AcDbEntity
  8
STANDARD
  6
VERDECKT
 62
     7
370
    13
100
AcDbLine
 10
-2.872896630105076
 20
0.2625584430159191
 30
0.0
 11
-2.872896630105076
 21
0.263113924877049
 31
0.0
  0
LINE
  5
181
330
1F
100
AcDbEntity
  8
_64844
  6
AUSGEZOGEN
 62
     7
370
    18
100
AcDbLine
 10
-2.883896630105077
 20
0.2643139248770691
 30
0.0
 11
-2.883896630105077
 21
0.2650584430159091
 31
0.0
  0
LINE
  5
182
330
1F
100
AcDbEntity
  8
STANDARD
  6
VERDECKT
 62
     7
370
    13
100
AcDbLine
 10
-2.883896630105075
 20
0.2580633030559891
 30
0.0
 11
-2.883896630105075
 21
0.2643139248770691
 31
0.0
  0
LINE
  5
183
330
1F
100
AcDbEntity
  8
_64844
  6
VERDECKT
 62
     7
370
    13
100
AcDbLine
 10
-2.879896630105076
 20
0.2603084430159091
 30
0.0
 11
-2.879896630105076
 21
0.260365067342929
 31
0.0
  0
ARC
  5
184
330
1F
100
AcDbEntity
  8
_64844
  6
VERDECKT
 62
     7
370
    13
100
AcDbCircle
 10
-2.881396630105076
 20
0.260365067342929
 30
0.0
 40
0.0015
100
AcDbArc
 50
0.0
 51
52.7104301407817
  0
LINE
  5
185
330
1F
100
AcDbEntity
  8
_64844
  6
VERDECKT
 62
     7
370
    13
100
AcDbLine
 10
-2.880487864732097
 20
0.2615584430159191
 30
0.0
 11
-2.880896630105076
 21
0.2615584430159091
 31
0.0
  0
LINE
  5
186
330
1F
100
AcDbEntity
  8
STANDARD
  6
VERDECKT
 62
     7
370
    13
100
AcDbLine
 10
-2.879896630105075
 20
0.2574777028116391
 30
0.0
 11
-2.879896630105075
 21
0.260365067342929
 31
0.0
  0
LINE
  5
187
330
1F
100
AcDbEntity
  8
STANDARD
  6
VERDECKT
 62
     7
370
    13
100
AcDbLine
 10
-2.880896630105076
 20
0.2580633030559891
 30
0.0
 11
-2.880896630105076
 21
0.2643139248770591
 31
0.0
  0
LINE
  5
188
330
1F
100
AcDbEntity
  8
_64844
  6
VERDECKT
 62
     7
370
    13
100
AcDbLine
 10
-2.872896630105076
 20
0.2625584430159191
 30
0.0
 11
-2.879896630105076
 21
0.2625584430159191
 31
0.0
  0
LINE
  5
189
330
1F
100
AcDbEntity
  8
STANDARD
  6
VERDECKT
 62
     7
370
    13
100
AcDbLine
 10
-2.879896630105074
 20
0.2643139248770591
 30
0.0
 11
-2.879896630105074
 21
0.2625584430159191
 31
0.0
  0
LINE
  5
18A
330
1F
100
AcDbEntity
  8
_64844
  6
VERDECKT
 62
     7
370
    13
100
AcDbLine
 10
-2.838896630105076
 20
0.2625584430159191
 30
0.0
 11
-2.845896630105076
 21
0.2625584430159191
 31
0.0
  0
LINE
  5
18B
330
1F
100
AcDbEntity
  8
_64844
  6
VERDECKT
 62
     7
370
    13
100
AcDbLine
 10
-2.837896630105076
 20
0.2617718459754691
 30
0.0
 11
-2.837896630105076
 21
0.261558443015929
 31
0.0
  0
ARC
  5
18C
330
1F
100
AcDbEntity
  8
_64844
  6
VERDECKT
 62
     7
370
    13
100
AcDbCircle
 10
-2.837396630105076
 20
0.2603650673429491
 30
0.0
 40
0.0015
100
AcDbArc
 50
127.2895698592447
 51
180.0
  0
LINE
  5
18D
330
1F
100
AcDbEntity
  8
_64844
  6
VERDECKT
 62
     7
370
    13
100
AcDbLine
 10
-2.837896630105076
 20
0.261558443015929
 30
0.0
 11
-2.83830539547806
 21
0.2615584430159191
 31
0.0
  0
LINE
  5
18E
330
1F
100
AcDbEntity
  8
STANDARD
  6
VERDECKT
 62
     7
370
    13
100
AcDbLine
 10
-2.838896630105075
 20
0.2583139248770691
 30
0.0
 11
-2.838896630105075
 21
0.2643139248770691
 31
0.0
  0
LINE
  5
18F
330
1F
100
AcDbEntity
  8
STANDARD
  6
VERDECKT
 62
     7
370
    13
100
AcDbLine
 10
-2.834896630105075
 20
0.2583139248770691
 30
0.0
 11
-2.834896630105075
 21
0.2643139248770691
 31
0.0
  0
LINE
  5
190
330
1F
100
AcDbEntity
  8
_64844
  6
VERDECKT
 62
     7
370
    13
100
AcDbLine
 10
-2.837896630105075
 20
0.2583139248770691
 30
0.0
 11
-2.837896630105078
 21
0.2680584430159291
 31
0.0
  0
LINE
  5
191
330
1F
100
AcDbEntity
  8
STANDARD
  6
VERDECKT
 62
     7
370
    13
100
AcDbLine
 10
-2.845896630105076
 20
0.2625584430159191
 30
0.0
 11
-2.845896630105076
 21
0.2643139248770691
 31
0.0
  0
LINE
  5
192
330
1F
100
AcDbEntity
  8
STANDARD
  6
AUSGEZOGEN
 62
    40
370
    70
100
AcDbLine
 10
-2.882396630105073
 20
0.254355203812439
 30
0.0
 11
-2.883896630105074
 21
0.254355203812439
 31
0.0
  0
LINE
  5
193
330
1F
100
AcDbEntity
  8
_64844
  6
AUSGEZOGEN
 62
     7
370
    18
100
AcDbLine
 10
-2.609896630105069
 20
0.2670584430159191
 30
0.0
 11
-2.61539663010507
 21
0.2670584430159191
 31
0.0
  0
LINE
  5
194
330
1F
100
AcDbEntity
  8
_64844
  6
AUSGEZOGEN
 62
     7
370
    18
100
AcDbLine
 10
-2.605453254432096
 20
0.2670584430159191
 30
0.0
 11
-2.609896630105069
 21
0.2670584430159191
 31
0.0
  0
LINE
  5
195
330
1F
100
AcDbEntity
  8
_64844
  6
AUSGEZOGEN
 62
     7
370
    18
100
AcDbLine
 10
-2.605453254432096
 20
0.2670584430159191
 30
0.0
 11
-2.605340005778044
 21
0.2670584430159191
 31
0.0
  0
LINE
  5
196
330
1F
100
AcDbEntity
  8
_64844
  6
AUSGEZOGEN
 62
     7
370
    18
100
AcDbLine
 10
-2.60089663010507
 20
0.2670584430159091
 30
0.0
 11
-2.605340005778044
 21
0.2670584430159191
 31
0.0
  0
LINE
  5
197
330
1F
100
AcDbEntity
  8
_64844
  6
AUSGEZOGEN
 62
     7
370
    18
100
AcDbLine
 10
-2.595396630105069
 20
0.2670584430159091
 30
0.0
 11
-2.60089663010507
 21
0.2670584430159091
 31
0.0
  0
ARC
  5
198
330
1F
100
AcDbEntity
  8
_64844
  6
AUSGEZOGEN
 62
     7
370
    18
100
AcDbCircle
 10
-2.605340005778042
 20
0.2685584430159191
 30
0.0
 40
0.0015
100
AcDbArc
 50
270.0
 51
329.9999999999885
  0
ARC
  5
199
330
1F
100
AcDbEntity
  8
_64844
  6
AUSGEZOGEN
 62
     7
370
    18
100
AcDbCircle
 10
-2.605453254432095
 20
0.2685584430159191
 30
0.0
 40
0.0015
100
AcDbArc
 50
209.999999999984
 51
270.0
  0
LINE
  5
19A
330
1F
100
AcDbEntity
  8
_64844
  6
AUSGEZOGEN
 62
     7
370
    18
100
AcDbLine
 10
-2.606896630105068
 20
0.2680584430159191
 30
0.0
 11
-2.606752292537771
 21
0.2678084430159191
 31
0.0
  0
LINE
  5
19B
330
1F
100
AcDbEntity
  8
_64844
  6
AUSGEZOGEN
 62
     7
370
    18
100
AcDbLine
 10
-2.603896630105068
 20
0.2680584430159191
 30
0.0
 11
-2.604040967672367
 21
0.2678084430159191
 31
0.0
  0
LINE
  5
19C
330
1F
100
AcDbEntity
  8
_64844
  6
AUSGEZOGEN
 62
     7
370
    18
100
AcDbLine
 10
-2.635396630105069
 20
0.2680584430159391
 30
0.0
 11
-2.633396630105069
 21
0.2680584430159391
 31
0.0
  0
LINE
  5
19D
330
1F
100
AcDbEntity
  8
_64844
  6
AUSGEZOGEN
 62
     7
370
    18
100
AcDbLine
 10
-2.577396630105068
 20
0.2680584430159191
 30
0.0
 11
-2.575396630105068
 21
0.2680584430159191
 31
0.0
  0
LINE
  5
19E
330
1F
100
AcDbEntity
  8
_64844
  6
AUSGEZOGEN
 62
     7
370
    18
100
AcDbLine
 10
-2.635396630105069
 20
0.2680584430159391
 30
0.0
 11
-2.635396630105069
 21
0.2710584430159391
 31
0.0
  0
LINE
  5
19F
330
1F
100
AcDbEntity
  8
_64844
  6
AUSGEZOGEN
 62
     7
370
    18
100
AcDbLine
 10
-2.633396630105069
 20
0.2710584430159391
 30
0.0
 11
-2.635396630105069
 21
0.2710584430159391
 31
0.0
  0
LINE
  5
1A0
330
1F
100
AcDbEntity
  8
_64844
  6
AUSGEZOGEN
 62
     7
370
    18
100
AcDbLine
 10
-2.575396630105068
 20
0.2710584430159191
 30
0.0
 11
-2.577396630105068
 21
0.2710584430159191
 31
0.0
  0
LINE
  5
1A1
330
1F
100
AcDbEntity
  8
_64844
  6
AUSGEZOGEN
 62
     7
370
    18
100
AcDbLine
 10
-2.575396630105068
 20
0.2710584430159191
 30
0.0
 11
-2.575396630105068
 21
0.2680584430159191
 31
0.0
  0
LINE
  5
1A2
330
1F
100
AcDbEntity
  8
_64844
  6
AUSGEZOGEN
 62
     7
370
    18
100
AcDbLine
 10
-2.633396630105069
 20
0.2710584430159391
 30
0.0
 11
-2.577396630105068
 21
0.2710584430159191
 31
0.0
  0
LINE
  5
1A3
330
1F
100
AcDbEntity
  8
_64844
  6
AUSGEZOGEN
 62
     7
370
    18
100
AcDbLine
 10
-2.61889663010507
 20
0.2670584430159191
 30
0.0
 11
-2.61539663010507
 21
0.2670584430159191
 31
0.0
  0
LINE
  5
1A4
330
1F
100
AcDbEntity
  8
_64844
  6
AUSGEZOGEN
 62
     7
370
    18
100
AcDbLine
 10
-2.595396630105069
 20
0.2670584430159091
 30
0.0
 11
-2.59189663010507
 21
0.2670584430159091
 31
0.0
  0
ARC
  5
1A5
330
1F
100
AcDbEntity
  8
_64844
  6
AUSGEZOGEN
 62
     7
370
    18
100
AcDbCircle
 10
-2.58689663010507
 20
0.2650584430159091
 30
0.0
 40
0.006
100
AcDbArc
 50
0.0
 51
29.99999999998068
  0
LINE
  5
1A6
330
1F
100
AcDbEntity
  8
_64844
  6
AUSGEZOGEN
 62
     7
370
    18
100
AcDbLine
 10
-2.577396630105068
 20
0.2680584430159191
 30
0.0
 11
-2.633396630105069
 21
0.2680584430159391
 31
0.0
  0
LINE
  5
1A7
330
1F
100
AcDbEntity
  8
_64844
  6
AUSGEZOGEN
 62
     7
370
    18
100
AcDbLine
 10
-2.584896630105072
 20
0.255251818688879
 30
0.0
 11
-2.584896630105072
 21
0.255308443015909
 31
0.0
  0
ARC
  5
1A8
330
1F
100
AcDbEntity
  8
_64844
  6
AUSGEZOGEN
 62
     7
370
    18
100
AcDbCircle
 10
-2.583396630105072
 20
0.255251818688879
 30
0.0
 40
0.0015
100
AcDbArc
 50
180.0
 51
239.9999999999792
  0
LINE
  5
1A9
330
1F
100
AcDbEntity
  8
_64844
  6
AUSGEZOGEN
 62
     7
370
    18
100
AcDbLine
 10
-2.584146630105072
 20
0.2539527805832091
 30
0.0
 11
-2.583896630105072
 21
0.253808443015909
 31
0.0
  0
LINE
  5
1AA
330
1F
100
AcDbEntity
  8
_64844
  6
AUSGEZOGEN
 62
     7
370
    18
100
AcDbLine
 10
-2.580896630105073
 20
0.252808443015909
 30
0.0
 11
-2.580896630105073
 21
0.250808443015909
 31
0.0
  0
LINE
  5
1AB
330
1F
100
AcDbEntity
  8
_64844
  6
AUSGEZOGEN
 62
     7
370
    18
100
AcDbLine
 10
-2.580896630105073
 20
0.252808443015909
 30
0.0
 11
-2.580896630105071
 21
0.257308443015909
 31
0.0
  0
LINE
  5
1AC
330
1F
100
AcDbEntity
  8
_64844
  6
AUSGEZOGEN
 62
     7
370
    18
100
AcDbLine
 10
-2.583896630105071
 20
0.257308443015909
 30
0.0
 11
-2.583896630105073
 21
0.252808443015909
 31
0.0
  0
LINE
  5
1AD
330
1F
100
AcDbEntity
  8
_64844
  6
AUSGEZOGEN
 62
     7
370
    18
100
AcDbLine
 10
-2.583896630105073
 20
0.250808443015909
 30
0.0
 11
-2.583896630105073
 21
0.252808443015909
 31
0.0
  0
LINE
  5
1AE
330
1F
100
AcDbEntity
  8
_64844
  6
AUSGEZOGEN
 62
     7
370
    18
100
AcDbLine
 10
-2.583896630105071
 20
0.2583084430159091
 30
0.0
 11
-2.580896630105071
 21
0.2583084430159091
 31
0.0
  0
LINE
  5
1AF
330
1F
100
AcDbEntity
  8
_64844
  6
AUSGEZOGEN
 62
     7
370
    18
100
AcDbLine
 10
-2.583896630105073
 20
0.250808443015909
 30
0.0
 11
-2.580896630105073
 21
0.250808443015909
 31
0.0
  0
LINE
  5
1B0
330
1F
100
AcDbEntity
  8
_64844
  6
AUSGEZOGEN
 62
     7
370
    18
100
AcDbLine
 10
-2.61889663010507
 20
0.2643139248770691
 30
0.0
 11
-2.618896630105069
 21
0.2680584430159291
 31
0.0
  0
LINE
  5
1B1
330
1F
100
AcDbEntity
  8
STANDARD
  6
AUSGEZOGEN
 62
     7
370
    18
100
AcDbLine
 10
-2.62589663010507
 20
0.2643139248770691
 30
0.0
 11
-2.62589663010507
 21
0.2680584430159291
 31
0.0
  0
LINE
  5
1B2
330
1F
100
AcDbEntity
  8
_64844
  6
AUSGEZOGEN
 62
     7
370
    18
100
AcDbLine
 10
-2.59189663010507
 20
0.263113924877049
 30
0.0
 11
-2.591896630105068
 21
0.2680584430159191
 31
0.0
  0
LINE
  5
1B3
330
1F
100
AcDbEntity
  8
STANDARD
  6
AUSGEZOGEN
 62
     7
370
    18
100
AcDbLine
 10
-2.584896630105072
 20
0.2643139248770591
 30
0.0
 11
-2.584896630105077
 21
0.2680584430159191
 31
0.0
  0
LINE
  5
1B4
330
1F
100
AcDbEntity
  8
_64844
  6
AUSGEZOGEN
 62
     7
370
    18
100
AcDbLine
 10
-2.58389663010507
 20
0.2643139248770591
 30
0.0
 11
-2.583896630105068
 21
0.2680584430159191
 31
0.0
  0
LINE
  5
1B5
330
1F
100
AcDbEntity
  8
_64844
  6
AUSGEZOGEN
 62
     7
370
    18
100
AcDbLine
 10
-2.580896630105071
 20
0.2580633030559891
 30
0.0
 11
-2.580896630105071
 21
0.257308443015909
 31
0.0
  0
LINE
  5
1B6
330
1F
100
AcDbEntity
  8
_64844
  6
AUSGEZOGEN
 62
     7
370
    18
100
AcDbLine
 10
-2.583896630105071
 20
0.257308443015909
 30
0.0
 11
-2.583896630105071
 21
0.2580633030559891
 31
0.0
  0
LINE
  5
1B7
330
1F
100
AcDbEntity
  8
_64844
  6
AUSGEZOGEN
 62
     7
370
    18
100
AcDbLine
 10
-2.584896630105071
 20
0.2574777028116391
 30
0.0
 11
-2.584896630105072
 21
0.255308443015909
 31
0.0
  0
LINE
  5
1B8
330
1F
100
AcDbEntity
  8
STANDARD
  6
VERDECKT
 62
     7
370
    13
100
AcDbLine
 10
-2.591896630105071
 20
0.2625584430159191
 30
0.0
 11
-2.591896630105071
 21
0.263113924877049
 31
0.0
  0
LINE
  5
1B9
330
1F
100
AcDbEntity
  8
_64844
  6
AUSGEZOGEN
 62
     7
370
    18
100
AcDbLine
 10
-2.58089663010507
 20
0.2643139248770691
 30
0.0
 11
-2.58089663010507
 21
0.2650584430159091
 31
0.0
  0
LINE
  5
1BA
330
1F
100
AcDbEntity
  8
STANDARD
  6
VERDECKT
 62
     7
370
    13
100
AcDbLine
 10
-2.580896630105071
 20
0.2580633030559891
 30
0.0
 11
-2.580896630105071
 21
0.2643139248770691
 31
0.0
  0
LINE
  5
1BB
330
1F
100
AcDbEntity
  8
_64844
  6
VERDECKT
 62
     7
370
    13
100
AcDbLine
 10
-2.58489663010507
 20
0.2603084430159091
 30
0.0
 11
-2.58489663010507
 21
0.260365067342929
 31
0.0
  0
ARC
  5
1BC
330
1F
100
AcDbEntity
  8
_64844
  6
VERDECKT
 62
     7
370
    13
100
AcDbCircle
 10
-2.583396630105069
 20
0.260365067342929
 30
0.0
 40
0.0015
100
AcDbArc
 50
127.2895698592183
 51
180.0
  0
LINE
  5
1BD
330
1F
100
AcDbEntity
  8
_64844
  6
VERDECKT
 62
     7
370
    13
100
AcDbLine
 10
-2.58430539547805
 20
0.2615584430159191
 30
0.0
 11
-2.583896630105071
 21
0.2615584430159091
 31
0.0
  0
LINE
  5
1BE
330
1F
100
AcDbEntity
  8
STANDARD
  6
VERDECKT
 62
     7
370
    13
100
AcDbLine
 10
-2.584896630105071
 20
0.2574777028116391
 30
0.0
 11
-2.584896630105071
 21
0.260365067342929
 31
0.0
  0
LINE
  5
1BF
330
1F
100
AcDbEntity
  8
STANDARD
  6
VERDECKT
 62
     7
370
    13
100
AcDbLine
 10
-2.583896630105071
 20
0.2580633030559891
 30
0.0
 11
-2.583896630105071
 21
0.2643139248770591
 31
0.0
  0
LINE
  5
1C0
330
1F
100
AcDbEntity
  8
_64844
  6
VERDECKT
 62
     7
370
    13
100
AcDbLine
 10
-2.591896630105071
 20
0.2625584430159191
 30
0.0
 11
-2.58489663010507
 21
0.2625584430159191
 31
0.0
  0
LINE
  5
1C1
330
1F
100
AcDbEntity
  8
STANDARD
  6
VERDECKT
 62
     7
370
    13
100
AcDbLine
 10
-2.584896630105072
 20
0.2643139248770591
 30
0.0
 11
-2.584896630105072
 21
0.2625584430159191
 31
0.0
  0
LINE
  5
1C2
330
1F
100
AcDbEntity
  8
_64844
  6
VERDECKT
 62
     7
370
    13
100
AcDbLine
 10
-2.62589663010507
 20
0.2625584430159191
 30
0.0
 11
-2.618896630105071
 21
0.2625584430159191
 31
0.0
  0
LINE
  5
1C3
330
1F
100
AcDbEntity
  8
STANDARD
  6
VERDECKT
 62
     7
370
    13
100
AcDbLine
 10
-2.618896630105071
 20
0.2625584430159191
 30
0.0
 11
-2.618896630105071
 21
0.2643139248770691
 31
0.0
  0
LINE
  5
1C4
330
1F
100
AcDbEntity
  8
STANDARD
  6
AUSGEZOGEN
 62
    40
370
    70
100
AcDbLine
 10
-2.582396630105073
 20
0.254355203812439
 30
0.0
 11
-2.580896630105072
 21
0.254355203812439
 31
0.0
  0
LINE
  5
1C5
330
1F
100
AcDbEntity
  8
STANDARD
  6
VERDECKT
 62
     7
370
    13
100
AcDbLine
 10
-2.625896630105071
 20
0.2625584430159191
 30
0.0
 11
-2.625896630105071
 21
0.2643139248770691
 31
0.0
  0
LINE
  5
1C6
330
1F
100
AcDbEntity
  8
_65281
  6
AUSGEZOGEN
 62
     4
370
    25
100
AcDbLine
 10
-2.571396630105044
 20
0.261613924877049
 30
0.0
 11
-2.571396630105093
 21
0.2555362997186191
 31
0.0
  0
ARC
  5
1C7
330
1F
100
AcDbEntity
  8
_65281
  6
AUSGEZOGEN
 62
     4
370
    25
100
AcDbCircle
 10
-2.572896630105044
 20
0.261613924877049
 30
0.0
 40
0.0015
100
AcDbArc
 50
0.0
 51
90.0
  0
LINE
  5
1C8
330
1F
100
AcDbEntity
  8
_65281
  6
AUSGEZOGEN
 62
     4
370
    25
100
AcDbLine
 10
-2.572896630105044
 20
0.263113924877049
 30
0.0
 11
-2.573196630105044
 21
0.263113924877049
 31
0.0
  0
HATCH
  5
1C9
330
1F
100
AcDbEntity
  8
STANDARD
  6
AUSGEZOGEN
 62
     9
420
 13092807
370
    18
100
AcDbHatch
 10
0.0
 20
0.0
 30
0.0
210
0.0
220
0.0
230
1.0
  2
SOLID
 70
     1
 71
     0
 91
        9
 92
        3
 72
     0
 73
     1
 93
     1034
 10
-2.589250976429819
 20
0.2643113566762266
 10
-2.589352038510442
 20
0.2643036586692945
 10
-2.589452580827333
 20
0.2642908506263209
 10
-2.589552345167626
 20
0.2642729654409326
 10
-2.589651075316458
 20
0.2642500490458783
 10
-2.589748517714975
 20
0.2642221602950635
 10
-2.589844422111523
 20
0.2641893708124021
 10
-2.589938542204351
 20
0.2641517648078718
 10
-2.590030636274154
 20
0.2641094388612458
 10
-2.590120467804862
 20
0.2640625016740568
 10
-2.590207806091062
 20
0.2640110737904295
 10
-2.590292426830489
 20
0.2639552872874988
 10
-2.590374112700091
 20
0.2638952854362098
 10
-2.590452653914145
 20
0.2638312223333686
 10
-2.590527848763036
 20
0.2637632625058914
 10
-2.590599504131291
 20
0.2636915804882656
 10
-2.59066743599353
 20
0.2636163603743107
 10
-2.590731469887086
 20
0.2635377953443883
 10
-2.590791441360058
 20
0.263456087169276
 10
-2.590847196393657
 20
0.2633714456919796
 10
-2.590898591797759
 20
0.2632840882888141
 10
-2.590945495578642
 20
0.2631942393111389
 10
-2.594298899158115
 20
0.256353296009039
 10
-2.594392706719882
 20
0.256173598053679
 10
-2.594495497528086
 20
0.255998883247348
 10
-2.594607007595285
 20
0.2558296002927553
 10
-2.59472695054123
 20
0.2556661839425306
 10
-2.594855018328341
 20
0.2555090538826858
 10
-2.594990882052818
 20
0.255358613654776
 10
-2.595134192789328
 20
0.2552152496195244
 10
-2.595284582487112
 20
0.2550793299645698
 10
-2.595441664915219
 20
0.2549512037588875
 10
-2.595605036654421
 20
0.2548312000563095
 10
-2.595774278133278
 20
0.2547196270504481
 10
-2.595948954705677
 20
0.2546167712831934
 10
-2.596128617767093
 20
0.2545228969088154
 10
-2.596312805906699
 20
0.2544382450155634
 10
-2.596501046092354
 20
0.2543630330065028
 10
-2.596692854885452
 20
0.25429745404118
 10
-2.596887739682485
 20
0.2542416765395505
 10
-2.597085199980148
 20
0.2541958437494419
 10
-2.597284728660736
 20
0.2541600733786654
 10
-2.597485813294518
 20
0.2541344572927181
 10
-2.597687937455764
 20
0.2541190612788539
 10
-2.59789058204903
 20
0.2541139248771291
 10
-2.61929663010516
 20
0.254113924877109
 10
-2.61940653561327
 20
0.2541168028541252
 10
-2.619516139878021
 20
0.2541254288968367
 10
-2.619625142481742
 20
0.2541397793618604
 10
-2.619733244655873
 20
0.2541598149155693
 10
-2.61984015009987
 20
0.2541854806419033
 10
-2.619945565793341
 20
0.2542167061928905
 10
-2.620049202799198
 20
0.2542534059814661
 10
-2.62015077705561
 20
0.2542954794160606
 10
-2.620250010154603
 20
0.2543428111763142
 10
-2.620346630105149
 20
0.2543952715291621
 10
-2.62044037207868
 20
0.2544527166844237
 10
-2.620530979134961
 20
0.2545149891889212
 10
-2.620618202926351
 20
0.2545819183580485
 10
-2.620701804378498
 20
0.254653320743605
 10
-2.620781554345636
 20
0.2547290006366152
 10
-2.620857234238645
 20
0.2548087506037527
 10
-2.620928636624202
 20
0.2548923520559009
 10
-2.620995565793328
 20
0.2549795758472906
 10
-2.621057838297825
 20
0.2550701829035724
 10
-2.621115283453086
 20
0.255163924877103
 10
-2.621167743805934
 20
0.255260544827649
 10
-2.621215075566187
 20
0.2553597779266419
 10
-2.621257149000781
 20
0.255461352183055
 10
-2.621293848789356
 20
0.2555649891889117
 10
-2.621325074340343
 20
0.2556704048823827
 10
-2.621350740066676
 20
0.2557773103263796
 10
-2.621370775620385
 20
0.2558854125005113
 10
-2.621385126085408
 20
0.2559944151042325
 10
-2.621393752128119
 20
0.2561040193689833
 10
-2.621396630105134
 20
0.2562139248770923
 10
-2.621393752128119
 20
0.2563238303852013
 10
-2.621385126085408
 20
0.256433434649952
 10
-2.621370775620384
 20
0.2565424372536732
 10
-2.621350740066675
 20
0.2566505394278049
 10
-2.621325074340342
 20
0.2567574448718017
 10
-2.621293848789354
 20
0.2568628605652726
 10
-2.621257149000779
 20
0.2569664975711292
 10
-2.621215075566185
 20
0.2570680718275421
 10
-2.621167743805931
 20
0.2571673049265348
 10
-2.621115283453083
 20
0.2572639248770807
 10
-2.621057838297822
 20
0.2573576668506112
 10
-2.620995565793324
 20
0.2574482739068928
 10
-2.620928636624197
 20
0.2575354976982823
 10
-2.620857234238641
 20
0.2576190991504302
 10
-2.620781554345631
 20
0.2576988491175675
 10
-2.620701804378494
 20
0.2577745290105774
 10
-2.620618202926345
 20
0.2578459313961337
 10
-2.620530979134956
 20
0.2579128605652607
 10
-2.620440372078674
 20
0.257975133069758
 10
-2.620346630105144
 20
0.2580325782250192
 10
-2.620250010154598
 20
0.2580850385778669
 10
-2.620150777055605
 20
0.2581323703381202
 10
-2.620049202799192
 20
0.2581744437727144
 10
-2.619945565793335
 20
0.2582111435612897
 10
-2.619840150099864
 20
0.2582423691122765
 10
-2.619733244655868
 20
0.2582680348386102
 10
-2.619625142481736
 20
0.2582880703923187
 10
-2.619516139878015
 20
0.2583024208573422
 10
-2.619406535613264
 20
0.2583110469000533
 10
-2.619296630105155
 20
0.2583139248770691
 10
-2.615396630105133
 20
0.2583139248770691
 10
-2.615291958192647
 20
0.2583166658075599
 10
-2.615187573178598
 20
0.2583248810863325
 10
-2.615083761175053
 20
0.2583385481958788
 10
-2.614980806723498
 20
0.2583576296756014
 10
-2.614878992014928
 20
0.2583820732244909
 10
-2.614778596116383
 20
0.2584118118444788
 10
-2.614679894206043
 20
0.2584467640240746
 10
-2.614583156818981
 20
0.2584868339617838
 10
-2.614488649105654
 20
0.2585319118286923
 10
-2.614396630105133
 20
0.2585818740695002
 10
-2.614307352035103
 20
0.2586365837411782
 10
-2.614221059600549
 20
0.2586958908883191
 10
-2.614137989323034
 20
0.2587596329541551
 10
-2.614058368892416
 20
0.2588276352261142
 10
-2.61398241654276
 20
0.2588997113146959
 10
-2.613910340454178
 20
0.2589756636643513
 10
-2.61384233818222
 20
0.2590552840949694
 10
-2.613778596116383
 20
0.2591383543724841
 10
-2.613719288969242
 20
0.259224646807039
 10
-2.613664579297564
 20
0.2593139248770691
 10
-2.613614617056756
 20
0.25940594387759
 10
-2.613569539189848
 20
0.2595004515909174
 10
-2.613529469252139
 20
0.2595971889779784
 10
-2.613494517072543
 20
0.2596958908883191
 10
-2.613464778452555
 20
0.259796286786864
 10
-2.613440334903666
 20
0.2598981014954335
 10
-2.613421253423943
 20
0.2600010559469886
 10
-2.613407586314397
 20
0.2601048679505337
 10
-2.613399371035624
 20
0.2602092529645831
 10
-2.613396630105133
 20
0.2603139248770691
 10
-2.613396630105133
 20
0.2623139248770691
 10
-2.613399371035624
 20
0.262418596789555
 10
-2.613407586314397
 20
0.2625229818036043
 10
-2.613421253423943
 20
0.2626267938071495
 10
-2.613440334903666
 20
0.2627297482587045
 10
-2.613464778452555
 20
0.2628315629672741
 10
-2.613494517072543
 20
0.2629319588658189
 10
-2.613529469252139
 20
0.2630306607761597
 10
-2.613569539189848
 20
0.2631273981632206
 10
-2.613614617056756
 20
0.2632219058765481
 10
-2.613664579297564
 20
0.2633139248770691
 10
-2.613719288969242
 20
0.2634032029470991
 10
-2.613778596116383
 20
0.2634894953816539
 10
-2.61384233818222
 20
0.2635725656591688
 10
-2.613910340454178
 20
0.2636521860897868
 10
-2.61398241654276
 20
0.2637281384394422
 10
-2.614058368892416
 20
0.2638002145280238
 10
-2.614137989323034
 20
0.263868216799983
 10
-2.614221059600549
 20
0.2639319588658189
 10
-2.614307352035103
 20
0.2639912660129599
 10
-2.614396630105133
 20
0.2640459756846379
 10
-2.614488649105654
 20
0.2640959379254458
 10
-2.614583156818981
 20
0.2641410157923543
 10
-2.614679894206043
 20
0.2641810857300634
 10
-2.614778596116383
 20
0.2642160379096594
 10
-2.614878992014928
 20
0.2642457765296472
 10
-2.614980806723498
 20
0.2642702200785366
 10
-2.615083761175053
 20
0.2642893015582593
 10
-2.615187573178598
 20
0.2643029686678056
 10
-2.615291958192647
 20
0.2643111839465782
 10
-2.615396630105125
 20
0.264313924876909
 10
-2.656149654133185
 20
0.264313924877089
 10
-2.656250976429819
 20
0.2643113566762266
 10
-2.656352038510442
 20
0.2643036586692945
 10
-2.656452580827334
 20
0.2642908506263209
 10
-2.656552345167627
 20
0.2642729654409326
 10
-2.656651075316459
 20
0.2642500490458783
 10
-2.656748517714976
 20
0.2642221602950635
 10
-2.656844422111524
 20
0.2641893708124021
 10
-2.656938542204352
 20
0.2641517648078718
 10
-2.657030636274155
 20
0.2641094388612458
 10
-2.657120467804863
 20
0.2640625016740568
 10
-2.657207806091062
 20
0.2640110737904295
 10
-2.65729242683049
 20
0.2639552872874988
 10
-2.657374112700092
 20
0.2638952854362098
 10
-2.657452653914145
 20
0.2638312223333686
 10
-2.657527848763037
 20
0.2637632625058914
 10
-2.657599504131292
 20
0.2636915804882656
 10
-2.657667435993531
 20
0.2636163603743107
 10
-2.657731469887087
 20
0.2635377953443883
 10
-2.657791441360059
 20
0.263456087169276
 10
-2.657847196393658
 20
0.2633714456919796
 10
-2.65789859179776
 20
0.2632840882888141
 10
-2.657945495578642
 20
0.2631942393111391
 10
-2.661298899158115
 20
0.256353296009039
 10
-2.661392706719883
 20
0.256173598053679
 10
-2.661495497528087
 20
0.255998883247348
 10
-2.661607007595286
 20
0.2558296002927553
 10
-2.66172695054123
 20
0.2556661839425306
 10
-2.661855018328342
 20
0.2555090538826858
 10
-2.66199088205282
 20
0.255358613654776
 10
-2.662134192789329
 20
0.2552152496195244
 10
-2.662284582487113
 20
0.2550793299645698
 10
-2.66244166491522
 20
0.2549512037588875
 10
-2.662605036654422
 20
0.2548312000563095
 10
-2.662774278133279
 20
0.2547196270504481
 10
-2.662948954705677
 20
0.2546167712831934
 10
-2.663128617767094
 20
0.2545228969088154
 10
-2.6633128059067
 20
0.2544382450155634
 10
-2.663501046092355
 20
0.2543630330065028
 10
-2.663692854885453
 20
0.25429745404118
 10
-2.663887739682485
 20
0.2542416765395505
 10
-2.664085199980149
 20
0.2541958437494419
 10
-2.664284728660737
 20
0.2541600733786654
 10
-2.664485813294519
 20
0.2541344572927181
 10
-2.664687937455765
 20
0.2541190612788539
 10
-2.66489058204903
 20
0.2541139248771291
 10
-2.68629663010516
 20
0.254113924877109
 10
-2.68640653561327
 20
0.2541168028541252
 10
-2.686516139878021
 20
0.2541254288968367
 10
-2.686625142481742
 20
0.2541397793618604
 10
-2.686733244655874
 20
0.2541598149155693
 10
-2.68684015009987
 20
0.2541854806419033
 10
-2.686945565793341
 20
0.2542167061928905
 10
-2.687049202799198
 20
0.2542534059814661
 10
-2.68715077705561
 20
0.2542954794160606
 10
-2.687250010154604
 20
0.2543428111763142
 10
-2.687346630105149
 20
0.2543952715291621
 10
-2.687440372078679
 20
0.2544527166844237
 10
-2.687530979134961
 20
0.2545149891889212
 10
-2.68761820292635
 20
0.2545819183580485
 10
-2.687701804378498
 20
0.254653320743605
 10
-2.687781554345635
 20
0.2547290006366152
 10
-2.687857234238645
 20
0.2548087506037527
 10
-2.687928636624201
 20
0.2548923520559009
 10
-2.687995565793329
 20
0.2549795758472906
 10
-2.688057838297825
 20
0.2550701829035724
 10
-2.688115283453086
 20
0.255163924877103
 10
-2.688167743805934
 20
0.255260544827649
 10
-2.688215075566188
 20
0.2553597779266419
 10
-2.688257149000781
 20
0.255461352183055
 10
-2.688293848789356
 20
0.2555649891889117
 10
-2.688325074340343
 20
0.2556704048823827
 10
-2.688350740066676
 20
0.2557773103263796
 10
-2.688370775620385
 20
0.2558854125005113
 10
-2.688385126085408
 20
0.2559944151042325
 10
-2.688393752128119
 20
0.2561040193689833
 10
-2.688396630105134
 20
0.2562139248770923
 10
-2.688393752128118
 20
0.2563238303852013
 10
-2.688385126085408
 20
0.256433434649952
 10
-2.688370775620384
 20
0.2565424372536732
 10
-2.688350740066675
 20
0.2566505394278049
 10
-2.688325074340341
 20
0.2567574448718017
 10
-2.688293848789354
 20
0.2568628605652726
 10
-2.688257149000779
 20
0.2569664975711292
 10
-2.688215075566185
 20
0.2570680718275421
 10
-2.688167743805931
 20
0.2571673049265348
 10
-2.688115283453083
 20
0.2572639248770807
 10
-2.688057838297822
 20
0.2573576668506112
 10
-2.687995565793324
 20
0.2574482739068928
 10
-2.687928636624197
 20
0.2575354976982823
 10
-2.687857234238641
 20
0.2576190991504302
 10
-2.687781554345631
 20
0.2576988491175675
 10
-2.687701804378493
 20
0.2577745290105774
 10
-2.687618202926346
 20
0.2578459313961337
 10
-2.687530979134956
 20
0.2579128605652607
 10
-2.687440372078674
 20
0.257975133069758
 10
-2.687346630105143
 20
0.2580325782250192
 10
-2.687250010154598
 20
0.2580850385778669
 10
-2.687150777055605
 20
0.2581323703381202
 10
-2.687049202799192
 20
0.2581744437727144
 10
-2.686945565793335
 20
0.2582111435612897
 10
-2.686840150099864
 20
0.2582423691122765
 10
-2.686733244655868
 20
0.2582680348386102
 10
-2.686625142481736
 20
0.2582880703923187
 10
-2.686516139878015
 20
0.2583024208573422
 10
-2.686406535613264
 20
0.2583110469000533
 10
-2.686296630105155
 20
0.2583139248770691
 10
-2.682396630105133
 20
0.2583139248770691
 10
-2.682291958192647
 20
0.2583166658075599
 10
-2.682187573178598
 20
0.2583248810863325
 10
-2.682083761175053
 20
0.2583385481958788
 10
-2.681980806723498
 20
0.2583576296756014
 10
-2.681878992014929
 20
0.2583820732244909
 10
-2.681778596116383
 20
0.2584118118444788
 10
-2.681679894206043
 20
0.2584467640240746
 10
-2.681583156818982
 20
0.2584868339617838
 10
-2.681488649105654
 20
0.2585319118286923
 10
-2.681396630105133
 20
0.2585818740695002
 10
-2.681307352035103
 20
0.2586365837411782
 10
-2.681221059600548
 20
0.2586958908883191
 10
-2.681137989323034
 20
0.2587596329541551
 10
-2.681058368892416
 20
0.2588276352261142
 10
-2.68098241654276
 20
0.2588997113146959
 10
-2.680910340454179
 20
0.2589756636643513
 10
-2.68084233818222
 20
0.2590552840949694
 10
-2.680778596116383
 20
0.2591383543724841
 10
-2.680719288969243
 20
0.259224646807039
 10
-2.680664579297564
 20
0.2593139248770691
 10
-2.680614617056756
 20
0.25940594387759
 10
-2.680569539189848
 20
0.2595004515909174
 10
-2.680529469252139
 20
0.2595971889779784
 10
-2.680494517072543
 20
0.2596958908883191
 10
-2.680464778452555
 20
0.259796286786864
 10
-2.680440334903666
 20
0.2598981014954335
 10
-2.680421253423943
 20
0.2600010559469886
 10
-2.680407586314397
 20
0.2601048679505337
 10
-2.680399371035624
 20
0.2602092529645831
 10
-2.680396630105133
 20
0.2603139248770691
 10
-2.680396630105133
 20
0.2623139248770691
 10
-2.680399371035624
 20
0.262418596789555
 10
-2.680407586314397
 20
0.2625229818036043
 10
-2.680421253423943
 20
0.2626267938071495
 10
-2.680440334903666
 20
0.2627297482587045
 10
-2.680464778452555
 20
0.2628315629672741
 10
-2.680494517072543
 20
0.2629319588658189
 10
-2.680529469252139
 20
0.2630306607761597
 10
-2.680569539189848
 20
0.2631273981632206
 10
-2.680614617056756
 20
0.2632219058765481
 10
-2.680664579297564
 20
0.2633139248770691
 10
-2.680719288969243
 20
0.2634032029470991
 10
-2.680778596116383
 20
0.2634894953816539
 10
-2.68084233818222
 20
0.2635725656591688
 10
-2.680910340454179
 20
0.2636521860897868
 10
-2.68098241654276
 20
0.2637281384394422
 10
-2.681058368892416
 20
0.2638002145280238
 10
-2.681137989323034
 20
0.263868216799983
 10
-2.681221059600548
 20
0.2639319588658189
 10
-2.681307352035103
 20
0.2639912660129599
 10
-2.681396630105133
 20
0.2640459756846379
 10
-2.681488649105654
 20
0.2640959379254458
 10
-2.681583156818982
 20
0.2641410157923543
 10
-2.681679894206043
 20
0.2641810857300634
 10
-2.681778596116383
 20
0.2642160379096594
 10
-2.681878992014929
 20
0.2642457765296472
 10
-2.681980806723498
 20
0.2642702200785366
 10
-2.682083761175053
 20
0.2642893015582593
 10
-2.682187573178598
 20
0.2643029686678056
 10
-2.682291958192647
 20
0.2643111839465782
 10
-2.682396630105125
 20
0.264313924876909
 10
-2.723149654133185
 20
0.264313924877089
 10
-2.723250976429818
 20
0.2643113566762266
 10
-2.723352038510441
 20
0.2643036586692945
 10
-2.723452580827332
 20
0.2642908506263209
 10
-2.723552345167625
 20
0.2642729654409326
 10
-2.723651075316457
 20
0.2642500490458783
 10
-2.723748517714974
 20
0.2642221602950635
 10
-2.723844422111522
 20
0.2641893708124021
 10
-2.72393854220435
 20
0.2641517648078718
 10
-2.724030636274153
 20
0.2641094388612458
 10
-2.724120467804861
 20
0.2640625016740568
 10
-2.724207806091061
 20
0.2640110737904295
 10
-2.724292426830489
 20
0.2639552872874988
 10
-2.72437411270009
 20
0.2638952854362098
 10
-2.724452653914144
 20
0.2638312223333686
 10
-2.724527848763036
 20
0.2637632625058914
 10
-2.72459950413129
 20
0.2636915804882656
 10
-2.724667435993529
 20
0.2636163603743107
 10
-2.724731469887085
 20
0.2635377953443883
 10
-2.724791441360057
 20
0.263456087169276
 10
-2.724847196393656
 20
0.2633714456919796
 10
-2.724898591797758
 20
0.2632840882888141
 10
-2.724945495578643
 20
0.2631942393111391
 10
-2.728298899158115
 20
0.256353296009039
 10
-2.728392706719883
 20
0.256173598053679
 10
-2.728495497528087
 20
0.255998883247348
 10
-2.728607007595286
 20
0.2558296002927553
 10
-2.728726950541231
 20
0.2556661839425306
 10
-2.728855018328342
 20
0.2555090538826858
 10
-2.728990882052819
 20
0.255358613654776
 10
-2.729134192789329
 20
0.2552152496195244
 10
-2.729284582487113
 20
0.2550793299645698
 10
-2.72944166491522
 20
0.2549512037588875
 10
-2.729605036654422
 20
0.2548312000563095
 10
-2.729774278133279
 20
0.2547196270504481
 10
-2.729948954705677
 20
0.2546167712831934
 10
-2.730128617767094
 20
0.2545228969088154
 10
-2.7303128059067
 20
0.2544382450155634
 10
-2.730501046092355
 20
0.2543630330065028
 10
-2.730692854885453
 20
0.25429745404118
 10
-2.730887739682486
 20
0.2542416765395505
 10
-2.73108519998015
 20
0.2541958437494419
 10
-2.731284728660737
 20
0.2541600733786654
 10
-2.731485813294519
 20
0.2541344572927181
 10
-2.731687937455765
 20
0.2541190612788539
 10
-2.73189058204903
 20
0.2541139248771291
 10
-2.75329663010516
 20
0.254113924877109
 10
-2.75340653561327
 20
0.2541168028541252
 10
-2.753516139878021
 20
0.2541254288968367
 10
-2.753625142481742
 20
0.2541397793618604
 10
-2.753733244655873
 20
0.2541598149155693
 10
-2.75384015009987
 20
0.2541854806419033
 10
-2.753945565793341
 20
0.2542167061928905
 10
-2.754049202799198
 20
0.2542534059814661
 10
-2.754150777055611
 20
0.2542954794160606
 10
-2.754250010154603
 20
0.2543428111763142
 10
-2.754346630105149
 20
0.2543952715291621
 10
-2.75444037207868
 20
0.2544527166844237
 10
-2.754530979134961
 20
0.2545149891889212
 10
-2.754618202926351
 20
0.2545819183580485
 10
-2.754701804378498
 20
0.254653320743605
 10
-2.754781554345636
 20
0.2547290006366152
 10
-2.754857234238645
 20
0.2548087506037527
 10
-2.754928636624201
 20
0.2548923520559009
 10
-2.754995565793328
 20
0.2549795758472906
 10
-2.755057838297825
 20
0.2550701829035724
 10
-2.755115283453086
 20
0.255163924877103
 10
-2.755167743805934
 20
0.255260544827649
 10
-2.755215075566187
 20
0.2553597779266419
 10
-2.755257149000781
 20
0.255461352183055
 10
-2.755293848789356
 20
0.2555649891889117
 10
-2.755325074340343
 20
0.2556704048823827
 10
-2.755350740066676
 20
0.2557773103263796
 10
-2.755370775620385
 20
0.2558854125005113
 10
-2.755385126085408
 20
0.2559944151042325
 10
-2.755393752128119
 20
0.2561040193689833
 10
-2.755396630105134
 20
0.2562139248770923
 10
-2.755393752128119
 20
0.2563238303852013
 10
-2.755385126085408
 20
0.256433434649952
 10
-2.755370775620384
 20
0.2565424372536732
 10
-2.755350740066675
 20
0.2566505394278049
 10
-2.755325074340341
 20
0.2567574448718017
 10
-2.755293848789354
 20
0.2568628605652726
 10
-2.755257149000779
 20
0.2569664975711292
 10
-2.755215075566185
 20
0.2570680718275421
 10
-2.755167743805931
 20
0.2571673049265348
 10
-2.755115283453083
 20
0.2572639248770807
 10
-2.755057838297822
 20
0.2573576668506112
 10
-2.754995565793324
 20
0.2574482739068928
 10
-2.754928636624197
 20
0.2575354976982823
 10
-2.754857234238641
 20
0.2576190991504302
 10
-2.754781554345631
 20
0.2576988491175675
 10
-2.754701804378493
 20
0.2577745290105774
 10
-2.754618202926346
 20
0.2578459313961337
 10
-2.754530979134956
 20
0.2579128605652607
 10
-2.754440372078674
 20
0.257975133069758
 10
-2.754346630105144
 20
0.2580325782250192
 10
-2.754250010154597
 20
0.2580850385778669
 10
-2.754150777055605
 20
0.2581323703381202
 10
-2.754049202799192
 20
0.2581744437727144
 10
-2.753945565793336
 20
0.2582111435612897
 10
-2.753840150099864
 20
0.2582423691122765
 10
-2.753733244655868
 20
0.2582680348386102
 10
-2.753625142481736
 20
0.2582880703923187
 10
-2.753516139878015
 20
0.2583024208573422
 10
-2.753406535613264
 20
0.2583110469000533
 10
-2.753296630105155
 20
0.2583139248770691
 10
-2.749396630105133
 20
0.2583139248770691
 10
-2.749291958192647
 20
0.2583166658075599
 10
-2.749187573178598
 20
0.2583248810863325
 10
-2.749083761175052
 20
0.2583385481958788
 10
-2.748980806723498
 20
0.2583576296756014
 10
-2.748878992014928
 20
0.2583820732244909
 10
-2.748778596116383
 20
0.2584118118444788
 10
-2.748679894206043
 20
0.2584467640240746
 10
-2.748583156818981
 20
0.2584868339617838
 10
-2.748488649105654
 20
0.2585319118286923
 10
-2.748396630105133
 20
0.2585818740695002
 10
-2.748307352035103
 20
0.2586365837411782
 10
-2.748221059600549
 20
0.2586958908883191
 10
-2.748137989323034
 20
0.2587596329541551
 10
-2.748058368892416
 20
0.2588276352261142
 10
-2.74798241654276
 20
0.2588997113146959
 10
-2.747910340454178
 20
0.2589756636643513
 10
-2.747842338182219
 20
0.2590552840949694
 10
-2.747778596116383
 20
0.2591383543724841
 10
-2.747719288969242
 20
0.259224646807039
 10
-2.747664579297564
 20
0.2593139248770691
 10
-2.747614617056756
 20
0.25940594387759
 10
-2.747569539189848
 20
0.2595004515909174
 10
-2.747529469252139
 20
0.2595971889779784
 10
-2.747494517072543
 20
0.2596958908883191
 10
-2.747464778452555
 20
0.259796286786864
 10
-2.747440334903666
 20
0.2598981014954335
 10
-2.747421253423943
 20
0.2600010559469886
 10
-2.747407586314397
 20
0.2601048679505337
 10
-2.747399371035624
 20
0.2602092529645831
 10
-2.747396630105133
 20
0.2603139248770691
 10
-2.747396630105133
 20
0.2623139248770691
 10
-2.747399371035624
 20
0.262418596789555
 10
-2.747407586314397
 20
0.2625229818036043
 10
-2.747421253423943
 20
0.2626267938071495
 10
-2.747440334903666
 20
0.2627297482587045
 10
-2.747464778452555
 20
0.2628315629672741
 10
-2.747494517072543
 20
0.2629319588658189
 10
-2.747529469252139
 20
0.2630306607761597
 10
-2.747569539189848
 20
0.2631273981632206
 10
-2.747614617056756
 20
0.2632219058765481
 10
-2.747664579297564
 20
0.2633139248770691
 10
-2.747719288969242
 20
0.2634032029470991
 10
-2.747778596116383
 20
0.2634894953816539
 10
-2.747842338182219
 20
0.2635725656591688
 10
-2.747910340454178
 20
0.2636521860897868
 10
-2.74798241654276
 20
0.2637281384394422
 10
-2.748058368892416
 20
0.2638002145280238
 10
-2.748137989323034
 20
0.263868216799983
 10
-2.748221059600549
 20
0.2639319588658189
 10
-2.748307352035103
 20
0.2639912660129599
 10
-2.748396630105133
 20
0.2640459756846379
 10
-2.748488649105654
 20
0.2640959379254458
 10
-2.748583156818981
 20
0.2641410157923543
 10
-2.748679894206043
 20
0.2641810857300634
 10
-2.748778596116383
 20
0.2642160379096594
 10
-2.748878992014928
 20
0.2642457765296472
 10
-2.748980806723498
 20
0.2642702200785366
 10
-2.749083761175052
 20
0.2642893015582593
 10
-2.749187573178598
 20
0.2643029686678056
 10
-2.749291958192647
 20
0.2643111839465782
 10
-2.749396630105125
 20
0.264313924876909
 10
-2.790149654133185
 20
0.264313924877089
 10
-2.790250976429819
 20
0.2643113566762266
 10
-2.790352038510443
 20
0.2643036586692945
 10
-2.790452580827334
 20
0.2642908506263209
 10
-2.790552345167627
 20
0.2642729654409326
 10
-2.790651075316459
 20
0.2642500490458783
 10
-2.790748517714976
 20
0.2642221602950635
 10
-2.790844422111524
 20
0.2641893708124021
 10
-2.790938542204352
 20
0.2641517648078718
 10
-2.791030636274155
 20
0.2641094388612458
 10
-2.791120467804863
 20
0.2640625016740568
 10
-2.791207806091063
 20
0.2640110737904295
 10
-2.79129242683049
 20
0.2639552872874988
 10
-2.791374112700092
 20
0.2638952854362098
 10
-2.791452653914145
 20
0.2638312223333686
 10
-2.791527848763037
 20
0.2637632625058914
 10
-2.791599504131292
 20
0.2636915804882656
 10
-2.791667435993531
 20
0.2636163603743107
 10
-2.791731469887087
 20
0.2635377953443883
 10
-2.791791441360059
 20
0.263456087169276
 10
-2.791847196393658
 20
0.2633714456919796
 10
-2.79189859179776
 20
0.2632840882888141
 10
-2.791945495578642
 20
0.2631942393111391
 10
-2.795298899158115
 20
0.256353296009039
 10
-2.795392706719883
 20
0.256173598053679
 10
-2.795495497528087
 20
0.255998883247348
 10
-2.795607007595286
 20
0.2558296002927553
 10
-2.795726950541231
 20
0.2556661839425306
 10
-2.795855018328342
 20
0.2555090538826858
 10
-2.795990882052819
 20
0.255358613654776
 10
-2.796134192789329
 20
0.2552152496195244
 10
-2.796284582487113
 20
0.2550793299645698
 10
-2.79644166491522
 20
0.2549512037588875
 10
-2.796605036654422
 20
0.2548312000563095
 10
-2.796774278133279
 20
0.2547196270504481
 10
-2.796948954705678
 20
0.2546167712831934
 10
-2.797128617767094
 20
0.2545228969088154
 10
-2.7973128059067
 20
0.2544382450155634
 10
-2.797501046092355
 20
0.2543630330065028
 10
-2.797692854885453
 20
0.25429745404118
 10
-2.797887739682486
 20
0.2542416765395505
 10
-2.798085199980149
 20
0.2541958437494419
 10
-2.798284728660737
 20
0.2541600733786654
 10
-2.798485813294519
 20
0.2541344572927181
 10
-2.798687937455765
 20
0.2541190612788539
 10
-2.79889058204903
 20
0.2541139248771291
 10
-2.82029663010516
 20
0.254113924877109
 10
-2.82040653561327
 20
0.2541168028541252
 10
-2.820516139878021
 20
0.2541254288968367
 10
-2.820625142481742
 20
0.2541397793618604
 10
-2.820733244655873
 20
0.2541598149155693
 10
-2.82084015009987
 20
0.2541854806419033
 10
-2.820945565793342
 20
0.2542167061928905
 10
-2.821049202799198
 20
0.2542534059814661
 10
-2.82115077705561
 20
0.2542954794160606
 10
-2.821250010154603
 20
0.2543428111763142
 10
-2.821346630105149
 20
0.2543952715291621
 10
-2.821440372078679
 20
0.2544527166844237
 10
-2.821530979134961
 20
0.2545149891889212
 10
-2.82161820292635
 20
0.2545819183580485
 10
-2.821701804378498
 20
0.254653320743605
 10
-2.821781554345635
 20
0.2547290006366152
 10
-2.821857234238645
 20
0.2548087506037527
 10
-2.821928636624202
 20
0.2548923520559009
 10
-2.821995565793328
 20
0.2549795758472906
 10
-2.822057838297825
 20
0.2550701829035724
 10
-2.822115283453086
 20
0.255163924877103
 10
-2.822167743805934
 20
0.255260544827649
 10
-2.822215075566187
 20
0.2553597779266419
 10
-2.822257149000782
 20
0.255461352183055
 10
-2.822293848789356
 20
0.2555649891889117
 10
-2.822325074340343
 20
0.2556704048823827
 10
-2.822350740066677
 20
0.2557773103263796
 10
-2.822370775620385
 20
0.2558854125005113
 10
-2.822385126085408
 20
0.2559944151042325
 10
-2.822393752128119
 20
0.2561040193689833
 10
-2.822396630105134
 20
0.2562139248770923
 10
-2.822393752128119
 20
0.2563238303852013
 10
-2.822385126085408
 20
0.256433434649952
 10
-2.822370775620384
 20
0.2565424372536732
 10
-2.822350740066675
 20
0.2566505394278049
 10
-2.822325074340342
 20
0.2567574448718017
 10
-2.822293848789355
 20
0.2568628605652726
 10
-2.822257149000779
 20
0.2569664975711292
 10
-2.822215075566185
 20
0.2570680718275421
 10
-2.822167743805931
 20
0.2571673049265348
 10
-2.822115283453083
 20
0.2572639248770807
 10
-2.822057838297822
 20
0.2573576668506112
 10
-2.821995565793324
 20
0.2574482739068928
 10
-2.821928636624197
 20
0.2575354976982823
 10
-2.821857234238641
 20
0.2576190991504302
 10
-2.821781554345631
 20
0.2576988491175675
 10
-2.821701804378493
 20
0.2577745290105774
 10
-2.821618202926345
 20
0.2578459313961337
 10
-2.821530979134956
 20
0.2579128605652607
 10
-2.821440372078674
 20
0.257975133069758
 10
-2.821346630105144
 20
0.2580325782250192
 10
-2.821250010154598
 20
0.2580850385778669
 10
-2.821150777055605
 20
0.2581323703381202
 10
-2.821049202799192
 20
0.2581744437727144
 10
-2.820945565793335
 20
0.2582111435612897
 10
-2.820840150099865
 20
0.2582423691122765
 10
-2.820733244655868
 20
0.2582680348386102
 10
-2.820625142481735
 20
0.2582880703923187
 10
-2.820516139878015
 20
0.2583024208573422
 10
-2.820406535613264
 20
0.2583110469000533
 10
-2.820296630105155
 20
0.2583139248770691
 10
-2.816396630105133
 20
0.2583139248770691
 10
-2.816291958192647
 20
0.2583166658075599
 10
-2.816187573178598
 20
0.2583248810863325
 10
-2.816083761175053
 20
0.2583385481958788
 10
-2.815980806723497
 20
0.2583576296756014
 10
-2.815878992014929
 20
0.2583820732244909
 10
-2.815778596116383
 20
0.2584118118444788
 10
-2.815679894206043
 20
0.2584467640240746
 10
-2.815583156818982
 20
0.2584868339617838
 10
-2.815488649105654
 20
0.2585319118286923
 10
-2.815396630105133
 20
0.2585818740695002
 10
-2.815307352035103
 20
0.2586365837411782
 10
-2.815221059600549
 20
0.2586958908883191
 10
-2.815137989323034
 20
0.2587596329541551
 10
-2.815058368892416
 20
0.2588276352261142
 10
-2.81498241654276
 20
0.2588997113146959
 10
-2.814910340454178
 20
0.2589756636643513
 10
-2.81484233818222
 20
0.2590552840949694
 10
-2.814778596116383
 20
0.2591383543724841
 10
-2.814719288969243
 20
0.259224646807039
 10
-2.814664579297564
 20
0.2593139248770691
 10
-2.814614617056757
 20
0.25940594387759
 10
-2.814569539189848
 20
0.2595004515909174
 10
-2.814529469252139
 20
0.2595971889779784
 10
-2.814494517072543
 20
0.2596958908883191
 10
-2.814464778452555
 20
0.259796286786864
 10
-2.814440334903666
 20
0.2598981014954335
 10
-2.814421253423943
 20
0.2600010559469886
 10
-2.814407586314397
 20
0.2601048679505337
 10
-2.814399371035624
 20
0.2602092529645831
 10
-2.814396630105133
 20
0.2603139248770691
 10
-2.814396630105133
 20
0.2623139248770691
 10
-2.814399371035624
 20
0.262418596789555
 10
-2.814407586314397
 20
0.2625229818036043
 10
-2.814421253423943
 20
0.2626267938071495
 10
-2.814440334903666
 20
0.2627297482587045
 10
-2.814464778452555
 20
0.2628315629672741
 10
-2.814494517072543
 20
0.2629319588658189
 10
-2.814529469252139
 20
0.2630306607761597
 10
-2.814569539189848
 20
0.2631273981632206
 10
-2.814614617056757
 20
0.2632219058765481
 10
-2.814664579297564
 20
0.2633139248770691
 10
-2.814719288969243
 20
0.2634032029470991
 10
-2.814778596116383
 20
0.2634894953816539
 10
-2.81484233818222
 20
0.2635725656591688
 10
-2.814910340454178
 20
0.2636521860897868
 10
-2.81498241654276
 20
0.2637281384394422
 10
-2.815058368892416
 20
0.2638002145280238
 10
-2.815137989323034
 20
0.263868216799983
 10
-2.815221059600549
 20
0.2639319588658189
 10
-2.815307352035103
 20
0.2639912660129599
 10
-2.815396630105133
 20
0.2640459756846379
 10
-2.815488649105654
 20
0.2640959379254458
 10
-2.815583156818982
 20
0.2641410157923543
 10
-2.815679894206043
 20
0.2641810857300634
 10
-2.815778596116383
 20
0.2642160379096594
 10
-2.815878992014929
 20
0.2642457765296472
 10
-2.815980806723497
 20
0.2642702200785366
 10
-2.816083761175053
 20
0.2642893015582593
 10
-2.816187573178598
 20
0.2643029686678056
 10
-2.816291958192647
 20
0.2643111839465782
 10
-2.816396630105133
 20
0.2643139248770691
 10
-2.860596630105133
 20
0.2643139248770791
 10
-2.860622798083255
 20
0.2643132396444564
 10
-2.860648894336767
 20
0.2643111858247632
 10
-2.860674847337653
 20
0.2643077690473766
 10
-2.860700585950542
 20
0.2643029986774459
 10
-2.860726039627684
 20
0.2642968877902236
 10
-2.860751138602321
 20
0.2642894531352266
 10
-2.860775814079906
 20
0.2642807150903276
 10
-2.860799998426671
 20
0.2642706976059004
 10
-2.860823625355003
 20
0.2642594281391732
 10
-2.860846630105133
 20
0.2642469375789713
 10
-2.860868949622641
 20
0.2642332601610518
 10
-2.86089052273128
 20
0.2642184333742666
 10
-2.860911290300658
 20
0.2642024978578075
 10
-2.860931195408313
 20
0.2641854972898178
 10
-2.860950183495726
 20
0.2641674782676723
 10
-2.860968202517872
 20
0.2641484901802585
 10
-2.860985203085861
 20
0.264128585072604
 10
-2.861001138602321
 20
0.2641078175032253
 10
-2.861015965389106
 20
0.2640862443945866
 10
-2.861029642807025
 20
0.2640639248770791
 10
-2.861042133367227
 20
0.2640409201269489
 10
-2.861053402833954
 20
0.264017293198617
 10
-2.861063420318382
 20
0.2639931088518517
 10
-2.861072158363281
 20
0.2639684333742666
 10
-2.861079593018278
 20
0.2639433343996304
 10
-2.8610857039055
 20
0.263917880722488
 10
-2.86109047427543
 20
0.2638921421095993
 10
-2.861093891052817
 20
0.263866189108713
 10
-2.86109594487251
 20
0.2638400928552006
 10
-2.861096630105133
 20
0.2638139248770791
 10
-2.861096630105133
 20
0.2636139248770791
 10
-2.861097315337756
 20
0.2635877568989576
 10
-2.861099369157449
 20
0.2635616606454452
 10
-2.861102785934836
 20
0.263535707644559
 10
-2.861107556304766
 20
0.2635099690316702
 10
-2.861113667191988
 20
0.2634845153545278
 10
-2.861121101846985
 20
0.2634594163798916
 10
-2.861129839891885
 20
0.2634347409023065
 10
-2.861139857376312
 20
0.2634105565555412
 10
-2.861151126843039
 20
0.2633869296272093
 10
-2.861163617403241
 20
0.263363924877079
 10
-2.86117729482116
 20
0.2633416053595715
 10
-2.861192121607945
 20
0.2633200322509328
 10
-2.861208057124405
 20
0.2632992646815541
 10
-2.861225057692395
 20
0.2632793595738996
 10
-2.86124307671454
 20
0.2632603714864858
 10
-2.861262064801954
 20
0.2632423524643404
 10
-2.861281969909608
 20
0.2632253518963505
 10
-2.861302737478987
 20
0.2632094163798916
 10
-2.861324310587626
 20
0.2631945895931064
 10
-2.861346630105133
 20
0.2631809121751869
 10
-2.861369634855264
 20
0.2631684216149849
 10
-2.861393261783595
 20
0.2631571521482577
 10
-2.861417446130361
 20
0.2631471346638304
 10
-2.861442121607945
 20
0.2631383966189315
 10
-2.861467220582582
 20
0.2631309619639345
 10
-2.861492674259724
 20
0.2631248510767122
 10
-2.861518412872613
 20
0.2631200807067815
 10
-2.861544365873499
 20
0.2631166639293949
 10
-2.861570462127012
 20
0.2631146101097018
 10
-2.861596630105133
 20
0.2631139248770791
 10
-2.861896630105133
 20
0.2631139248770791
 10
-2.861975134039498
 20
0.2631118691792109
 10
-2.862053422800035
 20
0.2631057077201315
 10
-2.862131281802694
 20
0.2630954573879717
 10
-2.86220849764136
 20
0.2630811462781797
 10
-2.862284858672787
 20
0.2630628136165126
 10
-2.862360155596696
 20
0.2630405096515218
 10
-2.862434182029451
 20
0.2630142955168249
 10
-2.862506735069747
 20
0.262984243063543
 10
-2.862577615854742
 20
0.2629504346633616
 10
-2.862646630105133
 20
0.2629129629827557
 10
-2.862713588657656
 20
0.2628719307289972
 10
-2.862778307983572
 20
0.2628274503686415
 10
-2.862840610691708
 20
0.2627796438192645
 10
-2.862900326014671
 20
0.2627286421152952
 10
-2.862957290276913
 20
0.2626745850488589
 10
-2.863011347343349
 20
0.2626176207866174
 10
-2.863062349047319
 20
0.2625579054636538
 10
-2.863110155596696
 20
0.2624956027555178
 10
-2.863154635957051
 20
0.2624308834296016
 10
-2.86319566821081
 20
0.262363924877079
 10
-2.863233139891416
 20
0.2622949106266884
 10
-2.863266948291597
 20
0.2622240298416927
 10
-2.863297000744879
 20
0.262151476801397
 10
-2.863323214879576
 20
0.2620774503686415
 10
-2.863345518844567
 20
0.2620021534447328
 10
-2.863363851506234
 20
0.2619257924133057
 10
-2.863378162616026
 20
0.2618485765746394
 10
-2.863388412948186
 20
0.2617707175719805
 10
-2.863394574407265
 20
0.2616924288114434
 10
-2.863396630105133
 20
0.2616139248770791
 10
-2.863396630105134
 20
0.2585297627906291
 10
-2.863394065422703
 20
0.2584285098789296
 10
-2.863386377953006
 20
0.2583275166487937
 10
-2.863373587411962
 20
0.2582270421157846
 10
-2.863355726603247
 20
0.2581273439651716
 10
-2.863332841334162
 20
0.2580286778910502
 10
-2.863304990298156
 20
0.2579312969405672
 10
-2.86327224492429
 20
0.2578354508649353
 10
-2.863234689194051
 20
0.2577413854789007
 10
-2.86319241942596
 20
0.2576493420303065
 10
-2.863145544028548
 20
0.257559556581368
 10
-2.863094183222323
 20
0.2574722594032489
 10
-2.863038468731444
 20
0.257387674385488
 10
-2.862978543445885
 20
0.2573060184617942
 10
-2.862914561054974
 20
0.2572275010536806
 10
-2.862846685653224
 20
0.2571523235333641
 10
-2.862775091319486
 20
0.2570806787073104
 10
-2.86269996167049
 20
0.2570127503217461
 10
-2.862621489389927
 20
0.2569487125914082
 10
-2.862539875734276
 20
0.2568887297527385
 10
-2.862455330016645
 20
0.2568329556426697
 10
-2.862368069069952
 20
0.2567815333040819
 10
-2.862278316690813
 20
0.2567345946189434
 10
-2.862186303065579
 20
0.2566922599700754
 10
-2.862092264179976
 20
0.2566546379324081
 10
-2.861996441213884
 20
0.2566218249945202
 10
-2.861899079922779
 20
0.2565939053111774
 10
-2.861800430007454
 20
0.2565709504875008
 10
-2.861700744473614
 20
0.256553019395329
 10
-2.851792866472438
 20
0.255028730472209
 10
-2.851692008096856
 20
0.2550105572381664
 10
-2.851592213045893
 20
0.2549872414460055
 10
-2.85149374334838
 20
0.2549588443152984
 10
-2.851396857553206
 20
0.2549254404075277
 10
-2.851301810050459
 20
0.2548871174303182
 10
-2.851208850403475
 20
0.2548439760071457
 10
-2.851118222693573
 20
0.2547961294131331
 10
-2.851030164879175
 20
0.2547437032776274
 10
-2.850944908171005
 20
0.2546868352543383
 10
-2.850862676425011
 20
0.2546256746599051
 10
-2.850783685554586
 20
0.2545603820818408
 10
-2.850708142963658
 20
0.2544911289568821
 10
-2.85063624700211
 20
0.2544180971208532
 10
-2.850568186444981
 20
0.2543414783312251
 10
-2.850504139996808
 20
0.2542614737636237
 10
-2.850444275822401
 20
0.2541782934836093
 10
-2.850388751105303
 20
0.2540921558951136
 10
-2.850337711635074
 20
0.2540032871669833
 10
-2.8502912914245
 20
0.2539119206391353
 10
-2.850249612357717
 20
0.2538182962098834
 10
-2.850212783870181
 20
0.2537226597060445
 10
-2.850180902661333
 20
0.2536252622374782
 10
-2.850154052440694
 20
0.253526359537756
 10
-2.850132303708071
 20
0.2534262112926891
 10
-2.84870630168308
 20
0.2459397006614791
 10
-2.848684572123326
 20
0.2458396309512794
 10
-2.848657749067896
 20
0.2457408046169145
 10
-2.848625902834241
 20
0.2456434807346012
 10
-2.848589116908222
 20
0.2455479144418329
 10
-2.848547487725253
 20
0.245454356268529
 10
-2.848501124417495
 20
0.2453630514802633
 10
-2.848450148527756
 20
0.2452742394352924
 10
-2.84839469369087
 20
0.2451881529570714
 10
-2.848334905283364
 20
0.2451050177239
 10
-2.848270940042352
 20
0.2450250516772998
 10
-2.848202965654643
 20
0.2449484644506743
 10
-2.848131160317145
 20
0.2448754568197484
 10
-2.848055712269717
 20
0.244806220176229
 10
-2.847976819301691
 20
0.2447409360260658
 10
-2.847894688233361
 20
0.2446797755136278
 10
-2.847809534373803
 20
0.2446228989730433
 10
-2.847721580956426
 20
0.2445704555078793
 10
-2.847631058553769
 20
0.2445225826002617
 10
-2.84753820447304
 20
0.2444794057504621
 10
-2.847443262134014
 20
0.2444410381478947
 10
-2.847346480430896
 20
0.244407580374387
 10
-2.84724811307984
 20
0.2443791201405016
 10
-2.847148417953825
 20
0.2443557320556002
 10
-2.84704765640663
 20
0.2443374774322528
 10
-2.846946092587692
 20
0.2443244041255054
 10
-2.846843992749626
 20
0.2443165464074258
 10
-2.846741624550237
 20
0.2443139248772591
 10
-2.560396630105133
 20
0.2443139248770591
 10
-2.560293734250179
 20
0.2443165735201283
 10
-2.560191110929618
 20
0.2443245124340259
 10
-2.560089031955996
 20
0.2443377205914026
 10
-2.55998776770008
 20
0.2443561630085638
 10
-2.559887586374739
 20
0.2443797908381293
 10
-2.559788753324548
 20
0.2444085414984119
 10
-2.559691530322977
 20
0.2444423388391746
 10
-2.559596174879059
 20
0.2444810933433251
 10
-2.559502939555327
 20
0.2445247023640144
 10
-2.559412071298875
 20
0.2445730503965122
 10
-2.559323810787282
 20
0.2446260093841374
 10
-2.55923839179114
 20
0.2446834390574343
 10
-2.559156040554881
 20
0.2447451873056968
 10
-2.559076975197535
 20
0.2448110905798551
 10
-2.559001405135015
 20
0.244880974325659
 10
-2.558929530525441
 20
0.2449546534460094
 10
-2.558861541739001
 20
0.2450319327912148
 10
-2.558797618853724
 20
0.2451126076758732
 10
-2.558737931178514
 20
0.2451964644210105
 10
-2.558682636804721
 20
0.2452832809200399
 10
-2.558631882187403
 20
0.2453728272270428
 10
-2.558585801757427
 20
0.2454648661658139
 10
-2.558544517565403
 20
0.245559153958056
 10
-2.558508138958421
 20
0.2456554408690615
 10
-2.558476762290426
 20
0.245753471869171
 10
-2.558450470667012
 20
0.2458529873092555
 10
-2.558429333725306
 20
0.2459537236084343
 10
-2.558413407449522
 20
0.2460554139522067
 10
-2.558402734022679
 20
0.2461577889991486
 10
-2.558397341714874
 20
0.2462605775943014
 10
-2.55839724480841
 20
0.2463635074873649
 10
-2.558402443559953
 20
0.2464663060537912
 10
-2.558412924199868
 20
0.24656870101687
 10
-2.558428658968682
 20
0.2466704211688991
 10
-2.559141396776329
 20
0.2506049569984291
 10
-2.559162485177783
 20
0.2507063336323644
 10
-2.559188792170461
 20
0.2508064829445017
 10
-2.559220247238849
 20
0.2509051364860398
 10
-2.559256766068088
 20
0.2510020298175769
 10
-2.55929825076998
 20
0.2510969032179285
 10
-2.559344590145377
 20
0.2511895023803066
 10
-2.55939565998225
 20
0.2512795790939858
 10
-2.559451323388631
 20
0.2513668919096279
 10
-2.55951143115956
 20
0.2514512067864837
 10
-2.559575822177021
 20
0.2515322977197363
 10
-2.559644323841814
 20
0.2516099473463029
 10
-2.55971675253621
 20
0.2516839475274741
 10
-2.559792914116135
 20
0.2517540999068263
 10
-2.559872604431565
 20
0.2518202164419138
 10
-2.559955609873755
 20
0.2518821199083132
 10
-2.560041707947807
 20
0.2519396443746713
 10
-2.560130667869071
 20
0.2519926356474819
 10
-2.560222251181754
 20
0.2520409516843987
 10
-2.560316212398101
 20
0.2520844629749782
 10
-2.56041229965642
 20
0.2521230528878308
 10
-2.560510255396196
 20
0.2521566179832487
 10
-2.560609817048472
 20
0.2521850682904757
 10
-2.560710717739671
 20
0.2522083275488714
 10
-2.560812687006935
 20
0.252226333412329
 10
-2.569693311010939
 20
0.2535584270128691
 10
-2.569793326445575
 20
0.2535760364675512
 10
-2.569892319080012
 20
0.2535987000591999
 10
-2.569990033682037
 20
0.2536263593543912
 10
-2.570086218314578
 20
0.2536589430393022
 10
-2.570180624985276
 20
0.2536963671035806
 10
-2.570273010285883
 20
0.2537385350569479
 10
-2.570363136019838
 20
0.2537853381779803
 10
-2.570450769816412
 20
0.2538366557944241
 10
-2.570535685729823
 20
0.2538923555943245
 10
-2.570617664821795
 20
0.2539522939671654
 10
-2.570696495726045
 20
0.2540163163741387
 10
-2.570771975193243
 20
0.2540842577465916
 10
-2.570843908615057
 20
0.2541559429116224
 10
-2.570912110525904
 20
0.2542311870437273
 10
-2.570976405081137
 20
0.2543097961413357
 10
-2.571036626510424
 20
0.254391567527003
 10
-2.571092619545155
 20
0.2544762903699733
 10
-2.571144239818768
 20
0.2545637462297629
 10
-2.571191354238968
 20
0.2546537096193645
 10
-2.57123384133088
 20
0.254745948586619
 10
-2.571271591550249
 20
0.2548402253122572
 10
-2.571304507565869
 20
0.2549362967230672
 10
-2.571332504510544
 20
0.2550339151186096
 10
-2.57135551019989
 20
0.2551328288098616
 10
-2.571373465318453
 20
0.2552327827681463
 10
-2.57138632357264
 20
0.2553335192826713
 10
-2.571394051810078
 20
0.2554347786249834
 10
-2.571396630105093
 20
0.2555362997186191
 10
-2.571396630105044
 20
0.261613924877049
 10
-2.571398685802912
 20
0.2616924288114134
 10
-2.571404847261991
 20
0.2617707175719505
 10
-2.571415097594151
 20
0.2618485765746094
 10
-2.571429408703943
 20
0.2619257924132757
 10
-2.571447741365611
 20
0.2620021534447028
 10
-2.571470045330601
 20
0.2620774503686115
 10
-2.571496259465298
 20
0.262151476801367
 10
-2.57152631191858
 20
0.2622240298416628
 10
-2.571560120318761
 20
0.2622949106266583
 10
-2.571597591999367
 20
0.2623639248770491
 10
-2.571638624253126
 20
0.2624308834295715
 10
-2.571683104613482
 20
0.2624956027554878
 10
-2.571730911162859
 20
0.2625579054636238
 10
-2.571781912866828
 20
0.2626176207865873
 10
-2.571835969933264
 20
0.2626745850488289
 10
-2.571892934195506
 20
0.2627286421152651
 10
-2.571952649518469
 20
0.2627796438192345
 10
-2.572014952226606
 20
0.2628274503686114
 10
-2.572079671552522
 20
0.2628719307289672
 10
-2.572146630105044
 20
0.2629129629827257
 10
-2.572215644355435
 20
0.2629504346633316
 10
-2.572286525140431
 20
0.262984243063513
 10
-2.572359078180726
 20
0.2630142955167948
 10
-2.572433104613482
 20
0.2630405096514918
 10
-2.57250840153739
 20
0.2630628136164826
 10
-2.572584762568817
 20
0.2630811462781497
 10
-2.572661978407484
 20
0.2630954573879418
 10
-2.572739837410143
 20
0.2631057077201014
 10
-2.57281812617068
 20
0.2631118691791809
 10
-2.572896630105044
 20
0.263113924877049
 10
-2.573196630105044
 20
0.263113924877049
 10
-2.573221954689463
 20
0.2631145666234636
 10
-2.573247214266037
 20
0.2631164902153531
 10
-2.573272343993796
 20
0.263119690714885
 10
-2.573297279365088
 20
0.2631241599064228
 10
-2.573321956371173
 20
0.263129886317616
 10
-2.57334631166653
 20
0.2631368552488491
 10
-2.573370282731466
 20
0.2631450488109755
 10
-2.5733938080326
 20
0.2631544459712389
 10
-2.573416827180822
 20
0.2631650226072637
 10
-2.573439281086309
 20
0.2631767515689767
 10
-2.573461112110207
 20
0.2631896027483017
 10
-2.573482264212591
 20
0.2632035431564454
 10
-2.573502683096317
 20
0.2632185370085802
 10
-2.573522316346404
 20
0.2632345458157027
 10
-2.573541113564581
 20
0.2632515284834345
 10
-2.573559026498658
 20
0.2632694414175112
 10
-2.57357600916639
 20
0.263288238635688
 10
-2.573592017973512
 20
0.2633078718857753
 10
-2.573607011825647
 20
0.2633282907695016
 10
-2.573620952233791
 20
0.2633494428718856
 10
-2.573633803413116
 20
0.2633712738957835
 10
-2.573645532374829
 20
0.2633937278012702
 10
-2.573656109010853
 20
0.2634167469494924
 10
-2.573665506171117
 20
0.2634402722506266
 10
-2.573673699733243
 20
0.2634642433155624
 10
-2.573680668664476
 20
0.2634885986109197
 10
-2.57368639507567
 20
0.2635132756170047
 10
-2.573690864267208
 20
0.2635382109882968
 10
-2.573694064766739
 20
0.2635633407160554
 10
-2.573695988358629
 20
0.2635886002926297
 10
-2.573696630105043
 20
0.263613924877049
 10
-2.573696630105043
 20
0.263813924877049
 10
-2.573697315337666
 20
0.2638400928551706
 10
-2.573699369157359
 20
0.2638661891086829
 10
-2.573702785934746
 20
0.2638921421095692
 10
-2.573707556304677
 20
0.263917880722458
 10
-2.573713667191899
 20
0.2639433343996004
 10
-2.573721101846896
 20
0.2639684333742365
 10
-2.573729839891794
 20
0.2639931088518217
 10
-2.573739857376222
 20
0.264017293198587
 10
-2.57375112684295
 20
0.2640409201269189
 10
-2.573763617403151
 20
0.2640639248770491
 10
-2.573777294821071
 20
0.2640862443945566
 10
-2.573792121607856
 20
0.2641078175031953
 10
-2.573808057124315
 20
0.264128585072574
 10
-2.573825057692305
 20
0.2641484901802285
 10
-2.57384307671445
 20
0.2641674782676423
 10
-2.573862064801864
 20
0.2641854972897877
 10
-2.573881969909519
 20
0.2642024978577776
 10
-2.573902737478897
 20
0.2642184333742366
 10
-2.573924310587536
 20
0.2642332601610218
 10
-2.573946630105044
 20
0.2642469375789412
 10
-2.573969634855174
 20
0.2642594281391432
 10
-2.573993261783506
 20
0.2642706976058704
 10
-2.574017446130271
 20
0.2642807150902977
 10
-2.574042121607856
 20
0.2642894531351966
 10
-2.574067220582492
 20
0.2642968877901936
 10
-2.574092674259635
 20
0.2643029986774159
 10
-2.574118412872523
 20
0.2643077690473466
 10
-2.57414436587341
 20
0.2643111858247332
 10
-2.574170462126922
 20
0.2643132396444264
 10
-2.574196630105043
 20
0.264313924877049
 10
-2.589149654133172
 20
0.264313924877089
 97
        0
 92
       18
 72
     0
 73
     1
 93
      120
 10
-2.699978516252003
 20
0.2503358372956059
 10
-2.700187286280102
 20
0.2503194067380607
 10
-2.700396630105073
 20
0.250313924877079
 10
-2.700605973930045
 20
0.2503194067380607
 10
-2.700814743958144
 20
0.2503358372956059
 10
-2.701022367965234
 20
0.2503631715146985
 10
-2.701228276868345
 20
0.2504013344741438
 10
-2.701431906285483
 20
0.2504502215719228
 10
-2.701632698082573
 20
0.2505096988118984
 10
-2.701830101903254
 20
0.2505796031710902
 10
-2.702023576677376
 20
0.2506597430465087
 10
-2.702212592104031
 20
0.2507498987803256
 10
-2.702396630105073
 20
0.2508498232619413
 10
-2.702575186245133
 20
0.2509592426052974
 10
-2.702747771114243
 20
0.2510778568995792
 10
-2.702913911669273
 20
0.2512053410312511
 10
-2.703073152530509
 20
0.2513413455751695
 10
-2.703225057229819
 20
0.2514854977523329
 10
-2.703369209406983
 20
0.2516374024516436
 10
-2.703505213950901
 20
0.2517966433128797
 10
-2.703632698082573
 20
0.2519627838679092
 10
-2.703751312376855
 20
0.252135368737019
 10
-2.703860731720211
 20
0.252313924877079
 10
-2.703960656201827
 20
0.2524979628781209
 10
-2.704050811935644
 20
0.2526869783047758
 10
-2.704130951811062
 20
0.2528804530788978
 10
-2.704200856170254
 20
0.2530778568995792
 10
-2.70426033341023
 20
0.253278648696669
 10
-2.704309220508009
 20
0.253482278113808
 10
-2.704347383467454
 20
0.2536881870169181
 10
-2.704374717686546
 20
0.2538958110240084
 10
-2.704391148244092
 20
0.2541045810521073
 10
-2.704396630105073
 20
0.254313924877079
 10
-2.704391148244092
 20
0.2545232687020508
 10
-2.704374717686546
 20
0.2547320387301497
 10
-2.704347383467454
 20
0.25493966273724
 10
-2.704309220508009
 20
0.2551455716403501
 10
-2.70426033341023
 20
0.2553492010574892
 10
-2.704200856170254
 20
0.2555499928545789
 10
-2.704130951811062
 20
0.2557473966752603
 10
-2.704050811935644
 20
0.2559408714493823
 10
-2.703960656201827
 20
0.2561298868760372
 10
-2.703860731720211
 20
0.256313924877079
 10
-2.703751312376855
 20
0.2564924810171392
 10
-2.703632698082573
 20
0.2566650658862489
 10
-2.703505213950901
 20
0.2568312064412784
 10
-2.703369209406983
 20
0.2569904473025145
 10
-2.703225057229819
 20
0.2571423520018253
 10
-2.703073152530509
 20
0.2572865041789886
 10
-2.702913911669273
 20
0.2574225087229069
 10
-2.702747771114243
 20
0.2575499928545788
 10
-2.702575186245133
 20
0.2576686071488608
 10
-2.702396630105073
 20
0.2577780264922168
 10
-2.702212592104031
 20
0.2578779509738325
 10
-2.702023576677376
 20
0.2579681067076495
 10
-2.701830101903254
 20
0.2580482465830679
 10
-2.701632698082573
 20
0.2581181509422596
 10
-2.701431906285483
 20
0.2581776281822353
 10
-2.701228276868345
 20
0.2582265152800143
 10
-2.701022367965234
 20
0.2582646782394596
 10
-2.700814743958144
 20
0.2582920124585522
 10
-2.700605973930045
 20
0.2583084430160973
 10
-2.700396630105073
 20
0.258313924877079
 10
-2.700187286280102
 20
0.2583084430160973
 10
-2.699978516252003
 20
0.2582920124585522
 10
-2.699770892244913
 20
0.2582646782394596
 10
-2.699564983341802
 20
0.2582265152800143
 10
-2.699361353924663
 20
0.2581776281822353
 10
-2.699160562127573
 20
0.2581181509422596
 10
-2.698963158306892
 20
0.2580482465830679
 10
-2.69876968353277
 20
0.2579681067076495
 10
-2.698580668106115
 20
0.2578779509738325
 10
-2.698396630105073
 20
0.2577780264922168
 10
-2.698218073965013
 20
0.2576686071488608
 10
-2.698045489095903
 20
0.2575499928545788
 10
-2.697879348540874
 20
0.2574225087229069
 10
-2.697720107679638
 20
0.2572865041789886
 10
-2.697568202980327
 20
0.2571423520018253
 10
-2.697424050803164
 20
0.2569904473025145
 10
-2.697288046259245
 20
0.2568312064412784
 10
-2.697160562127574
 20
0.2566650658862489
 10
-2.697041947833291
 20
0.2564924810171392
 10
-2.696932528489936
 20
0.256313924877079
 10
-2.69683260400832
 20
0.2561298868760372
 10
-2.696742448274503
 20
0.2559408714493823
 10
-2.696662308399084
 20
0.2557473966752603
 10
-2.696592404039893
 20
0.2555499928545789
 10
-2.696532926799917
 20
0.2553492010574892
 10
-2.696484039702138
 20
0.2551455716403501
 10
-2.696445876742693
 20
0.2549396627372399
 10
-2.6964185425236
 20
0.2547320387301497
 10
-2.696402111966055
 20
0.2545232687020508
 10
-2.696396630105073
 20
0.254313924877079
 10
-2.696402111966055
 20
0.2541045810521073
 10
-2.6964185425236
 20
0.2538958110240084
 10
-2.696445876742693
 20
0.2536881870169181
 10
-2.696484039702138
 20
0.253482278113808
 10
-2.696532926799917
 20
0.253278648696669
 10
-2.696592404039893
 20
0.2530778568995792
 10
-2.696662308399084
 20
0.2528804530788978
 10
-2.696742448274503
 20
0.2526869783047758
 10
-2.69683260400832
 20
0.2524979628781209
 10
-2.696932528489936
 20
0.252313924877079
 10
-2.697041947833291
 20
0.252135368737019
 10
-2.697160562127574
 20
0.2519627838679092
 10
-2.697288046259245
 20
0.2517966433128797
 10
-2.697424050803164
 20
0.2516374024516436
 10
-2.697568202980327
 20
0.2514854977523329
 10
-2.697720107679638
 20
0.2513413455751695
 10
-2.697879348540874
 20
0.2512053410312511
 10
-2.698045489095903
 20
0.2510778568995792
 10
-2.698218073965013
 20
0.2509592426052974
 10
-2.698396630105073
 20
0.2508498232619413
 10
-2.698580668106115
 20
0.2507498987803256
 10
-2.69876968353277
 20
0.2506597430465087
 10
-2.698963158306892
 20
0.2505796031710902
 10
-2.699160562127573
 20
0.2505096988118984
 10
-2.699361353924663
 20
0.2504502215719228
 10
-2.699564983341802
 20
0.2504013344741438
 10
-2.699770892244913
 20
0.2503631715146985
 97
        0
 92
       18
 72
     0
 73
     1
 93
      120
 10
-2.652751312376855
 20
0.252135368737019
 10
-2.652860731720211
 20
0.252313924877079
 10
-2.652960656201827
 20
0.2524979628781209
 10
-2.653050811935644
 20
0.2526869783047758
 10
-2.653130951811062
 20
0.2528804530788978
 10
-2.653200856170254
 20
0.2530778568995792
 10
-2.65326033341023
 20
0.253278648696669
 10
-2.653309220508008
 20
0.253482278113808
 10
-2.653347383467454
 20
0.2536881870169181
 10
-2.653374717686547
 20
0.2538958110240084
 10
-2.653391148244092
 20
0.2541045810521073
 10
-2.653396630105073
 20
0.254313924877079
 10
-2.653391148244092
 20
0.2545232687020508
 10
-2.653374717686547
 20
0.2547320387301497
 10
-2.653347383467454
 20
0.25493966273724
 10
-2.653309220508008
 20
0.2551455716403501
 10
-2.65326033341023
 20
0.2553492010574892
 10
-2.653200856170254
 20
0.2555499928545789
 10
-2.653130951811062
 20
0.2557473966752603
 10
-2.653050811935644
 20
0.2559408714493823
 10
-2.652960656201827
 20
0.2561298868760372
 10
-2.652860731720211
 20
0.256313924877079
 10
-2.652751312376855
 20
0.2564924810171392
 10
-2.652632698082573
 20
0.2566650658862489
 10
-2.652505213950901
 20
0.2568312064412784
 10
-2.652369209406983
 20
0.2569904473025145
 10
-2.65222505722982
 20
0.2571423520018253
 10
-2.652073152530509
 20
0.2572865041789886
 10
-2.651913911669273
 20
0.2574225087229069
 10
-2.651747771114243
 20
0.2575499928545788
 10
-2.651575186245133
 20
0.2576686071488608
 10
-2.651396630105073
 20
0.2577780264922168
 10
-2.651212592104032
 20
0.2578779509738325
 10
-2.651023576677376
 20
0.2579681067076495
 10
-2.650830101903254
 20
0.2580482465830679
 10
-2.650632698082573
 20
0.2581181509422596
 10
-2.650431906285483
 20
0.2581776281822353
 10
-2.650228276868345
 20
0.2582265152800143
 10
-2.650022367965234
 20
0.2582646782394596
 10
-2.649814743958144
 20
0.2582920124585522
 10
-2.649605973930045
 20
0.2583084430160973
 10
-2.649396630105073
 20
0.258313924877079
 10
-2.649187286280101
 20
0.2583084430160973
 10
-2.648978516252003
 20
0.2582920124585522
 10
-2.648770892244912
 20
0.2582646782394596
 10
-2.648564983341802
 20
0.2582265152800143
 10
-2.648361353924663
 20
0.2581776281822353
 10
-2.648160562127574
 20
0.2581181509422596
 10
-2.647963158306892
 20
0.2580482465830679
 10
-2.64776968353277
 20
0.2579681067076495
 10
-2.647580668106115
 20
0.2578779509738325
 10
-2.647396630105073
 20
0.2577780264922168
 10
-2.647218073965013
 20
0.2576686071488608
 10
-2.647045489095903
 20
0.2575499928545788
 10
-2.646879348540874
 20
0.2574225087229069
 10
-2.646720107679638
 20
0.2572865041789886
 10
-2.646568202980327
 20
0.2571423520018253
 10
-2.646424050803164
 20
0.2569904473025145
 10
-2.646288046259245
 20
0.2568312064412784
 10
-2.646160562127573
 20
0.2566650658862489
 10
-2.646041947833292
 20
0.2564924810171392
 10
-2.645932528489936
 20
0.256313924877079
 10
-2.64583260400832
 20
0.2561298868760372
 10
-2.645742448274503
 20
0.2559408714493823
 10
-2.645662308399085
 20
0.2557473966752603
 10
-2.645592404039893
 20
0.2555499928545789
 10
-2.645532926799917
 20
0.2553492010574892
 10
-2.645484039702138
 20
0.2551455716403501
 10
-2.645445876742693
 20
0.2549396627372399
 10
-2.6454185425236
 20
0.2547320387301497
 10
-2.645402111966055
 20
0.2545232687020508
 10
-2.645396630105073
 20
0.254313924877079
 10
-2.645402111966055
 20
0.2541045810521073
 10
-2.6454185425236
 20
0.2538958110240084
 10
-2.645445876742693
 20
0.2536881870169181
 10
-2.645484039702138
 20
0.253482278113808
 10
-2.645532926799917
 20
0.253278648696669
 10
-2.645592404039893
 20
0.2530778568995792
 10
-2.645662308399085
 20
0.2528804530788978
 10
-2.645742448274503
 20
0.2526869783047758
 10
-2.64583260400832
 20
0.2524979628781209
 10
-2.645932528489936
 20
0.252313924877079
 10
-2.646041947833292
 20
0.252135368737019
 10
-2.646160562127573
 20
0.2519627838679092
 10
-2.646288046259245
 20
0.2517966433128797
 10
-2.646424050803164
 20
0.2516374024516436
 10
-2.646568202980327
 20
0.2514854977523329
 10
-2.646720107679638
 20
0.2513413455751695
 10
-2.646879348540874
 20
0.2512053410312511
 10
-2.647045489095903
 20
0.2510778568995792
 10
-2.647218073965013
 20
0.2509592426052974
 10
-2.647396630105073
 20
0.2508498232619413
 10
-2.647580668106115
 20
0.2507498987803256
 10
-2.64776968353277
 20
0.2506597430465087
 10
-2.647963158306892
 20
0.2505796031710902
 10
-2.648160562127574
 20
0.2505096988118984
 10
-2.648361353924663
 20
0.2504502215719228
 10
-2.648564983341802
 20
0.2504013344741438
 10
-2.648770892244912
 20
0.2503631715146985
 10
-2.648978516252003
 20
0.2503358372956059
 10
-2.649187286280101
 20
0.2503194067380607
 10
-2.649396630105073
 20
0.250313924877079
 10
-2.649605973930045
 20
0.2503194067380607
 10
-2.649814743958144
 20
0.2503358372956059
 10
-2.650022367965234
 20
0.2503631715146985
 10
-2.650228276868345
 20
0.2504013344741438
 10
-2.650431906285483
 20
0.2504502215719228
 10
-2.650632698082573
 20
0.2505096988118984
 10
-2.650830101903254
 20
0.2505796031710902
 10
-2.651023576677376
 20
0.2506597430465087
 10
-2.651212592104032
 20
0.2507498987803256
 10
-2.651396630105073
 20
0.2508498232619413
 10
-2.651575186245133
 20
0.2509592426052974
 10
-2.651747771114243
 20
0.2510778568995792
 10
-2.651913911669273
 20
0.2512053410312511
 10
-2.652073152530509
 20
0.2513413455751695
 10
-2.65222505722982
 20
0.2514854977523329
 10
-2.652369209406983
 20
0.2516374024516436
 10
-2.652505213950901
 20
0.2517966433128797
 10
-2.652632698082573
 20
0.2519627838679092
 97
        0
 92
       18
 72
     0
 73
     1
 93
      130
 10
-2.829480911162918
 20
0.2577579054636438
 10
-2.829433104613541
 20
0.2576956027555078
 10
-2.829388624253185
 20
0.2576308834295916
 10
-2.829347591999427
 20
0.257563924877069
 10
-2.829310120318821
 20
0.2574949106266783
 10
-2.829276311918639
 20
0.2574240298416827
 10
-2.829246259465358
 20
0.257351476801387
 10
-2.82922004533066
 20
0.2572774503686314
 10
-2.829197741365669
 20
0.2572021534447228
 10
-2.829179408704003
 20
0.2571257924132957
 10
-2.829165097594211
 20
0.2570485765746294
 10
-2.829154847262051
 20
0.2569707175719705
 10
-2.829148685802971
 20
0.2568924288114334
 10
-2.829146630105103
 20
0.2568139248770691
 10
-2.829146630105103
 20
0.254846485814919
 10
-2.829148411216338
 20
0.2547734094073232
 10
-2.829153750320232
 20
0.2547005065426748
 10
-2.829162634737404
 20
0.2546279503517888
 10
-2.829175043369003
 20
0.2545559131421943
 10
-2.829190946746828
 20
0.2544845659889357
 10
-2.829210307103297
 20
0.2544140783283012
 10
-2.829233078461147
 20
0.2543446175554434
 10
-2.829259206742616
 20
0.2542763486268459
 10
-2.829288629897869
 20
0.2542094336685832
 10
-2.829321278052356
 20
0.2541440315913004
 10
-2.829357073672752
 20
0.2540802977128305
 10
-2.829395931751081
 20
0.2540183833893427
 10
-2.829437760006595
 20
0.2539584356558999
 10
-2.829482459104929
 20
0.2539005968772791
 10
-2.831946414866938
 20
0.2508680359394291
 10
-2.831997417436511
 20
0.2508085115068015
 10
-2.832051459905894
 20
0.2507517327107108
 10
-2.832108394693024
 20
0.2506978546057243
 10
-2.832168066317344
 20
0.2506470243250491
 10
-2.832230311824395
 20
0.2505993806787307
 10
-2.832294961230821
 20
0.2505550537745833
 10
-2.832361837988569
 20
0.2505141646628845
 10
-2.832430759467019
 20
0.2504768250058045
 10
-2.832501537451714
 20
0.2504431367724735
 10
-2.832573978658354
 20
0.2504131919605184
 10
-2.832647885260622
 20
0.2503870723448312
 10
-2.832723055430422
 20
0.2503648492542535
 10
-2.832799283889038
 20
0.2503465833767881
 10
-2.832876362467723
 20
0.250332324593869
 10
-2.832954080676179
 20
0.2503221118441421
 10
-2.833032226277369
 20
0.2503159730171299
 10
-2.833110585867113
 20
0.250313924877069
 10
-2.839684400252977
 20
0.250313924877069
 10
-2.839762594450017
 20
0.2503159643744024
 10
-2.839840576011248
 20
0.2503220773203366
 10
-2.839918132879089
 20
0.2503322470917558
 10
-2.83999505415084
 20
0.2503464460336978
 10
-2.840071130652196
 20
0.2503646355345568
 10
-2.840146155506062
 20
0.2503867661310815
 10
-2.840219924695117
 20
0.2504127776428819
 10
-2.840292237616611
 20
0.2504425993360793
 10
-2.840362897627861
 20
0.2504761501156554
 10
-2.840431712580996
 20
0.2505133387459762
 10
-2.840498495345464
 20
0.2505540640988919
 10
-2.840563064316904
 20
0.2505982154287375
 10
-2.840625243910991
 20
0.2506456726734871
 10
-2.840684865040903
 20
0.250696306781242
 10
-2.840741765577125
 20
0.2507499800611651
 10
-2.840795790788335
 20
0.250806546557908
 10
-2.840846793762168
 20
0.2508658524485091
 10
-2.843309023614295
 20
0.253884693532839
 10
-2.843353950553509
 20
0.2539426101689332
 10
-2.843395994536731
 20
0.2540026524047197
 10
-2.843435055167289
 20
0.2540646768655703
 10
-2.843471039172449
 20
0.2541285354435064
 10
-2.84350386062614
 20
0.2541940756508682
 10
-2.843533441154134
 20
0.254261140984439
 10
-2.843559710121201
 20
0.2543295712991591
 10
-2.843582604799769
 20
0.2543992031905353
 10
-2.843602070519724
 20
0.2544698703848342
 10
-2.843618060798943
 20
0.2545414041361259
 10
-2.8436305374543
 20
0.254613633629233
 10
-2.843639470692835
 20
0.2546863863876183
 10
-2.843644839182902
 20
0.2547594886852415
 10
-2.843646630105103
 20
0.254832765961399
 10
-2.843646630105103
 20
0.2568139248770691
 10
-2.843644574407235
 20
0.2568924288114334
 10
-2.843638412948156
 20
0.2569707175719705
 10
-2.843628162615996
 20
0.2570485765746294
 10
-2.843613851506204
 20
0.2571257924132957
 10
-2.843595518844537
 20
0.2572021534447228
 10
-2.843573214879546
 20
0.2572774503686315
 10
-2.843547000744849
 20
0.257351476801387
 10
-2.843516948291567
 20
0.2574240298416827
 10
-2.843483139891386
 20
0.2574949106266783
 10
-2.84344566821078
 20
0.257563924877069
 10
-2.843404635957021
 20
0.2576308834295916
 10
-2.843360155596666
 20
0.2576956027555078
 10
-2.843312349047288
 20
0.2577579054636438
 10
-2.843261347343319
 20
0.2578176207866074
 10
-2.843207290276883
 20
0.2578745850488489
 10
-2.843150326014642
 20
0.2579286421152852
 10
-2.843090610691678
 20
0.2579796438192545
 10
-2.843028307983542
 20
0.2580274503686315
 10
-2.842963588657626
 20
0.2580719307289872
 10
-2.842896630105103
 20
0.2581129629827457
 10
-2.842827615854712
 20
0.2581504346633516
 10
-2.842756735069717
 20
0.258184243063533
 10
-2.842684182029421
 20
0.2582142955168149
 10
-2.842610155596666
 20
0.2582405096515118
 10
-2.842534858672757
 20
0.2582628136165026
 10
-2.84245849764133
 20
0.2582811462781697
 10
-2.842381281802663
 20
0.2582954573879617
 10
-2.842303422800005
 20
0.2583057077201215
 10
-2.842225134039468
 20
0.2583118691792009
 10
-2.842146630105103
 20
0.2583139248770691
 10
-2.834896630105075
 20
0.2583139248770691
 10
-2.834896630105075
 20
0.2583084430159191
 10
-2.830646630105103
 20
0.2583139248770691
 10
-2.830568126170739
 20
0.2583118691792009
 10
-2.830489837410202
 20
0.2583057077201215
 10
-2.830411978407543
 20
0.2582954573879617
 10
-2.830334762568877
 20
0.2582811462781697
 10
-2.83025840153745
 20
0.2582628136165026
 10
-2.830183104613541
 20
0.2582405096515118
 10
-2.830109078180785
 20
0.2582142955168149
 10
-2.83003652514049
 20
0.258184243063533
 10
-2.829965644355494
 20
0.2581504346633516
 10
-2.829896630105103
 20
0.2581129629827457
 10
-2.829829671552581
 20
0.2580719307289872
 10
-2.829764952226665
 20
0.2580274503686315
 10
-2.829702649518528
 20
0.2579796438192545
 10
-2.829642934195565
 20
0.2579286421152852
 10
-2.829585969933323
 20
0.2578745850488489
 10
-2.829531912866887
 20
0.2578176207866074
 97
        0
 92
       18
 72
     0
 73
     1
 93
      120
 10
-2.634431906285483
 20
0.2504502215719228
 10
-2.634632698082573
 20
0.2505096988118984
 10
-2.634830101903254
 20
0.2505796031710902
 10
-2.635023576677376
 20
0.2506597430465087
 10
-2.635212592104032
 20
0.2507498987803256
 10
-2.635396630105073
 20
0.2508498232619413
 10
-2.635575186245133
 20
0.2509592426052974
 10
-2.635747771114243
 20
0.2510778568995792
 10
-2.635913911669273
 20
0.2512053410312511
 10
-2.636073152530509
 20
0.2513413455751695
 10
-2.63622505722982
 20
0.2514854977523329
 10
-2.636369209406983
 20
0.2516374024516436
 10
-2.636505213950901
 20
0.2517966433128797
 10
-2.636632698082573
 20
0.2519627838679092
 10
-2.636751312376855
 20
0.252135368737019
 10
-2.636860731720211
 20
0.252313924877079
 10
-2.636960656201827
 20
0.2524979628781209
 10
-2.637050811935644
 20
0.2526869783047758
 10
-2.637130951811062
 20
0.2528804530788978
 10
-2.637200856170254
 20
0.2530778568995792
 10
-2.63726033341023
 20
0.253278648696669
 10
-2.637309220508008
 20
0.253482278113808
 10
-2.637347383467454
 20
0.2536881870169181
 10
-2.637374717686547
 20
0.2538958110240084
 10
-2.637391148244092
 20
0.2541045810521073
 10
-2.637396630105073
 20
0.254313924877079
 10
-2.637391148244092
 20
0.2545232687020508
 10
-2.637374717686547
 20
0.2547320387301497
 10
-2.637347383467454
 20
0.25493966273724
 10
-2.637309220508008
 20
0.2551455716403501
 10
-2.63726033341023
 20
0.2553492010574892
 10
-2.637200856170254
 20
0.2555499928545789
 10
-2.637130951811062
 20
0.2557473966752603
 10
-2.637050811935644
 20
0.2559408714493823
 10
-2.636960656201827
 20
0.2561298868760372
 10
-2.636860731720211
 20
0.256313924877079
 10
-2.636751312376855
 20
0.2564924810171392
 10
-2.636632698082573
 20
0.2566650658862489
 10
-2.636505213950901
 20
0.2568312064412784
 10
-2.636369209406983
 20
0.2569904473025145
 10
-2.63622505722982
 20
0.2571423520018253
 10
-2.636073152530509
 20
0.2572865041789886
 10
-2.635913911669273
 20
0.2574225087229069
 10
-2.635747771114243
 20
0.2575499928545788
 10
-2.635575186245133
 20
0.2576686071488608
 10
-2.635396630105073
 20
0.2577780264922168
 10
-2.635212592104032
 20
0.2578779509738325
 10
-2.635023576677376
 20
0.2579681067076495
 10
-2.634830101903254
 20
0.2580482465830679
 10
-2.634632698082573
 20
0.2581181509422596
 10
-2.634431906285483
 20
0.2581776281822353
 10
-2.634228276868344
 20
0.2582265152800143
 10
-2.634022367965234
 20
0.2582646782394596
 10
-2.633814743958144
 20
0.2582920124585522
 10
-2.633605973930045
 20
0.2583084430160973
 10
-2.633396630105073
 20
0.258313924877079
 10
-2.633187286280101
 20
0.2583084430160973
 10
-2.632978516252003
 20
0.2582920124585522
 10
-2.632770892244912
 20
0.2582646782394596
 10
-2.632564983341802
 20
0.2582265152800143
 10
-2.632361353924663
 20
0.2581776281822353
 10
-2.632160562127574
 20
0.2581181509422596
 10
-2.631963158306892
 20
0.2580482465830679
 10
-2.63176968353277
 20
0.2579681067076495
 10
-2.631580668106115
 20
0.2578779509738325
 10
-2.631396630105073
 20
0.2577780264922168
 10
-2.631218073965013
 20
0.2576686071488608
 10
-2.631045489095903
 20
0.2575499928545788
 10
-2.630879348540874
 20
0.2574225087229069
 10
-2.630720107679638
 20
0.2572865041789886
 10
-2.630568202980327
 20
0.2571423520018253
 10
-2.630424050803164
 20
0.2569904473025145
 10
-2.630288046259245
 20
0.2568312064412784
 10
-2.630160562127573
 20
0.2566650658862489
 10
-2.630041947833292
 20
0.2564924810171392
 10
-2.629932528489936
 20
0.256313924877079
 10
-2.62983260400832
 20
0.2561298868760372
 10
-2.629742448274503
 20
0.2559408714493823
 10
-2.629662308399085
 20
0.2557473966752603
 10
-2.629592404039893
 20
0.2555499928545789
 10
-2.629532926799917
 20
0.2553492010574892
 10
-2.629484039702138
 20
0.2551455716403501
 10
-2.629445876742693
 20
0.2549396627372399
 10
-2.6294185425236
 20
0.2547320387301497
 10
-2.629402111966055
 20
0.2545232687020508
 10
-2.629396630105073
 20
0.254313924877079
 10
-2.629402111966055
 20
0.2541045810521073
 10
-2.6294185425236
 20
0.2538958110240084
 10
-2.629445876742693
 20
0.2536881870169181
 10
-2.629484039702138
 20
0.253482278113808
 10
-2.629532926799917
 20
0.253278648696669
 10
-2.629592404039893
 20
0.2530778568995792
 10
-2.629662308399085
 20
0.2528804530788978
 10
-2.629742448274503
 20
0.2526869783047758
 10
-2.62983260400832
 20
0.2524979628781209
 10
-2.629932528489936
 20
0.252313924877079
 10
-2.630041947833292
 20
0.252135368737019
 10
-2.630160562127573
 20
0.2519627838679092
 10
-2.630288046259245
 20
0.2517966433128797
 10
-2.630424050803164
 20
0.2516374024516436
 10
-2.630568202980327
 20
0.2514854977523329
 10
-2.630720107679638
 20
0.2513413455751695
 10
-2.630879348540874
 20
0.2512053410312511
 10
-2.631045489095903
 20
0.2510778568995792
 10
-2.631218073965013
 20
0.2509592426052974
 10
-2.631396630105073
 20
0.2508498232619413
 10
-2.631580668106115
 20
0.2507498987803256
 10
-2.63176968353277
 20
0.2506597430465087
 10
-2.631963158306892
 20
0.2505796031710902
 10
-2.632160562127574
 20
0.2505096988118984
 10
-2.632361353924663
 20
0.2504502215719228
 10
-2.632564983341802
 20
0.2504013344741438
 10
-2.632770892244912
 20
0.2503631715146985
 10
-2.632978516252003
 20
0.2503358372956059
 10
-2.633187286280101
 20
0.2503194067380607
 10
-2.633396630105073
 20
0.250313924877079
 10
-2.633605973930045
 20
0.2503194067380607
 10
-2.633814743958144
 20
0.2503358372956059
 10
-2.634022367965234
 20
0.2503631715146985
 10
-2.634228276868344
 20
0.2504013344741438
 97
        0
 92
       18
 72
     0
 73
     1
 93
      120
 10
-2.787309220508008
 20
0.253482278113808
 10
-2.787347383467454
 20
0.2536881870169181
 10
-2.787374717686546
 20
0.2538958110240084
 10
-2.787391148244092
 20
0.2541045810521073
 10
-2.787396630105073
 20
0.254313924877079
 10
-2.787391148244092
 20
0.2545232687020508
 10
-2.787374717686546
 20
0.2547320387301497
 10
-2.787347383467454
 20
0.25493966273724
 10
-2.787309220508008
 20
0.2551455716403501
 10
-2.787260333410229
 20
0.2553492010574892
 10
-2.787200856170254
 20
0.2555499928545789
 10
-2.787130951811062
 20
0.2557473966752603
 10
-2.787050811935644
 20
0.2559408714493823
 10
-2.786960656201827
 20
0.2561298868760372
 10
-2.786860731720211
 20
0.256313924877079
 10
-2.786751312376855
 20
0.2564924810171392
 10
-2.786632698082573
 20
0.2566650658862489
 10
-2.786505213950901
 20
0.2568312064412784
 10
-2.786369209406983
 20
0.2569904473025145
 10
-2.78622505722982
 20
0.2571423520018253
 10
-2.786073152530509
 20
0.2572865041789886
 10
-2.785913911669273
 20
0.2574225087229069
 10
-2.785747771114243
 20
0.2575499928545788
 10
-2.785575186245134
 20
0.2576686071488608
 10
-2.785396630105073
 20
0.2577780264922168
 10
-2.785212592104032
 20
0.2578779509738325
 10
-2.785023576677376
 20
0.2579681067076495
 10
-2.784830101903254
 20
0.2580482465830679
 10
-2.784632698082573
 20
0.2581181509422596
 10
-2.784431906285483
 20
0.2581776281822353
 10
-2.784228276868344
 20
0.2582265152800143
 10
-2.784022367965234
 20
0.2582646782394596
 10
-2.783814743958144
 20
0.2582920124585522
 10
-2.783605973930045
 20
0.2583084430160973
 10
-2.783396630105073
 20
0.258313924877079
 10
-2.783187286280102
 20
0.2583084430160973
 10
-2.782978516252002
 20
0.2582920124585522
 10
-2.782770892244912
 20
0.2582646782394596
 10
-2.782564983341802
 20
0.2582265152800143
 10
-2.782361353924663
 20
0.2581776281822353
 10
-2.782160562127574
 20
0.2581181509422596
 10
-2.781963158306892
 20
0.2580482465830679
 10
-2.78176968353277
 20
0.2579681067076495
 10
-2.781580668106115
 20
0.2578779509738325
 10
-2.781396630105073
 20
0.2577780264922168
 10
-2.781218073965013
 20
0.2576686071488608
 10
-2.781045489095903
 20
0.2575499928545788
 10
-2.780879348540874
 20
0.2574225087229069
 10
-2.780720107679638
 20
0.2572865041789886
 10
-2.780568202980327
 20
0.2571423520018253
 10
-2.780424050803163
 20
0.2569904473025145
 10
-2.780288046259245
 20
0.2568312064412784
 10
-2.780160562127573
 20
0.2566650658862489
 10
-2.780041947833292
 20
0.2564924810171392
 10
-2.779932528489935
 20
0.256313924877079
 10
-2.77983260400832
 20
0.2561298868760372
 10
-2.779742448274503
 20
0.2559408714493823
 10
-2.779662308399085
 20
0.2557473966752603
 10
-2.779592404039893
 20
0.2555499928545789
 10
-2.779532926799917
 20
0.2553492010574892
 10
-2.779484039702138
 20
0.2551455716403501
 10
-2.779445876742693
 20
0.2549396627372399
 10
-2.7794185425236
 20
0.2547320387301497
 10
-2.779402111966055
 20
0.2545232687020508
 10
-2.779396630105073
 20
0.254313924877079
 10
-2.779402111966055
 20
0.2541045810521073
 10
-2.7794185425236
 20
0.2538958110240084
 10
-2.779445876742693
 20
0.2536881870169181
 10
-2.779484039702138
 20
0.253482278113808
 10
-2.779532926799917
 20
0.253278648696669
 10
-2.779592404039893
 20
0.2530778568995792
 10
-2.779662308399085
 20
0.2528804530788978
 10
-2.779742448274503
 20
0.2526869783047758
 10
-2.77983260400832
 20
0.2524979628781209
 10
-2.779932528489935
 20
0.252313924877079
 10
-2.780041947833292
 20
0.252135368737019
 10
-2.780160562127573
 20
0.2519627838679092
 10
-2.780288046259245
 20
0.2517966433128797
 10
-2.780424050803163
 20
0.2516374024516436
 10
-2.780568202980327
 20
0.2514854977523329
 10
-2.780720107679638
 20
0.2513413455751695
 10
-2.780879348540874
 20
0.2512053410312511
 10
-2.781045489095903
 20
0.2510778568995792
 10
-2.781218073965013
 20
0.2509592426052974
 10
-2.781396630105073
 20
0.2508498232619413
 10
-2.781580668106115
 20
0.2507498987803256
 10
-2.78176968353277
 20
0.2506597430465087
 10
-2.781963158306892
 20
0.2505796031710902
 10
-2.782160562127574
 20
0.2505096988118984
 10
-2.782361353924663
 20
0.2504502215719228
 10
-2.782564983341802
 20
0.2504013344741438
 10
-2.782770892244912
 20
0.2503631715146985
 10
-2.782978516252002
 20
0.2503358372956059
 10
-2.783187286280102
 20
0.2503194067380607
 10
-2.783396630105073
 20
0.250313924877079
 10
-2.783605973930045
 20
0.2503194067380607
 10
-2.783814743958144
 20
0.2503358372956059
 10
-2.784022367965234
 20
0.2503631715146985
 10
-2.784228276868344
 20
0.2504013344741438
 10
-2.784431906285483
 20
0.2504502215719228
 10
-2.784632698082573
 20
0.2505096988118984
 10
-2.784830101903254
 20
0.2505796031710902
 10
-2.785023576677376
 20
0.2506597430465087
 10
-2.785212592104032
 20
0.2507498987803256
 10
-2.785396630105073
 20
0.2508498232619413
 10
-2.785575186245134
 20
0.2509592426052974
 10
-2.785747771114243
 20
0.2510778568995792
 10
-2.785913911669273
 20
0.2512053410312511
 10
-2.786073152530509
 20
0.2513413455751695
 10
-2.78622505722982
 20
0.2514854977523329
 10
-2.786369209406983
 20
0.2516374024516436
 10
-2.786505213950901
 20
0.2517966433128797
 10
-2.786632698082573
 20
0.2519627838679092
 10
-2.786751312376855
 20
0.252135368737019
 10
-2.786860731720211
 20
0.252313924877079
 10
-2.786960656201827
 20
0.2524979628781209
 10
-2.787050811935644
 20
0.2526869783047758
 10
-2.787130951811062
 20
0.2528804530788978
 10
-2.787200856170254
 20
0.2530778568995792
 10
-2.787260333410229
 20
0.253278648696669
 97
        0
 92
       18
 72
     0
 73
     1
 93
      120
 10
-2.767605973930045
 20
0.2503194067380607
 10
-2.767814743958144
 20
0.2503358372956059
 10
-2.768022367965234
 20
0.2503631715146985
 10
-2.768228276868344
 20
0.2504013344741438
 10
-2.768431906285484
 20
0.2504502215719228
 10
-2.768632698082573
 20
0.2505096988118984
 10
-2.768830101903254
 20
0.2505796031710902
 10
-2.769023576677376
 20
0.2506597430465087
 10
-2.769212592104032
 20
0.2507498987803256
 10
-2.769396630105073
 20
0.2508498232619413
 10
-2.769575186245134
 20
0.2509592426052974
 10
-2.769747771114243
 20
0.2510778568995792
 10
-2.769913911669273
 20
0.2512053410312511
 10
-2.770073152530509
 20
0.2513413455751695
 10
-2.770225057229819
 20
0.2514854977523329
 10
-2.770369209406983
 20
0.2516374024516436
 10
-2.770505213950901
 20
0.2517966433128797
 10
-2.770632698082573
 20
0.2519627838679092
 10
-2.770751312376855
 20
0.252135368737019
 10
-2.770860731720211
 20
0.252313924877079
 10
-2.770960656201827
 20
0.2524979628781209
 10
-2.771050811935644
 20
0.2526869783047758
 10
-2.771130951811062
 20
0.2528804530788978
 10
-2.771200856170254
 20
0.2530778568995792
 10
-2.771260333410229
 20
0.253278648696669
 10
-2.771309220508008
 20
0.253482278113808
 10
-2.771347383467454
 20
0.2536881870169181
 10
-2.771374717686546
 20
0.2538958110240084
 10
-2.771391148244092
 20
0.2541045810521073
 10
-2.771396630105073
 20
0.254313924877079
 10
-2.771391148244092
 20
0.2545232687020508
 10
-2.771374717686546
 20
0.2547320387301497
 10
-2.771347383467454
 20
0.25493966273724
 10
-2.771309220508008
 20
0.2551455716403501
 10
-2.771260333410229
 20
0.2553492010574892
 10
-2.771200856170254
 20
0.2555499928545789
 10
-2.771130951811062
 20
0.2557473966752603
 10
-2.771050811935644
 20
0.2559408714493823
 10
-2.770960656201827
 20
0.2561298868760372
 10
-2.770860731720211
 20
0.256313924877079
 10
-2.770751312376855
 20
0.2564924810171392
 10
-2.770632698082573
 20
0.2566650658862489
 10
-2.770505213950901
 20
0.2568312064412784
 10
-2.770369209406983
 20
0.2569904473025145
 10
-2.770225057229819
 20
0.2571423520018253
 10
-2.770073152530509
 20
0.2572865041789886
 10
-2.769913911669273
 20
0.2574225087229069
 10
-2.769747771114243
 20
0.2575499928545788
 10
-2.769575186245134
 20
0.2576686071488608
 10
-2.769396630105073
 20
0.2577780264922168
 10
-2.769212592104032
 20
0.2578779509738325
 10
-2.769023576677376
 20
0.2579681067076495
 10
-2.768830101903254
 20
0.2580482465830679
 10
-2.768632698082573
 20
0.2581181509422596
 10
-2.768431906285484
 20
0.2581776281822353
 10
-2.768228276868344
 20
0.2582265152800143
 10
-2.768022367965234
 20
0.2582646782394596
 10
-2.767814743958144
 20
0.2582920124585522
 10
-2.767605973930045
 20
0.2583084430160973
 10
-2.767396630105073
 20
0.258313924877079
 10
-2.767187286280102
 20
0.2583084430160973
 10
-2.766978516252002
 20
0.2582920124585522
 10
-2.766770892244912
 20
0.2582646782394596
 10
-2.766564983341802
 20
0.2582265152800143
 10
-2.766361353924663
 20
0.2581776281822353
 10
-2.766160562127574
 20
0.2581181509422596
 10
-2.765963158306892
 20
0.2580482465830679
 10
-2.76576968353277
 20
0.2579681067076495
 10
-2.765580668106115
 20
0.2578779509738325
 10
-2.765396630105073
 20
0.2577780264922168
 10
-2.765218073965013
 20
0.2576686071488608
 10
-2.765045489095903
 20
0.2575499928545788
 10
-2.764879348540874
 20
0.2574225087229069
 10
-2.764720107679638
 20
0.2572865041789886
 10
-2.764568202980327
 20
0.2571423520018253
 10
-2.764424050803163
 20
0.2569904473025145
 10
-2.764288046259245
 20
0.2568312064412784
 10
-2.764160562127573
 20
0.2566650658862489
 10
-2.764041947833292
 20
0.2564924810171392
 10
-2.763932528489935
 20
0.256313924877079
 10
-2.76383260400832
 20
0.2561298868760372
 10
-2.763742448274503
 20
0.2559408714493823
 10
-2.763662308399085
 20
0.2557473966752603
 10
-2.763592404039893
 20
0.2555499928545789
 10
-2.763532926799917
 20
0.2553492010574892
 10
-2.763484039702138
 20
0.2551455716403501
 10
-2.763445876742693
 20
0.2549396627372399
 10
-2.7634185425236
 20
0.2547320387301497
 10
-2.763402111966055
 20
0.2545232687020508
 10
-2.763396630105073
 20
0.254313924877079
 10
-2.763402111966055
 20
0.2541045810521073
 10
-2.7634185425236
 20
0.2538958110240084
 10
-2.763445876742693
 20
0.2536881870169181
 10
-2.763484039702138
 20
0.253482278113808
 10
-2.763532926799917
 20
0.253278648696669
 10
-2.763592404039893
 20
0.2530778568995792
 10
-2.763662308399085
 20
0.2528804530788978
 10
-2.763742448274503
 20
0.2526869783047758
 10
-2.76383260400832
 20
0.2524979628781209
 10
-2.763932528489935
 20
0.252313924877079
 10
-2.764041947833292
 20
0.252135368737019
 10
-2.764160562127573
 20
0.2519627838679092
 10
-2.764288046259245
 20
0.2517966433128797
 10
-2.764424050803163
 20
0.2516374024516436
 10
-2.764568202980327
 20
0.2514854977523329
 10
-2.764720107679638
 20
0.2513413455751695
 10
-2.764879348540874
 20
0.2512053410312511
 10
-2.765045489095903
 20
0.2510778568995792
 10
-2.765218073965013
 20
0.2509592426052974
 10
-2.765396630105073
 20
0.2508498232619413
 10
-2.765580668106115
 20
0.2507498987803256
 10
-2.76576968353277
 20
0.2506597430465087
 10
-2.765963158306892
 20
0.2505796031710902
 10
-2.766160562127574
 20
0.2505096988118984
 10
-2.766361353924663
 20
0.2504502215719228
 10
-2.766564983341802
 20
0.2504013344741438
 10
-2.766770892244912
 20
0.2503631715146985
 10
-2.766978516252002
 20
0.2503358372956059
 10
-2.767187286280102
 20
0.2503194067380607
 10
-2.767396630105073
 20
0.250313924877079
 97
        0
 92
       18
 72
     0
 73
     1
 93
      120
 10
-2.719225057229819
 20
0.2514854977523329
 10
-2.719369209406983
 20
0.2516374024516436
 10
-2.719505213950901
 20
0.2517966433128797
 10
-2.719632698082573
 20
0.2519627838679092
 10
-2.719751312376855
 20
0.252135368737019
 10
-2.719860731720211
 20
0.252313924877079
 10
-2.719960656201827
 20
0.2524979628781209
 10
-2.720050811935644
 20
0.2526869783047758
 10
-2.720130951811062
 20
0.2528804530788978
 10
-2.720200856170254
 20
0.2530778568995792
 10
-2.72026033341023
 20
0.253278648696669
 10
-2.720309220508009
 20
0.253482278113808
 10
-2.720347383467454
 20
0.2536881870169181
 10
-2.720374717686546
 20
0.2538958110240084
 10
-2.720391148244092
 20
0.2541045810521073
 10
-2.720396630105073
 20
0.254313924877079
 10
-2.720391148244092
 20
0.2545232687020508
 10
-2.720374717686546
 20
0.2547320387301497
 10
-2.720347383467454
 20
0.25493966273724
 10
-2.720309220508009
 20
0.2551455716403501
 10
-2.72026033341023
 20
0.2553492010574892
 10
-2.720200856170254
 20
0.2555499928545789
 10
-2.720130951811062
 20
0.2557473966752603
 10
-2.720050811935644
 20
0.2559408714493823
 10
-2.719960656201827
 20
0.2561298868760372
 10
-2.719860731720211
 20
0.256313924877079
 10
-2.719751312376855
 20
0.2564924810171392
 10
-2.719632698082573
 20
0.2566650658862489
 10
-2.719505213950901
 20
0.2568312064412784
 10
-2.719369209406983
 20
0.2569904473025145
 10
-2.719225057229819
 20
0.2571423520018253
 10
-2.719073152530509
 20
0.2572865041789886
 10
-2.718913911669273
 20
0.2574225087229069
 10
-2.718747771114243
 20
0.2575499928545788
 10
-2.718575186245134
 20
0.2576686071488608
 10
-2.718396630105073
 20
0.2577780264922168
 10
-2.718212592104031
 20
0.2578779509738325
 10
-2.718023576677376
 20
0.2579681067076495
 10
-2.717830101903254
 20
0.2580482465830679
 10
-2.717632698082573
 20
0.2581181509422596
 10
-2.717431906285483
 20
0.2581776281822353
 10
-2.717228276868345
 20
0.2582265152800143
 10
-2.717022367965234
 20
0.2582646782394596
 10
-2.716814743958144
 20
0.2582920124585522
 10
-2.716605973930045
 20
0.2583084430160973
 10
-2.716396630105073
 20
0.258313924877079
 10
-2.716187286280102
 20
0.2583084430160973
 10
-2.715978516252003
 20
0.2582920124585522
 10
-2.715770892244913
 20
0.2582646782394596
 10
-2.715564983341802
 20
0.2582265152800143
 10
-2.715361353924663
 20
0.2581776281822353
 10
-2.715160562127573
 20
0.2581181509422596
 10
-2.714963158306892
 20
0.2580482465830679
 10
-2.71476968353277
 20
0.2579681067076495
 10
-2.714580668106115
 20
0.2578779509738325
 10
-2.714396630105073
 20
0.2577780264922168
 10
-2.714218073965013
 20
0.2576686071488608
 10
-2.714045489095903
 20
0.2575499928545788
 10
-2.713879348540874
 20
0.2574225087229069
 10
-2.713720107679638
 20
0.2572865041789886
 10
-2.713568202980327
 20
0.2571423520018253
 10
-2.713424050803164
 20
0.2569904473025145
 10
-2.713288046259245
 20
0.2568312064412784
 10
-2.713160562127574
 20
0.2566650658862489
 10
-2.713041947833291
 20
0.2564924810171392
 10
-2.712932528489936
 20
0.256313924877079
 10
-2.71283260400832
 20
0.2561298868760372
 10
-2.712742448274503
 20
0.2559408714493823
 10
-2.712662308399084
 20
0.2557473966752603
 10
-2.712592404039893
 20
0.2555499928545789
 10
-2.712532926799917
 20
0.2553492010574892
 10
-2.712484039702138
 20
0.2551455716403501
 10
-2.712445876742693
 20
0.2549396627372399
 10
-2.7124185425236
 20
0.2547320387301497
 10
-2.712402111966055
 20
0.2545232687020508
 10
-2.712396630105073
 20
0.254313924877079
 10
-2.712402111966055
 20
0.2541045810521073
 10
-2.7124185425236
 20
0.2538958110240084
 10
-2.712445876742693
 20
0.2536881870169181
 10
-2.712484039702138
 20
0.253482278113808
 10
-2.712532926799917
 20
0.253278648696669
 10
-2.712592404039893
 20
0.2530778568995792
 10
-2.712662308399084
 20
0.2528804530788978
 10
-2.712742448274503
 20
0.2526869783047758
 10
-2.71283260400832
 20
0.2524979628781209
 10
-2.712932528489936
 20
0.252313924877079
 10
-2.713041947833291
 20
0.252135368737019
 10
-2.713160562127574
 20
0.2519627838679092
 10
-2.713288046259245
 20
0.2517966433128797
 10
-2.713424050803164
 20
0.2516374024516436
 10
-2.713568202980327
 20
0.2514854977523329
 10
-2.713720107679638
 20
0.2513413455751695
 10
-2.713879348540874
 20
0.2512053410312511
 10
-2.714045489095903
 20
0.2510778568995792
 10
-2.714218073965013
 20
0.2509592426052974
 10
-2.714396630105073
 20
0.2508498232619413
 10
-2.714580668106115
 20
0.2507498987803256
 10
-2.71476968353277
 20
0.2506597430465087
 10
-2.714963158306892
 20
0.2505796031710902
 10
-2.715160562127573
 20
0.2505096988118984
 10
-2.715361353924663
 20
0.2504502215719228
 10
-2.715564983341802
 20
0.2504013344741438
 10
-2.715770892244913
 20
0.2503631715146985
 10
-2.715978516252003
 20
0.2503358372956059
 10
-2.716187286280102
 20
0.2503194067380607
 10
-2.716396630105073
 20
0.250313924877079
 10
-2.716605973930045
 20
0.2503194067380607
 10
-2.716814743958144
 20
0.2503358372956059
 10
-2.717022367965234
 20
0.2503631715146985
 10
-2.717228276868345
 20
0.2504013344741438
 10
-2.717431906285483
 20
0.2504502215719228
 10
-2.717632698082573
 20
0.2505096988118984
 10
-2.717830101903254
 20
0.2505796031710902
 10
-2.718023576677376
 20
0.2506597430465087
 10
-2.718212592104031
 20
0.2507498987803256
 10
-2.718396630105073
 20
0.2508498232619413
 10
-2.718575186245134
 20
0.2509592426052974
 10
-2.718747771114243
 20
0.2510778568995792
 10
-2.718913911669273
 20
0.2512053410312511
 10
-2.719073152530509
 20
0.2513413455751695
 97
        0
 92
       18
 72
     0
 73
     1
 93
      125
 10
-2.58076968353277
 20
0.2580093856430095
 10
-2.580580668106115
 20
0.2579192299091925
 10
-2.580396630105073
 20
0.2578193054275768
 10
-2.580218073965013
 20
0.2577098860842207
 10
-2.580045489095903
 20
0.2575912717899388
 10
-2.579879348540874
 20
0.2574637876582669
 10
-2.579720107679638
 20
0.2573277831143486
 10
-2.579568202980327
 20
0.2571836309371852
 10
-2.579424050803163
 20
0.2570317262378745
 10
-2.579288046259245
 20
0.2568724853766384
 10
-2.579160562127574
 20
0.2567063448216089
 10
-2.579041947833292
 20
0.2565337599524992
 10
-2.578932528489935
 20
0.256355203812439
 10
-2.57883260400832
 20
0.2561711658113972
 10
-2.578742448274503
 20
0.2559821503847423
 10
-2.578662308399085
 20
0.2557886756106202
 10
-2.578592404039893
 20
0.2555912717899388
 10
-2.578532926799917
 20
0.2553904799928491
 10
-2.578484039702138
 20
0.2551868505757101
 10
-2.578445876742693
 20
0.2549809416725999
 10
-2.5784185425236
 20
0.2547733176655096
 10
-2.578402111966055
 20
0.2545645476374108
 10
-2.578396630105073
 20
0.254355203812439
 10
-2.578402111966055
 20
0.2541458599874673
 10
-2.5784185425236
 20
0.2539370899593684
 10
-2.578445876742693
 20
0.2537294659522781
 10
-2.578484039702138
 20
0.253523557049168
 10
-2.578532926799917
 20
0.253319927632029
 10
-2.578592404039893
 20
0.2531191358349392
 10
-2.578662308399085
 20
0.2529217320142578
 10
-2.578742448274503
 20
0.2527282572401358
 10
-2.57883260400832
 20
0.2525392418134809
 10
-2.578932528489935
 20
0.252355203812439
 10
-2.579041947833292
 20
0.252176647672379
 10
-2.579160562127574
 20
0.2520040628032691
 10
-2.579288046259245
 20
0.2518379222482397
 10
-2.579424050803163
 20
0.2516786813870036
 10
-2.579568202980327
 20
0.2515267766876929
 10
-2.579720107679638
 20
0.2513826245105295
 10
-2.579879348540874
 20
0.2512466199666111
 10
-2.580045489095903
 20
0.2511191358349392
 10
-2.580218073965013
 20
0.2510005215406574
 10
-2.580396630105073
 20
0.2508911021973013
 10
-2.580580668106115
 20
0.2507911777156855
 10
-2.58076968353277
 20
0.2507010219818687
 10
-2.580963158306892
 20
0.2506208821064502
 10
-2.581160562127573
 20
0.2505509777472584
 10
-2.581361353924663
 20
0.2504915005072828
 10
-2.581564983341802
 20
0.2504426134095038
 10
-2.581770892244912
 20
0.2504044504500585
 10
-2.581978516252002
 20
0.250377116230966
 10
-2.582187286280102
 20
0.2503606856734208
 10
-2.582396630105073
 20
0.250355203812439
 10
-2.582605973930045
 20
0.2503606856734208
 10
-2.582814743958144
 20
0.250377116230966
 10
-2.583022367965234
 20
0.2504044504500585
 10
-2.583228276868344
 20
0.2504426134095038
 10
-2.583431906285484
 20
0.2504915005072828
 10
-2.583632698082573
 20
0.2505509777472584
 10
-2.583830101903254
 20
0.2506208821064502
 10
-2.584023576677376
 20
0.2507010219818687
 10
-2.584212592104032
 20
0.2507911777156855
 10
-2.584396630105073
 20
0.2508911021973013
 10
-2.584575186245134
 20
0.2510005215406574
 10
-2.584747771114243
 20
0.2511191358349392
 10
-2.584913911669273
 20
0.2512466199666111
 10
-2.585073152530509
 20
0.2513826245105295
 10
-2.585225057229819
 20
0.2515267766876929
 10
-2.585369209406983
 20
0.2516786813870036
 10
-2.585505213950901
 20
0.2518379222482397
 10
-2.585632698082573
 20
0.2520040628032691
 10
-2.585751312376855
 20
0.252176647672379
 10
-2.585860731720211
 20
0.252355203812439
 10
-2.585960656201827
 20
0.2525392418134809
 10
-2.586050811935644
 20
0.2527282572401358
 10
-2.586130951811062
 20
0.2529217320142579
 10
-2.586200856170254
 20
0.2531191358349392
 10
-2.586260333410229
 20
0.253319927632029
 10
-2.586309220508008
 20
0.253523557049168
 10
-2.586347383467454
 20
0.2537294659522781
 10
-2.586374717686546
 20
0.2539370899593684
 10
-2.586391148244092
 20
0.2541458599874673
 10
-2.586396630105073
 20
0.254355203812439
 10
-2.586391148244092
 20
0.2545645476374108
 10
-2.586374717686546
 20
0.2547733176655096
 10
-2.586347383467454
 20
0.2549809416726
 10
-2.586309220508008
 20
0.2551868505757101
 10
-2.586260333410229
 20
0.2553904799928491
 10
-2.586200856170254
 20
0.2555912717899388
 10
-2.586130951811062
 20
0.2557886756106202
 10
-2.586050811935644
 20
0.2559821503847423
 10
-2.585960656201827
 20
0.2561711658113973
 10
-2.585860731720211
 20
0.2563552038124391
 10
-2.585751312376855
 20
0.2565337599524992
 10
-2.585632698082573
 20
0.2567063448216089
 10
-2.585505213950901
 20
0.2568724853766384
 10
-2.585369209406983
 20
0.2570317262378745
 10
-2.585225057229819
 20
0.2571836309371852
 10
-2.585073152530509
 20
0.2573277831143486
 10
-2.584913911669273
 20
0.2574637876582669
 10
-2.584896630105071
 20
0.2574777028116397
 10
-2.584747771114243
 20
0.2575912717899388
 10
-2.584575186245134
 20
0.2577098860842207
 10
-2.584396630105073
 20
0.2578193054275768
 10
-2.584212592104032
 20
0.2579192299091925
 10
-2.584023576677376
 20
0.2580093856430095
 10
-2.583896630105071
 20
0.2580633030559876
 10
-2.583830101903254
 20
0.2580895255184279
 10
-2.583632698082573
 20
0.2581594298776197
 10
-2.583431906285484
 20
0.2582189071175953
 10
-2.583228276868344
 20
0.2582677942153743
 10
-2.583022367965234
 20
0.2583059571748196
 10
-2.583006465984755
 20
0.2583084430159091
 10
-2.582814743958144
 20
0.2583332913939121
 10
-2.582605973930045
 20
0.2583497219514573
 10
-2.582396630105073
 20
0.2583552038124391
 10
-2.582187286280102
 20
0.2583497219514573
 10
-2.581978516252002
 20
0.2583332913939121
 10
-2.581786794225391
 20
0.2583084430159091
 10
-2.581770892244912
 20
0.2583059571748196
 10
-2.581564983341802
 20
0.2582677942153743
 10
-2.581361353924663
 20
0.2582189071175953
 10
-2.581160562127573
 20
0.2581594298776196
 10
-2.580963158306892
 20
0.2580895255184279
 10
-2.580896630105071
 20
0.2580633030559861
 97
        0
 75
     0
 76
     1
 98
        0
  0
MTEXT
  5
1CA
330
1F
100
AcDbEntity
  8
STANDARD
  6
AUSGEZOGEN
 62
     7
370
    18
100
AcDbMText
 10
-2.359167890847605
 20
-0.2073268752627891
 30
0.0
 40
0.009
 41
0.1138278700808893
 71
     7
 72
     5
  1
\W0.91;STAND:\~\~MÄRZ\~2013
  7
ARIAL
 73
     1
 44
1.0
  0
LINE
  5
1CB
330
1F
100
AcDbEntity
  8
STANDARD
  6
AUSGEZOGEN
 62
     7
370
    18
100
AcDbLine
 10
-2.869396630105078
 20
0.2635584430159291
 30
0.0
 11
-2.869396630105078
 21
0.2735584430159291
 31
0.0
  0
LINE
  5
1CC
330
1F
100
AcDbEntity
  8
STANDARD
  6
AUSGEZOGEN
 62
     7
370
    18
100
AcDbLine
 10
-2.849396630105078
 20
0.2635584430159291
 30
0.0
 11
-2.849396630105078
 21
0.2735584430159291
 31
0.0
  0
LINE
  5
1CD
330
1F
100
AcDbEntity
  8
STANDARD
  6
AUSGEZOGEN
 62
     7
370
    18
100
AcDbLine
 10
-2.615396630105068
 20
0.2635584430159491
 30
0.0
 11
-2.615396630105068
 21
0.2735584430159491
 31
0.0
  0
LINE
  5
1CE
330
1F
100
AcDbEntity
  8
STANDARD
  6
AUSGEZOGEN
 62
     7
370
    18
100
AcDbLine
 10
-2.595396630105068
 20
0.2635584430159491
 30
0.0
 11
-2.595396630105068
 21
0.2735584430159491
 31
0.0
  0
ENDSEC
  0
SECTION
  2
OBJECTS
  0
DICTIONARY
  5
C
330
0
100
AcDbDictionary
281
     1
  3
ACAD_GROUP
350
D
  3
ACAD_LAYOUT
350
1A
  3
ACAD_MLINESTYLE
350
17
  3
ACAD_PLOTSETTINGS
350
19
  3
ACAD_PLOTSTYLENAME
350
E
  0
DICTIONARY
  5
1CF
330
1F
100
AcDbDictionary
280
     1
281
     1
  3
ACAD_SORTENTS
360
1D0
  0
DICTIONARY
  5
D
102
{ACAD_REACTORS
330
C
102
}
330
C
100
AcDbDictionary
281
     1
  3
KONSTRUKTION_0
350
95
  0
DICTIONARY
  5
1A
102
{ACAD_REACTORS
330
C
102
}
330
C
100
AcDbDictionary
281
     1
  3
Layout1
350
1E
  3
Layout2
350
26
  3
Model
350
22
  0
DICTIONARY
  5
17
102
{ACAD_REACTORS
330
C
102
}
330
C
100
AcDbDictionary
281
     1
  3
Standard
350
18
  0
DICTIONARY
  5
19
102
{ACAD_REACTORS
330
C
102
}
330
C
100
AcDbDictionary
281
     1
  0
ACDBDICTIONARYWDFLT
  5
E
102
{ACAD_REACTORS
330
C
102
}
330
C
100
AcDbDictionary
281
     1
  3
Normal
350
F
100
AcDbDictionaryWithDefault
340
F
  0
SORTENTSTABLE
  5
1D0
102
{ACAD_REACTORS
330
1CF
102
}
330
1CF
100
AcDbSortentsTable
330
1F
331
33
  5
3A
331
34
  5
3B
331
35
  5
3C
331
36
  5
3D
331
37
  5
3E
331
38
  5
3F
331
39
  5
40
331
3A
  5
41
331
3B
  5
42
331
3C
  5
43
331
3D
  5
44
331
3E
  5
45
331
3F
  5
46
331
40
  5
47
331
41
  5
48
331
42
  5
49
331
43
  5
4A
331
44
  5
4B
331
45
  5
4C
331
46
  5
4D
331
47
  5
4E
331
48
  5
4F
331
49
  5
50
331
4A
  5
51
331
4B
  5
52
331
4C
  5
53
331
4D
  5
54
331
4E
  5
55
331
4F
  5
56
331
50
  5
57
331
51
  5
58
331
52
  5
59
331
53
  5
5A
331
54
  5
5B
331
55
  5
33
331
56
  5
5C
331
57
  5
5D
331
58
  5
5E
331
59
  5
5F
331
5A
  5
60
331
5B
  5
61
331
5C
  5
62
331
5D
  5
63
331
5E
  5
64
331
5F
  5
65
331
60
  5
66
331
61
  5
67
331
62
  5
68
331
63
  5
69
331
64
  5
6A
331
65
  5
6B
331
66
  5
6C
331
67
  5
6D
331
68
  5
6E
331
69
  5
6F
331
6A
  5
70
331
6B
  5
71
331
6C
  5
72
331
6D
  5
73
331
6E
  5
74
331
6F
  5
75
331
70
  5
76
331
71
  5
77
331
72
  5
79
331
73
  5
7A
331
74
  5
7B
331
75
  5
7C
331
76
  5
7D
331
77
  5
7E
331
79
  5
7F
331
7A
  5
80
331
7B
  5
81
331
7C
  5
82
331
7D
  5
83
331
7E
  5
84
331
7F
  5
85
331
80
  5
86
331
81
  5
87
331
82
  5
88
331
83
  5
89
331
84
  5
8A
331
85
  5
8B
331
86
  5
8C
331
87
  5
8D
331
88
  5
8E
331
89
  5
8F
331
8A
  5
90
331
8B
  5
91
331
8C
  5
92
331
8D
  5
93
331
8E
  5
94
331
8F
  5
96
331
90
  5
97
331
91
  5
98
331
92
  5
99
331
93
  5
9A
331
94
  5
9B
331
96
  5
34
331
97
  5
35
331
98
  5
9C
331
99
  5
36
331
9A
  5
9D
331
9B
  5
9E
331
9C
  5
9F
331
9D
  5
A0
331
9E
  5
A1
331
9F
  5
A2
331
A0
  5
A3
331
A1
  5
A4
331
A2
  5
A5
331
A3
  5
A6
331
A4
  5
A7
331
A5
  5
A8
331
A6
  5
A9
331
A7
  5
37
331
A8
  5
AA
331
A9
  5
AB
331
AA
  5
AC
331
AB
  5
AD
331
AC
  5
AE
331
AD
  5
AF
331
AE
  5
B0
331
AF
  5
B1
331
B0
  5
B2
331
B1
  5
B3
331
B2
  5
B4
331
B3
  5
B5
331
B4
  5
B6
331
B5
  5
B7
331
B6
  5
B8
331
B7
  5
B9
331
B8
  5
BA
331
B9
  5
BB
331
BA
  5
BC
331
BB
  5
BD
331
BC
  5
BE
331
BD
  5
BF
331
BE
  5
C0
331
BF
  5
C1
331
C0
  5
C2
331
C1
  5
C3
331
C2
  5
C4
331
C3
  5
C5
331
C4
  5
C6
331
C5
  5
C7
331
C6
  5
C8
331
C7
  5
C9
331
C8
  5
CA
331
C9
  5
CB
331
CA
  5
CC
331
CB
  5
CD
331
CC
  5
CE
331
CD
  5
CF
331
CE
  5
D0
331
CF
  5
D1
331
D0
  5
D2
331
D1
  5
D3
331
D2
  5
D4
331
D3
  5
D5
331
D4
  5
D6
331
D5
  5
D7
331
D6
  5
D8
331
D7
  5
D9
331
D8
  5
DA
331
D9
  5
DB
331
DA
  5
DC
331
DB
  5
DD
331
DC
  5
DE
331
DD
  5
DF
331
DE
  5
E0
331
DF
  5
E1
331
E0
  5
E2
331
E1
  5
E3
331
E2
  5
E4
331
E3
  5
E5
331
E4
  5
E6
331
E5
  5
E7
331
E6
  5
E8
331
E7
  5
E9
331
E8
  5
EA
331
E9
  5
EB
331
EA
  5
EC
331
EB
  5
ED
331
EC
  5
EE
331
ED
  5
EF
331
EE
  5
F0
331
EF
  5
F1
331
F0
  5
F2
331
F1
  5
F3
331
F2
  5
F4
331
F3
  5
38
331
F4
  5
F5
331
F5
  5
F6
331
F6
  5
F7
331
F7
  5
F8
331
F8
  5
F9
331
F9
  5
FA
331
FA
  5
FB
331
FB
  5
FC
331
FC
  5
FD
331
FD
  5
FE
331
FE
  5
FF
331
FF
  5
100
331
100
  5
101
331
101
  5
102
331
102
  5
103
331
103
  5
104
331
104
  5
105
331
105
  5
106
331
106
  5
107
331
107
  5
108
331
108
  5
109
331
109
  5
10A
331
10A
  5
10B
331
10B
  5
10C
331
10C
  5
10D
331
10D
  5
10E
331
10E
  5
10F
331
10F
  5
110
331
110
  5
111
331
111
  5
112
331
112
  5
113
331
113
  5
114
331
114
  5
115
331
115
  5
116
331
116
  5
117
331
117
  5
118
331
118
  5
119
331
119
  5
11A
331
11A
  5
11B
331
11B
  5
11C
331
11C
  5
11D
331
11D
  5
11E
331
11E
  5
11F
331
11F
  5
120
331
120
  5
121
331
121
  5
122
331
122
  5
123
331
123
  5
124
331
124
  5
125
331
125
  5
126
331
126
  5
127
331
127
  5
128
331
128
  5
129
331
129
  5
12A
331
12A
  5
12B
331
12B
  5
12C
331
12C
  5
12D
331
12D
  5
12E
331
12E
  5
12F
331
12F
  5
130
331
130
  5
131
331
131
  5
132
331
132
  5
133
331
133
  5
134
331
134
  5
135
331
135
  5
136
331
136
  5
137
331
137
  5
138
331
138
  5
139
331
139
  5
13A
331
13A
  5
13B
331
13B
  5
13C
331
13C
  5
13D
331
13D
  5
13E
331
13E
  5
13F
331
13F
  5
140
331
140
  5
141
331
141
  5
142
331
142
  5
143
331
143
  5
144
331
144
  5
145
331
145
  5
146
331
146
  5
147
331
147
  5
148
331
148
  5
149
331
149
  5
14A
331
14A
  5
14B
331
14B
  5
14C
331
14C
  5
14D
331
14D
  5
14E
331
14E
  5
14F
331
14F
  5
150
331
150
  5
151
331
151
  5
152
331
152
  5
153
331
153
  5
154
331
154
  5
155
331
155
  5
156
331
156
  5
157
331
157
  5
158
331
158
  5
159
331
159
  5
15A
331
15A
  5
15B
331
15B
  5
15C
331
15C
  5
15D
331
15D
  5
15E
331
15E
  5
15F
331
15F
  5
160
331
160
  5
161
331
161
  5
162
331
162
  5
163
331
163
  5
164
331
164
  5
165
331
165
  5
166
331
166
  5
167
331
167
  5
168
331
168
  5
169
331
169
  5
16A
331
16A
  5
16B
331
16B
  5
16C
331
16C
  5
16D
331
16D
  5
16E
331
16E
  5
16F
331
16F
  5
170
331
170
  5
171
331
171
  5
172
331
172
  5
173
331
173
  5
174
331
174
  5
175
331
175
  5
176
331
176
  5
177
331
177
  5
178
331
178
  5
179
331
179
  5
17A
331
17A
  5
17B
331
17B
  5
17C
331
17C
  5
17D
331
17D
  5
17E
331
17E
  5
17F
331
17F
  5
180
331
180
  5
181
331
181
  5
182
331
182
  5
183
331
183
  5
184
331
184
  5
185
331
185
  5
186
331
186
  5
187
331
187
  5
188
331
188
  5
189
331
189
  5
18A
331
18A
  5
18B
331
18B
  5
18C
331
18C
  5
18D
331
18D
  5
18E
331
18E
  5
18F
331
18F
  5
190
331
190
  5
191
331
191
  5
192
331
192
  5
193
331
193
  5
194
331
194
  5
195
331
195
  5
196
331
196
  5
197
331
197
  5
198
331
198
  5
199
331
199
  5
19A
331
19A
  5
19B
331
19B
  5
19C
331
19C
  5
19D
331
19D
  5
19E
331
19E
  5
19F
331
19F
  5
1A0
331
1A0
  5
1A1
331
1A1
  5
1A2
331
1A2
  5
1A3
331
1A3
  5
1A4
331
1A4
  5
1A5
331
1A5
  5
1A6
331
1A6
  5
1A7
331
1A7
  5
1A8
331
1A8
  5
1A9
331
1A9
  5
1AA
331
1AA
  5
1AB
331
1AB
  5
1AC
331
1AC
  5
1AD
331
1AD
  5
1AE
331
1AE
  5
1AF
331
1AF
  5
1B0
331
1B0
  5
1B1
331
1B1
  5
1B2
331
1B2
  5
1B3
331
1B3
  5
1B4
331
1B4
  5
1B5
331
1B5
  5
1B6
331
1B6
  5
1B7
331
1B7
  5
1B8
331
1B8
  5
1B9
331
1B9
  5
1BA
331
1BA
  5
1BB
331
1BB
  5
1BC
331
1BC
  5
1BD
331
1BD
  5
1BE
331
1BE
  5
1BF
331
1BF
  5
1C0
331
1C0
  5
1C1
331
1C1
  5
1C2
331
1C2
  5
1C3
331
1C3
  5
1C4
331
1C4
  5
1C5
331
1C5
  5
1C6
331
1C6
  5
1C7
331
1C7
  5
1C8
331
1C8
  5
1C9
331
1C9
  5
39
  0
GROUP
  5
95
102
{ACAD_REACTORS
330
D
102
}
330
D
100
AcDbGroup
300

 70
     0
 71
     1
340
96
340
97
  0
LAYOUT
  5
1E
102
{ACAD_REACTORS
330
1A
102
}
330
1A
100
AcDbPlotSettings
  1

  2
none_device
  4

  6

 40
7.5
 41
7.5
 42
7.5
 43
7.5
 44
1485.00015000001
 45
1050.015
 46
-3256.499492394366
 47
-312.58950103287
 48
0.0
 49
0.0
140
0.0
141
0.0
142
1.0
143
1.0
 70
   688
 72
     1
 73
     0
 74
     5
  7

 75
    16
 76
     0
 77
     2
 78
   300
147
1000.0
148
0.0
149
0.0
100
AcDbLayout
  1
Layout1
 70
     1
 71
     1
 10
0.0
 20
0.0
 11
12.0
 21
9.0
 12
0.0
 22
0.0
 32
0.0
 14
1.000000000000000E+20
 24
1.000000000000000E+20
 34
1.000000000000000E+20
 15
-1.000000000000000E+20
 25
-1.000000000000000E+20
 35
-1.000000000000000E+20
146
0.0
 13
0.0
 23
0.0
 33
0.0
 16
1.0
 26
0.0
 36
0.0
 17
0.0
 27
1.0
 37
0.0
 76
     0
330
1B
  0
LAYOUT
  5
26
102
{ACAD_REACTORS
330
1A
102
}
330
1A
100
AcDbPlotSettings
  1

  2

  4

  6

 40
0.0
 41
0.0
 42
0.0
 43
0.0
 44
0.0
 45
0.0
 46
0.0
 47
0.0
 48
0.0
 49
0.0
140
0.0
141
0.0
142
1.0
143
1.0
 70
   688
 72
     0
 73
     0
 74
     5
  7

 75
    16
 76
     0
 77
     2
 78
   300
147
1.0
148
0.0
149
0.0
100
AcDbLayout
  1
Layout2
 70
     1
 71
     2
 10
0.0
 20
0.0
 11
0.0
 21
0.0
 12
0.0
 22
0.0
 32
0.0
 14
0.0
 24
0.0
 34
0.0
 15
0.0
 25
0.0
 35
0.0
146
0.0
 13
0.0
 23
0.0
 33
0.0
 16
1.0
 26
0.0
 36
0.0
 17
0.0
 27
1.0
 37
0.0
 76
     0
330
23
  0
LAYOUT
  5
22
102
{ACAD_REACTORS
330
1A
102
}
330
1A
100
AcDbPlotSettings
  1

  2

  4

  6

 40
0.0
 41
0.0
 42
0.0
 43
0.0
 44
0.0
 45
0.0
 46
0.0
 47
0.0
 48
0.0
 49
0.0
140
0.0
141
0.0
142
1.0
143
1.0
 70
  1712
 72
     0
 73
     0
 74
     0
  7

 75
     0
 76
     0
 77
     2
 78
   300
147
1.0
148
0.0
149
0.0
100
AcDbLayout
  1
Model
 70
     1
 71
     0
 10
-3.256506992394367
 20
-0.31259700103287
 11
-2.206506992394367
 21
1.17238814896714
 12
0.0
 22
0.0
 32
0.0
 14
-3.256506992394367
 24
-0.31259700103287
 34
-3.256506992394367
 15
-2.206506992394367
 25
1.17238814896714
 35
-2.206506992394367
146
0.0
 13
0.0
 23
0.0
 33
0.0
 16
1.0
 26
0.0
 36
0.0
 17
0.0
 27
1.0
 37
0.0
 76
     0
330
1F
  0
MLINESTYLE
  5
18
102
{ACAD_REACTORS
330
17
102
}
330
17
100
AcDbMlineStyle
  2
Standard
 70
     0
  3

 62
   256
 51
90.0
 52
90.0
 71
     2
 49
0.5
 62
   256
  6
BYLAYER
 49
-0.5
 62
   256
  6
BYLAYER
  0
ACDBPLACEHOLDER
  5
F
102
{ACAD_REACTORS
330
E
102
}
330
E
  0
ENDSEC
  0
EOF
