  0
SECTION
  2
HEADER
  9
$ACADVER
  1
AC1018
  9
$ACADMAINTVER
 70
     0
  9
$DWGCODEPAGE
  3
ANSI_932
  9
$INSBASE
 10
0.0
 20
0.0
 30
0.0
  9
$EXTMIN
 10
1.000000000000000E+20
 20
1.000000000000000E+20
 30
1.000000000000000E+20
  9
$EXTMAX
 10
-1.000000000000000E+20
 20
-1.000000000000000E+20
 30
-1.000000000000000E+20
  9
$LIMMIN
 10
0.0
 20
0.0
  9
$LIMMAX
 10
12.0
 20
9.0
  9
$ORTHOMODE
 70
     0
  9
$REGENMODE
 70
     1
  9
$FILLMODE
 70
     1
  9
$QTEXTMODE
 70
     0
  9
$MIRRTEXT
 70
     1
  9
$LTSCALE
 40
1.0
  9
$ATTMODE
 70
     1
  9
$TEXTSIZE
 40
0.2
  9
$TRACEWID
 40
0.05
  9
$TEXTSTYLE
  7
Standard
  9
$CLAYER
  8
0
  9
$CELTYPE
  6
ByLayer
  9
$CECOLOR
 62
   256
  9
$CELTSCALE
 40
1.0
  9
$DISPSILH
 70
     0
  9
$DIMSCALE
 40
1.0
  9
$DIMASZ
 40
0.18
  9
$DIMEXO
 40
0.0625
  9
$DIMDLI
 40
0.38
  9
$DIMRND
 40
0.0
  9
$DIMDLE
 40
0.0
  9
$DIMEXE
 40
0.18
  9
$DIMTP
 40
0.0
  9
$DIMTM
 40
0.0
  9
$DIMTXT
 40
0.18
  9
$DIMCEN
 40
0.09
  9
$DIMTSZ
 40
0.0
  9
$DIMTOL
 70
     0
  9
$DIMLIM
 70
     0
  9
$DIMTIH
 70
     1
  9
$DIMTOH
 70
     1
  9
$DIMSE1
 70
     0
  9
$DIMSE2
 70
     0
  9
$DIMTAD
 70
     0
  9
$DIMZIN
 70
     0
  9
$DIMBLK
  1

  9
$DIMASO
 70
     1
  9
$DIMSHO
 70
     1
  9
$DIMPOST
  1

  9
$DIMAPOST
  1

  9
$DIMALT
 70
     0
  9
$DIMALTD
 70
     2
  9
$DIMALTF
 40
25.4
  9
$DIMLFAC
 40
1.0
  9
$DIMTOFL
 70
     0
  9
$DIMTVP
 40
0.0
  9
$DIMTIX
 70
     0
  9
$DIMSOXD
 70
     0
  9
$DIMSAH
 70
     0
  9
$DIMBLK1
  1

  9
$DIMBLK2
  1

  9
$DIMSTYLE
  2
Standard
  9
$DIMCLRD
 70
     0
  9
$DIMCLRE
 70
     0
  9
$DIMCLRT
 70
     0
  9
$DIMTFAC
 40
1.0
  9
$DIMGAP
 40
0.09
  9
$DIMJUST
 70
     0
  9
$DIMSD1
 70
     0
  9
$DIMSD2
 70
     0
  9
$DIMTOLJ
 70
     1
  9
$DIMTZIN
 70
     0
  9
$DIMALTZ
 70
     0
  9
$DIMALTTZ
 70
     0
  9
$DIMUPT
 70
     0
  9
$DIMDEC
 70
     4
  9
$DIMTDEC
 70
     4
  9
$DIMALTU
 70
     2
  9
$DIMALTTD
 70
     2
  9
$DIMTXSTY
  7
Standard
  9
$DIMAUNIT
 70
     0
  9
$DIMADEC
 70
     0
  9
$DIMALTRND
 40
0.0
  9
$DIMAZIN
 70
     0
  9
$DIMDSEP
 70
    46
  9
$DIMATFIT
 70
     3
  9
$DIMFRAC
 70
     0
  9
$DIMLDRBLK
  1

  9
$DIMLUNIT
 70
     2
  9
$DIMLWD
 70
    -2
  9
$DIMLWE
 70
    -2
  9
$DIMTMOVE
 70
     0
  9
$LUNITS
 70
     2
  9
$LUPREC
 70
     4
  9
$SKETCHINC
 40
0.1
  9
$FILLETRAD
 40
0.5
  9
$AUNITS
 70
     0
  9
$AUPREC
 70
     0
  9
$MENU
  1
.
  9
$ELEVATION
 40
0.0
  9
$PELEVATION
 40
0.0
  9
$THICKNESS
 40
0.0
  9
$LIMCHECK
 70
     0
  9
$CHAMFERA
 40
0.5
  9
$CHAMFERB
 40
0.5
  9
$CHAMFERC
 40
1.0
  9
$CHAMFERD
 40
0.0
  9
$SKPOLY
 70
     0
  9
$TDCREATE
 40
2456077.66025463
  9
$TDUCREATE
 40
2456077.618587963
  9
$TDUPDATE
 40
2456077.660254641
  9
$TDUUPDATE
 40
2456077.618587974
  9
$TDINDWG
 40
0.0000000116
  9
$TDUSRTIMER
 40
0.0000000116
  9
$USRTIMER
 70
     1
  9
$ANGBASE
 50
0.0
  9
$ANGDIR
 70
     0
  9
$PDMODE
 70
     0
  9
$PDSIZE
 40
0.0
  9
$PLINEWID
 40
0.0
  9
$SPLFRAME
 70
     0
  9
$SPLINETYPE
 70
     6
  9
$SPLINESEGS
 70
     8
  9
$HANDSEED
  5
726
  9
$SURFTAB1
 70
     6
  9
$SURFTAB2
 70
     6
  9
$SURFTYPE
 70
     6
  9
$SURFU
 70
     6
  9
$SURFV
 70
     6
  9
$UCSBASE
  2

  9
$UCSNAME
  2

  9
$UCSORG
 10
0.0
 20
0.0
 30
0.0
  9
$UCSXDIR
 10
1.0
 20
0.0
 30
0.0
  9
$UCSYDIR
 10
0.0
 20
1.0
 30
0.0
  9
$UCSORTHOREF
  2

  9
$UCSORTHOVIEW
 70
     0
  9
$UCSORGTOP
 10
0.0
 20
0.0
 30
0.0
  9
$UCSORGBOTTOM
 10
0.0
 20
0.0
 30
0.0
  9
$UCSORGLEFT
 10
0.0
 20
0.0
 30
0.0
  9
$UCSORGRIGHT
 10
0.0
 20
0.0
 30
0.0
  9
$UCSORGFRONT
 10
0.0
 20
0.0
 30
0.0
  9
$UCSORGBACK
 10
0.0
 20
0.0
 30
0.0
  9
$PUCSBASE
  2

  9
$PUCSNAME
  2

  9
$PUCSORG
 10
0.0
 20
0.0
 30
0.0
  9
$PUCSXDIR
 10
1.0
 20
0.0
 30
0.0
  9
$PUCSYDIR
 10
0.0
 20
1.0
 30
0.0
  9
$PUCSORTHOREF
  2

  9
$PUCSORTHOVIEW
 70
     0
  9
$PUCSORGTOP
 10
0.0
 20
0.0
 30
0.0
  9
$PUCSORGBOTTOM
 10
0.0
 20
0.0
 30
0.0
  9
$PUCSORGLEFT
 10
0.0
 20
0.0
 30
0.0
  9
$PUCSORGRIGHT
 10
0.0
 20
0.0
 30
0.0
  9
$PUCSORGFRONT
 10
0.0
 20
0.0
 30
0.0
  9
$PUCSORGBACK
 10
0.0
 20
0.0
 30
0.0
  9
$USERI1
 70
     0
  9
$USERI2
 70
     0
  9
$USERI3
 70
     0
  9
$USERI4
 70
     0
  9
$USERI5
 70
     0
  9
$USERR1
 40
0.0
  9
$USERR2
 40
0.0
  9
$USERR3
 40
0.0
  9
$USERR4
 40
0.0
  9
$USERR5
 40
0.0
  9
$WORLDVIEW
 70
     1
  9
$SHADEDGE
 70
     3
  9
$SHADEDIF
 70
    70
  9
$TILEMODE
 70
     1
  9
$MAXACTVP
 70
    64
  9
$PINSBASE
 10
0.0
 20
0.0
 30
0.0
  9
$PLIMCHECK
 70
     0
  9
$PEXTMIN
 10
1.000000000000000E+20
 20
1.000000000000000E+20
 30
1.000000000000000E+20
  9
$PEXTMAX
 10
-1.000000000000000E+20
 20
-1.000000000000000E+20
 30
-1.000000000000000E+20
  9
$PLIMMIN
 10
0.0
 20
0.0
  9
$PLIMMAX
 10
12.0
 20
9.0
  9
$UNITMODE
 70
     0
  9
$VISRETAIN
 70
     1
  9
$PLINEGEN
 70
     0
  9
$PSLTSCALE
 70
     1
  9
$TREEDEPTH
 70
  3020
  9
$CMLSTYLE
  2
Standard
  9
$CMLJUST
 70
     0
  9
$CMLSCALE
 40
1.0
  9
$PROXYGRAPHICS
 70
     1
  9
$MEASUREMENT
 70
     0
  9
$CELWEIGHT
370
    -1
  9
$ENDCAPS
280
     0
  9
$JOINSTYLE
280
     0
  9
$LWDISPLAY
290
     1
  9
$INSUNITS
 70
     1
  9
$HYPERLINKBASE
  1

  9
$STYLESHEET
  1

  9
$XEDIT
290
     1
  9
$CEPSNTYPE
380
     0
  9
$PSTYLEMODE
290
     1
  9
$FINGERPRINTGUID
  2
{861915E1-2870-7D34-7150-2FF46BE725F2}
  9
$VERSIONGUID
  2
{FAEB1C32-E019-11D5-929B-00C0DF256EC4}
  9
$EXTNAMES
290
     1
  9
$PSVPSCALE
 40
0.0
  9
$OLESTARTUP
290
     0
  9
$SORTENTS
280
   127
  9
$INDEXCTL
280
     0
  9
$HIDETEXT
280
     1
  9
$XCLIPFRAME
290
     0
  9
$HALOGAP
280
     0
  9
$OBSCOLOR
 70
   257
  9
$OBSLTYPE
280
     0
  9
$INTERSECTIONDISPLAY
280
     0
  9
$INTERSECTIONCOLOR
 70
   257
  9
$DIMASSOC
280
     2
  9
$PROJECTNAME
  1

  0
ENDSEC
  0
SECTION
  2
CLASSES
  0
CLASS
  1
ACDBDICTIONARYWDFLT
  2
AcDbDictionaryWithDefault
  3
ObjectDBX Classes
 90
        0
 91
        3
280
     0
281
     0
  0
CLASS
  1
VISUALSTYLE
  2
AcDbVisualStyle
  3
ObjectDBX Classes
 90
     4095
 91
        3
280
     0
281
     0
  0
ENDSEC
  0
SECTION
  2
TABLES
  0
TABLE
  2
VPORT
  5
8
330
0
100
AcDbSymbolTable
 70
     1
  0
VPORT
  5
29
330
8
100
AcDbSymbolTableRecord
100
AcDbViewportTableRecord
  2
*Active
 70
     0
 10
0.0
 20
0.0
 11
1.0
 21
1.0
 12
0.0
 22
0.0
 13
0.0
 23
0.0
 14
0.5
 24
0.5
 15
0.5
 25
0.5
 16
0.0
 26
0.0
 36
1.0
 17
105.0008259828644
 27
-148.4999796178229
 37
0.0
 40
296.9999592356459
 41
0.7070763662937379
 42
50.0
 43
0.0
 44
0.0
 50
0.0
 51
0.0
 71
     0
 72
   100
 73
     1
 74
     3
 75
     0
 76
     0
 77
     0
 78
     0
281
     0
 65
     1
110
0.0
120
0.0
130
0.0
111
1.0
121
0.0
131
0.0
112
0.0
122
1.0
132
0.0
 79
     0
146
0.0
  0
ENDTAB
  0
TABLE
  2
LTYPE
  5
5
330
0
100
AcDbSymbolTable
 70
     1
  0
LTYPE
  5
14
330
5
100
AcDbSymbolTableRecord
100
AcDbLinetypeTableRecord
  2
ByBlock
 70
     0
  3

 72
    65
 73
     0
 40
0.0
  0
LTYPE
  5
15
330
5
100
AcDbSymbolTableRecord
100
AcDbLinetypeTableRecord
  2
ByLayer
 70
     0
  3

 72
    65
 73
     0
 40
0.0
  0
LTYPE
  5
16
330
5
100
AcDbSymbolTableRecord
100
AcDbLinetypeTableRecord
  2
Continuous
 70
     0
  3
Solid line
 72
    65
 73
     0
 40
0.0
  0
ENDTAB
  0
TABLE
  2
LAYER
  5
2
330
0
100
AcDbSymbolTable
 70
     2
  0
LAYER
  5
10
330
2
100
AcDbSymbolTableRecord
100
AcDbLayerTableRecord
  2
0
 70
     0
 62
     7
  6
Continuous
370
    -3
390
F
  0
LAYER
  5
3B
330
2
100
AcDbSymbolTableRecord
100
AcDbLayerTableRecord
  2
Ebene 1
 70
     0
 62
     7
  6
Continuous
370
    -3
390
F
  0
ENDTAB
  0
TABLE
  2
STYLE
  5
3
330
0
100
AcDbSymbolTable
 70
     1
  0
STYLE
  5
11
330
3
100
AcDbSymbolTableRecord
100
AcDbTextStyleTableRecord
  2
Standard
 70
     0
 40
0.0
 41
1.0
 50
0.0
 71
     0
 42
0.2
  3
txt
  4

  0
ENDTAB
  0
TABLE
  2
VIEW
  5
6
330
0
100
AcDbSymbolTable
 70
     0
  0
ENDTAB
  0
TABLE
  2
UCS
  5
7
330
0
100
AcDbSymbolTable
 70
     0
  0
ENDTAB
  0
TABLE
  2
APPID
  5
9
330
0
100
AcDbSymbolTable
 70
     1
  0
APPID
  5
12
330
9
100
AcDbSymbolTableRecord
100
AcDbRegAppTableRecord
  2
ACAD
 70
     0
  0
ENDTAB
  0
TABLE
  2
DIMSTYLE
  5
A
330
0
100
AcDbSymbolTable
 70
     1
100
AcDbDimStyleTable
  0
DIMSTYLE
105
27
330
A
100
AcDbSymbolTableRecord
100
AcDbDimStyleTableRecord
  2
Standard
 70
     0
340
11
  0
ENDTAB
  0
TABLE
  2
BLOCK_RECORD
  5
1
330
0
100
AcDbSymbolTable
 70
     6
  0
BLOCK_RECORD
  5
1F
330
1
100
AcDbSymbolTableRecord
100
AcDbBlockTableRecord
  2
*Model_Space
340
22
  0
BLOCK_RECORD
  5
1B
330
1
100
AcDbSymbolTableRecord
100
AcDbBlockTableRecord
  2
*Paper_Space
340
1E
  0
BLOCK_RECORD
  5
23
330
1
100
AcDbSymbolTableRecord
100
AcDbBlockTableRecord
  2
*Paper_Space0
340
26
  0
BLOCK_RECORD
  5
4A
330
1
100
AcDbSymbolTableRecord
100
AcDbBlockTableRecord
  2
block 2
340
0
102
{BLKREFS
331
4B
102
}
  0
BLOCK_RECORD
  5
469
330
1
100
AcDbSymbolTableRecord
100
AcDbBlockTableRecord
  2
block 3
340
0
102
{BLKREFS
331
46A
102
}
  0
BLOCK_RECORD
  5
519
330
1
100
AcDbSymbolTableRecord
100
AcDbBlockTableRecord
  2
block 4
340
0
102
{BLKREFS
331
51A
102
}
  0
BLOCK_RECORD
  5
534
330
1
100
AcDbSymbolTableRecord
100
AcDbBlockTableRecord
  2
block 5
340
0
102
{BLKREFS
331
535
102
}
  0
BLOCK_RECORD
  5
602
330
1
100
AcDbSymbolTableRecord
100
AcDbBlockTableRecord
  2
block 6
340
0
102
{BLKREFS
331
603
102
}
  0
ENDTAB
  0
ENDSEC
  0
SECTION
  2
BLOCKS
  0
BLOCK
  5
20
330
1F
100
AcDbEntity
  8
0
100
AcDbBlockBegin
  2
*Model_Space
 70
     0
 71
     0
 10
0.0
 20
0.0
 30
0.0
  3
*Model_Space
  1

  0
ENDBLK
  5
21
330
1F
100
AcDbEntity
  8
0
100
AcDbBlockEnd
  0
BLOCK
  5
1C
330
1B
100
AcDbEntity
 67
     1
  8
0
100
AcDbBlockBegin
  2
*Paper_Space
 70
     0
 71
     0
 10
0.0
 20
0.0
 30
0.0
  3
*Paper_Space
  1

  0
ENDBLK
  5
1D
330
1B
100
AcDbEntity
 67
     1
  8
0
100
AcDbBlockEnd
  0
BLOCK
  5
24
330
23
100
AcDbEntity
  8
0
100
AcDbBlockBegin
  2
*Paper_Space0
 70
     0
 71
     0
 10
0.0
 20
0.0
 30
0.0
  3
*Paper_Space0
  1

  0
ENDBLK
  5
25
330
23
100
AcDbEntity
  8
0
100
AcDbBlockEnd
  0
BLOCK
  5
4C
330
4A
100
AcDbEntity
  8
0
100
AcDbBlockBegin
  2
block 2
 70
     0
 71
     0
 10
0.0
 20
0.0
 30
0.0
  3
block 2
  1

  0
POLYLINE
  5
4E
330
4A
100
AcDbEntity
  8
Ebene 1
 62
   179
420
  1709851
370
    18
100
AcDb2dPolyline
 66
     1
 10
0.0
 20
0.0
 30
0.0
  0
VERTEX
  5
4F
330
4E
100
AcDbEntity
  8
Ebene 1
 62
   179
420
  1709851
370
    18
100
AcDbVertex
100
AcDb2dVertex
 10
88.32845863677206
 20
-165.0648599847755
 30
0.0
  0
VERTEX
  5
724
330
4E
100
AcDbEntity
  8
0
100
AcDbVertex
100
AcDb2dVertex
 10
88.32845863677206
 20
-165.0648599847755
 30
0.0
  0
SEQEND
  5
50
330
4E
100
AcDbEntity
  8
Ebene 1
370
    18
  0
POLYLINE
  5
51
330
4A
100
AcDbEntity
  8
Ebene 1
 62
   179
420
  1709851
370
    18
100
AcDb2dPolyline
 66
     1
 10
0.0
 20
0.0
 30
0.0
  0
VERTEX
  5
52
330
51
100
AcDbEntity
  8
Ebene 1
 62
   179
420
  1709851
370
    18
100
AcDbVertex
100
AcDb2dVertex
 10
92.11737465144982
 20
-126.2026326181889
 30
0.0
  0
VERTEX
  5
53
330
51
100
AcDbEntity
  8
Ebene 1
 62
   179
420
  1709851
370
    18
100
AcDbVertex
100
AcDb2dVertex
 10
92.20195174561272
 20
-126.3297566415947
 30
0.0
  0
VERTEX
  5
54
330
51
100
AcDbEntity
  8
Ebene 1
 62
   179
420
  1709851
370
    18
100
AcDbVertex
100
AcDb2dVertex
 10
92.371450443487
 20
-126.223647700649
 30
0.0
  0
VERTEX
  5
55
330
51
100
AcDbEntity
  8
Ebene 1
 62
   179
420
  1709851
370
    18
100
AcDbVertex
100
AcDb2dVertex
 10
92.371450443487
 20
-126.2026326181889
 30
0.0
  0
SEQEND
  5
56
330
51
100
AcDbEntity
  8
Ebene 1
370
    18
  0
POLYLINE
  5
57
330
4A
100
AcDbEntity
  8
Ebene 1
 62
   179
420
  1709851
370
    18
100
AcDb2dPolyline
 66
     1
 10
0.0
 20
0.0
 30
0.0
  0
VERTEX
  5
58
330
57
100
AcDbEntity
  8
Ebene 1
 62
   179
420
  1709851
370
    18
100
AcDbVertex
100
AcDb2dVertex
 10
92.18093666315269
 20
-140.9559095242228
 30
0.0
  0
VERTEX
  5
59
330
57
100
AcDbEntity
  8
Ebene 1
 62
   179
420
  1709851
370
    18
100
AcDbVertex
100
AcDb2dVertex
 10
92.07499997698126
 20
-141.1677828965657
 30
0.0
  0
VERTEX
  5
5A
330
57
100
AcDbEntity
  8
Ebene 1
 62
   179
420
  1709851
370
    18
100
AcDbVertex
100
AcDb2dVertex
 10
92.20195174561272
 20
-141.3369370848915
 30
0.0
  0
VERTEX
  5
5B
330
57
100
AcDbEntity
  8
Ebene 1
 62
   179
420
  1709851
370
    18
100
AcDbVertex
100
AcDb2dVertex
 10
92.371450443487
 20
-141.2308281439458
 30
0.0
  0
VERTEX
  5
5C
330
57
100
AcDbEntity
  8
Ebene 1
 62
   179
420
  1709851
370
    18
100
AcDbVertex
100
AcDb2dVertex
 10
92.35026310625271
 20
-140.9772691162314
 30
0.0
  0
VERTEX
  5
5D
330
57
100
AcDbEntity
  8
Ebene 1
 62
   179
420
  1709851
370
    18
100
AcDbVertex
100
AcDb2dVertex
 10
92.18093666315269
 20
-140.9559095242228
 30
0.0
  0
SEQEND
  5
5E
330
57
100
AcDbEntity
  8
Ebene 1
370
    18
  0
POLYLINE
  5
5F
330
4A
100
AcDbEntity
  8
Ebene 1
 62
   179
420
  1709851
370
    18
100
AcDb2dPolyline
 66
     1
 10
0.0
 20
0.0
 30
0.0
  0
VERTEX
  5
60
330
5F
100
AcDbEntity
  8
Ebene 1
 62
   179
420
  1709851
370
    18
100
AcDbVertex
100
AcDb2dVertex
 10
92.18093666315269
 20
-155.9629177127454
 30
0.0
  0
VERTEX
  5
61
330
5F
100
AcDbEntity
  8
Ebene 1
 62
   179
420
  1709851
370
    18
100
AcDbVertex
100
AcDb2dVertex
 10
92.07499997698126
 20
-156.1530869835312
 30
0.0
  0
VERTEX
  5
62
330
5F
100
AcDbEntity
  8
Ebene 1
 62
   179
420
  1709851
370
    18
100
AcDbVertex
100
AcDb2dVertex
 10
92.20195174561272
 20
-156.3232747005025
 30
0.0
  0
VERTEX
  5
63
330
5F
100
AcDbEntity
  8
Ebene 1
 62
   179
420
  1709851
370
    18
100
AcDbVertex
100
AcDb2dVertex
 10
92.371450443487
 20
-156.2171657595568
 30
0.0
  0
VERTEX
  5
64
330
5F
100
AcDbEntity
  8
Ebene 1
 62
   179
420
  1709851
370
    18
100
AcDbVertex
100
AcDb2dVertex
 10
92.35026310625271
 20
-155.9842773047539
 30
0.0
  0
VERTEX
  5
65
330
5F
100
AcDbEntity
  8
Ebene 1
 62
   179
420
  1709851
370
    18
100
AcDbVertex
100
AcDb2dVertex
 10
92.18093666315269
 20
-155.9629177127454
 30
0.0
  0
SEQEND
  5
66
330
5F
100
AcDbEntity
  8
Ebene 1
370
    18
  0
POLYLINE
  5
67
330
4A
100
AcDbEntity
  8
Ebene 1
 62
   179
420
  1709851
370
    18
100
AcDb2dPolyline
 66
     1
 10
0.0
 20
0.0
 30
0.0
  0
VERTEX
  5
68
330
67
100
AcDbEntity
  8
Ebene 1
 62
   179
420
  1709851
370
    18
100
AcDbVertex
100
AcDb2dVertex
 10
92.18093666315269
 20
-170.9490830735822
 30
0.0
  0
VERTEX
  5
69
330
67
100
AcDbEntity
  8
Ebene 1
 62
   179
420
  1709851
370
    18
100
AcDbVertex
100
AcDb2dVertex
 10
92.07499997698126
 20
-171.1606119363765
 30
0.0
  0
VERTEX
  5
6A
330
67
100
AcDbEntity
  8
Ebene 1
 62
   179
420
  1709851
370
    18
100
AcDbVertex
100
AcDb2dVertex
 10
92.20195174561272
 20
-171.3301106342508
 30
0.0
  0
VERTEX
  5
6B
330
67
100
AcDbEntity
  8
Ebene 1
 62
   179
420
  1709851
370
    18
100
AcDbVertex
100
AcDb2dVertex
 10
92.371450443487
 20
-171.2246907124022
 30
0.0
  0
VERTEX
  5
6C
330
67
100
AcDbEntity
  8
Ebene 1
 62
   179
420
  1709851
370
    18
100
AcDbVertex
100
AcDb2dVertex
 10
92.35026310625271
 20
-170.9918022575993
 30
0.0
  0
VERTEX
  5
6D
330
67
100
AcDbEntity
  8
Ebene 1
 62
   179
420
  1709851
370
    18
100
AcDbVertex
100
AcDb2dVertex
 10
92.18093666315269
 20
-170.9490830735822
 30
0.0
  0
SEQEND
  5
6E
330
67
100
AcDbEntity
  8
Ebene 1
370
    18
  0
POLYLINE
  5
6F
330
4A
100
AcDbEntity
  8
Ebene 1
 62
   179
420
  1709851
370
    18
100
AcDb2dPolyline
 66
     1
 10
0.0
 20
0.0
 30
0.0
  0
VERTEX
  5
70
330
6F
100
AcDbEntity
  8
Ebene 1
 62
   179
420
  1709851
370
    18
100
AcDbVertex
100
AcDb2dVertex
 10
92.18093666315269
 20
-185.9566080264275
 30
0.0
  0
VERTEX
  5
71
330
6F
100
AcDbEntity
  8
Ebene 1
 62
   179
420
  1709851
370
    18
100
AcDbVertex
100
AcDb2dVertex
 10
92.07499997698126
 20
-186.1674478701248
 30
0.0
  0
VERTEX
  5
72
330
6F
100
AcDbEntity
  8
Ebene 1
 62
   179
420
  1709851
370
    18
100
AcDbVertex
100
AcDb2dVertex
 10
92.20195174561272
 20
-186.3155869759906
 30
0.0
  0
VERTEX
  5
73
330
6F
100
AcDbEntity
  8
Ebene 1
 62
   179
420
  1709851
370
    18
100
AcDbVertex
100
AcDb2dVertex
 10
92.371450443487
 20
-186.2101670541419
 30
0.0
  0
VERTEX
  5
74
330
6F
100
AcDbEntity
  8
Ebene 1
 62
   179
420
  1709851
370
    18
100
AcDbVertex
100
AcDb2dVertex
 10
92.35026310625271
 20
-185.977278599339
 30
0.0
  0
VERTEX
  5
75
330
6F
100
AcDbEntity
  8
Ebene 1
 62
   179
420
  1709851
370
    18
100
AcDbVertex
100
AcDb2dVertex
 10
92.18093666315269
 20
-185.9566080264275
 30
0.0
  0
SEQEND
  5
76
330
6F
100
AcDbEntity
  8
Ebene 1
370
    18
  0
POLYLINE
  5
77
330
4A
100
AcDbEntity
  8
Ebene 1
 62
   179
420
  1709851
370
    18
100
AcDb2dPolyline
 66
     1
 10
0.0
 20
0.0
 30
0.0
  0
VERTEX
  5
78
330
77
100
AcDbEntity
  8
Ebene 1
 62
   179
420
  1709851
370
    18
100
AcDbVertex
100
AcDb2dVertex
 10
92.18093666315269
 20
-200.9420843681673
 30
0.0
  0
VERTEX
  5
79
330
77
100
AcDbEntity
  8
Ebene 1
 62
   179
420
  1709851
370
    18
100
AcDbVertex
100
AcDb2dVertex
 10
92.07499997698126
 20
-201.1543022500587
 30
0.0
  0
VERTEX
  5
7A
330
77
100
AcDbEntity
  8
Ebene 1
 62
   179
420
  1709851
370
    18
100
AcDbVertex
100
AcDb2dVertex
 10
92.20195174561272
 20
-201.3231119288359
 30
0.0
  0
VERTEX
  5
7B
330
77
100
AcDbEntity
  8
Ebene 1
 62
   179
420
  1709851
370
    18
100
AcDbVertex
100
AcDb2dVertex
 10
92.371450443487
 20
-201.2170029878902
 30
0.0
  0
VERTEX
  5
7C
330
77
100
AcDbEntity
  8
Ebene 1
 62
   179
420
  1709851
370
    18
100
AcDbVertex
100
AcDb2dVertex
 10
92.35026310625271
 20
-200.9841145330873
 30
0.0
  0
VERTEX
  5
7D
330
77
100
AcDbEntity
  8
Ebene 1
 62
   179
420
  1709851
370
    18
100
AcDbVertex
100
AcDb2dVertex
 10
92.18093666315269
 20
-200.9420843681673
 30
0.0
  0
SEQEND
  5
7E
330
77
100
AcDbEntity
  8
Ebene 1
370
    18
  0
POLYLINE
  5
7F
330
4A
100
AcDbEntity
  8
Ebene 1
 62
   179
420
  1709851
370
    18
100
AcDb2dPolyline
 66
     1
 10
0.0
 20
0.0
 30
0.0
  0
VERTEX
  5
80
330
7F
100
AcDbEntity
  8
Ebene 1
 62
   179
420
  1709851
370
    18
100
AcDbVertex
100
AcDb2dVertex
 10
92.18093666315269
 20
-215.9489203019156
 30
0.0
  0
VERTEX
  5
81
330
7F
100
AcDbEntity
  8
Ebene 1
 62
   179
420
  1709851
370
    18
100
AcDbVertex
100
AcDb2dVertex
 10
92.07499997698126
 20
-216.1611381838069
 30
0.0
  0
VERTEX
  5
82
330
7F
100
AcDbEntity
  8
Ebene 1
 62
   179
420
  1709851
370
    18
100
AcDbVertex
100
AcDb2dVertex
 10
92.20195174561272
 20
-216.3299478625842
 30
0.0
  0
VERTEX
  5
83
330
7F
100
AcDbEntity
  8
Ebene 1
 62
   179
420
  1709851
370
    18
100
AcDbVertex
100
AcDb2dVertex
 10
92.371450443487
 20
-216.2245279407356
 30
0.0
  0
VERTEX
  5
84
330
7F
100
AcDbEntity
  8
Ebene 1
 62
   179
420
  1709851
370
    18
100
AcDbVertex
100
AcDb2dVertex
 10
92.35026310625271
 20
-215.9709689130212
 30
0.0
  0
VERTEX
  5
85
330
7F
100
AcDbEntity
  8
Ebene 1
 62
   179
420
  1709851
370
    18
100
AcDbVertex
100
AcDb2dVertex
 10
92.18093666315269
 20
-215.9489203019156
 30
0.0
  0
SEQEND
  5
86
330
7F
100
AcDbEntity
  8
Ebene 1
370
    18
  0
POLYLINE
  5
87
330
4A
100
AcDbEntity
  8
Ebene 1
 62
   179
420
  1709851
370
    18
100
AcDb2dPolyline
 66
     1
 10
0.0
 20
0.0
 30
0.0
  0
VERTEX
  5
88
330
87
100
AcDbEntity
  8
Ebene 1
 62
   179
420
  1709851
370
    18
100
AcDbVertex
100
AcDb2dVertex
 10
92.18093666315269
 20
-230.9564452547609
 30
0.0
  0
VERTEX
  5
89
330
87
100
AcDbEntity
  8
Ebene 1
 62
   179
420
  1709851
370
    18
100
AcDbVertex
100
AcDb2dVertex
 10
92.07499997698126
 20
-231.1466145255467
 30
0.0
  0
VERTEX
  5
8A
330
87
100
AcDbEntity
  8
Ebene 1
 62
   179
420
  1709851
370
    18
100
AcDbVertex
100
AcDb2dVertex
 10
92.20195174561272
 20
-231.316802242518
 30
0.0
  0
VERTEX
  5
8B
330
87
100
AcDbEntity
  8
Ebene 1
 62
   179
420
  1709851
370
    18
100
AcDbVertex
100
AcDb2dVertex
 10
92.371450443487
 20
-231.2106933015723
 30
0.0
  0
VERTEX
  5
8C
330
87
100
AcDbEntity
  8
Ebene 1
 62
   179
420
  1709851
370
    18
100
AcDbVertex
100
AcDb2dVertex
 10
92.35026310625271
 20
-230.9778048467695
 30
0.0
  0
VERTEX
  5
8D
330
87
100
AcDbEntity
  8
Ebene 1
 62
   179
420
  1709851
370
    18
100
AcDbVertex
100
AcDb2dVertex
 10
92.18093666315269
 20
-230.9564452547609
 30
0.0
  0
SEQEND
  5
8E
330
87
100
AcDbEntity
  8
Ebene 1
370
    18
  0
POLYLINE
  5
8F
330
4A
100
AcDbEntity
  8
Ebene 1
 62
   179
420
  1709851
370
    18
100
AcDb2dPolyline
 66
     1
 10
0.0
 20
0.0
 30
0.0
  0
VERTEX
  5
90
330
8F
100
AcDbEntity
  8
Ebene 1
 62
   179
420
  1709851
370
    18
100
AcDbVertex
100
AcDb2dVertex
 10
91.90567353388123
 20
-129.5681463977295
 30
0.0
  0
VERTEX
  5
91
330
8F
100
AcDbEntity
  8
Ebene 1
 62
   179
420
  1709851
370
    18
100
AcDbVertex
100
AcDb2dVertex
 10
91.71515975354691
 20
-129.546786805721
 30
0.0
  0
SEQEND
  5
92
330
8F
100
AcDbEntity
  8
Ebene 1
370
    18
  0
POLYLINE
  5
93
330
4A
100
AcDbEntity
  8
Ebene 1
 62
   179
420
  1709851
370
    18
100
AcDb2dPolyline
 66
     1
 10
0.0
 20
0.0
 30
0.0
  0
VERTEX
  5
94
330
93
100
AcDbEntity
  8
Ebene 1
 62
   179
420
  1709851
370
    18
100
AcDbVertex
100
AcDb2dVertex
 10
91.71515975354691
 20
-129.546786805721
 30
0.0
  0
VERTEX
  5
95
330
93
100
AcDbEntity
  8
Ebene 1
 62
   179
420
  1709851
370
    18
100
AcDbVertex
100
AcDb2dVertex
 10
91.63058265938403
 20
-129.7586601780638
 30
0.0
  0
VERTEX
  5
96
330
93
100
AcDbEntity
  8
Ebene 1
 62
   179
420
  1709851
370
    18
100
AcDbVertex
100
AcDb2dVertex
 10
91.75753442801548
 20
-129.9067992839296
 30
0.0
  0
VERTEX
  5
97
330
93
100
AcDbEntity
  8
Ebene 1
 62
   179
420
  1709851
370
    18
100
AcDbVertex
100
AcDb2dVertex
 10
91.92686087111551
 20
-129.8013793620809
 30
0.0
  0
VERTEX
  5
98
330
93
100
AcDbEntity
  8
Ebene 1
 62
   179
420
  1709851
370
    18
100
AcDbVertex
100
AcDb2dVertex
 10
91.90567353388123
 20
-129.5681463977295
 30
0.0
  0
SEQEND
  5
99
330
93
100
AcDbEntity
  8
Ebene 1
370
    18
  0
POLYLINE
  5
9A
330
4A
100
AcDbEntity
  8
Ebene 1
 62
   179
420
  1709851
370
    18
100
AcDb2dPolyline
 66
     1
 10
0.0
 20
0.0
 30
0.0
  0
VERTEX
  5
9B
330
9A
100
AcDbEntity
  8
Ebene 1
 62
   179
420
  1709851
370
    18
100
AcDbVertex
100
AcDb2dVertex
 10
91.71515975354691
 20
-144.5329521665577
 30
0.0
  0
VERTEX
  5
9C
330
9A
100
AcDbEntity
  8
Ebene 1
 62
   179
420
  1709851
370
    18
100
AcDbVertex
100
AcDb2dVertex
 10
91.63058265938403
 20
-144.7444810293521
 30
0.0
  0
VERTEX
  5
9D
330
9A
100
AcDbEntity
  8
Ebene 1
 62
   179
420
  1709851
370
    18
100
AcDbVertex
100
AcDb2dVertex
 10
91.75753442801548
 20
-144.9139797272264
 30
0.0
  0
VERTEX
  5
9E
330
9A
100
AcDbEntity
  8
Ebene 1
 62
   179
420
  1709851
370
    18
100
AcDbVertex
100
AcDb2dVertex
 10
91.92686087111551
 20
-144.8082152958292
 30
0.0
  0
VERTEX
  5
9F
330
9A
100
AcDbEntity
  8
Ebene 1
 62
   179
420
  1709851
370
    18
100
AcDbVertex
100
AcDb2dVertex
 10
91.90567353388123
 20
-144.5753268410263
 30
0.0
  0
VERTEX
  5
A0
330
9A
100
AcDbEntity
  8
Ebene 1
 62
   179
420
  1709851
370
    18
100
AcDbVertex
100
AcDb2dVertex
 10
91.71515975354691
 20
-144.5329521665577
 30
0.0
  0
SEQEND
  5
A1
330
9A
100
AcDbEntity
  8
Ebene 1
370
    18
  0
POLYLINE
  5
A2
330
4A
100
AcDbEntity
  8
Ebene 1
 62
   179
420
  1709851
370
    18
100
AcDb2dPolyline
 66
     1
 10
0.0
 20
0.0
 30
0.0
  0
VERTEX
  5
A3
330
A2
100
AcDbEntity
  8
Ebene 1
 62
   179
420
  1709851
370
    18
100
AcDbVertex
100
AcDb2dVertex
 10
91.71515975354691
 20
-159.5403048646288
 30
0.0
  0
VERTEX
  5
A4
330
A2
100
AcDbEntity
  8
Ebene 1
 62
   179
420
  1709851
370
    18
100
AcDbVertex
100
AcDb2dVertex
 10
91.63058265938403
 20
-159.7518337274232
 30
0.0
  0
VERTEX
  5
A5
330
A2
100
AcDbEntity
  8
Ebene 1
 62
   179
420
  1709851
370
    18
100
AcDbVertex
100
AcDb2dVertex
 10
91.75753442801548
 20
-159.9213324252975
 30
0.0
  0
VERTEX
  5
A6
330
A2
100
AcDbEntity
  8
Ebene 1
 62
   179
420
  1709851
370
    18
100
AcDbVertex
100
AcDb2dVertex
 10
91.92686087111551
 20
-159.8152234843517
 30
0.0
  0
VERTEX
  5
A7
330
A2
100
AcDbEntity
  8
Ebene 1
 62
   179
420
  1709851
370
    18
100
AcDbVertex
100
AcDb2dVertex
 10
91.90567353388123
 20
-159.5609754375403
 30
0.0
  0
VERTEX
  5
A8
330
A2
100
AcDbEntity
  8
Ebene 1
 62
   179
420
  1709851
370
    18
100
AcDbVertex
100
AcDb2dVertex
 10
91.71515975354691
 20
-159.5403048646288
 30
0.0
  0
SEQEND
  5
A9
330
A2
100
AcDbEntity
  8
Ebene 1
370
    18
  0
POLYLINE
  5
AA
330
4A
100
AcDbEntity
  8
Ebene 1
 62
   179
420
  1709851
370
    18
100
AcDb2dPolyline
 66
     1
 10
0.0
 20
0.0
 30
0.0
  0
VERTEX
  5
AB
330
AA
100
AcDbEntity
  8
Ebene 1
 62
   179
420
  1709851
370
    18
100
AcDbVertex
100
AcDb2dVertex
 10
91.71515975354691
 20
-174.5257812063685
 30
0.0
  0
VERTEX
  5
AC
330
AA
100
AcDbEntity
  8
Ebene 1
 62
   179
420
  1709851
370
    18
100
AcDbVertex
100
AcDb2dVertex
 10
91.63058265938403
 20
-174.73799908826
 30
0.0
  0
VERTEX
  5
AD
330
AA
100
AcDbEntity
  8
Ebene 1
 62
   179
420
  1709851
370
    18
100
AcDbVertex
100
AcDb2dVertex
 10
91.75753442801548
 20
-174.9068087670372
 30
0.0
  0
VERTEX
  5
AE
330
AA
100
AcDbEntity
  8
Ebene 1
 62
   179
420
  1709851
370
    18
100
AcDbVertex
100
AcDb2dVertex
 10
91.92686087111551
 20
-174.8013888451885
 30
0.0
  0
VERTEX
  5
AF
330
AA
100
AcDbEntity
  8
Ebene 1
 62
   179
420
  1709851
370
    18
100
AcDbVertex
100
AcDb2dVertex
 10
91.90567353388123
 20
-174.5685003903857
 30
0.0
  0
VERTEX
  5
B0
330
AA
100
AcDbEntity
  8
Ebene 1
 62
   179
420
  1709851
370
    18
100
AcDbVertex
100
AcDb2dVertex
 10
91.71515975354691
 20
-174.5257812063685
 30
0.0
  0
SEQEND
  5
B1
330
AA
100
AcDbEntity
  8
Ebene 1
370
    18
  0
POLYLINE
  5
B2
330
4A
100
AcDbEntity
  8
Ebene 1
 62
   179
420
  1709851
370
    18
100
AcDb2dPolyline
 66
     1
 10
0.0
 20
0.0
 30
0.0
  0
VERTEX
  5
B3
330
B2
100
AcDbEntity
  8
Ebene 1
 62
   179
420
  1709851
370
    18
100
AcDbVertex
100
AcDb2dVertex
 10
91.71515975354691
 20
-189.5333061592139
 30
0.0
  0
VERTEX
  5
B4
330
B2
100
AcDbEntity
  8
Ebene 1
 62
   179
420
  1709851
370
    18
100
AcDbVertex
100
AcDb2dVertex
 10
91.63058265938403
 20
-189.7448350220082
 30
0.0
  0
VERTEX
  5
B5
330
B2
100
AcDbEntity
  8
Ebene 1
 62
   179
420
  1709851
370
    18
100
AcDbVertex
100
AcDb2dVertex
 10
91.75753442801548
 20
-189.9143337198825
 30
0.0
  0
VERTEX
  5
B6
330
B2
100
AcDbEntity
  8
Ebene 1
 62
   179
420
  1709851
370
    18
100
AcDbVertex
100
AcDb2dVertex
 10
91.92686087111551
 20
-189.8089137980339
 30
0.0
  0
VERTEX
  5
B7
330
B2
100
AcDbEntity
  8
Ebene 1
 62
   179
420
  1709851
370
    18
100
AcDbVertex
100
AcDb2dVertex
 10
91.90567353388123
 20
-189.575336324134
 30
0.0
  0
VERTEX
  5
B8
330
B2
100
AcDbEntity
  8
Ebene 1
 62
   179
420
  1709851
370
    18
100
AcDbVertex
100
AcDb2dVertex
 10
91.71515975354691
 20
-189.5333061592139
 30
0.0
  0
SEQEND
  5
B9
330
B2
100
AcDbEntity
  8
Ebene 1
370
    18
  0
POLYLINE
  5
BA
330
4A
100
AcDbEntity
  8
Ebene 1
 62
   179
420
  1709851
370
    18
100
AcDb2dPolyline
 66
     1
 10
0.0
 20
0.0
 30
0.0
  0
VERTEX
  5
BB
330
BA
100
AcDbEntity
  8
Ebene 1
 62
   179
420
  1709851
370
    18
100
AcDbVertex
100
AcDb2dVertex
 10
91.71515975354691
 20
-204.5401420929622
 30
0.0
  0
VERTEX
  5
BC
330
BA
100
AcDbEntity
  8
Ebene 1
 62
   179
420
  1709851
370
    18
100
AcDbVertex
100
AcDb2dVertex
 10
91.63058265938403
 20
-204.7523599748536
 30
0.0
  0
VERTEX
  5
BD
330
BA
100
AcDbEntity
  8
Ebene 1
 62
   179
420
  1709851
370
    18
100
AcDbVertex
100
AcDb2dVertex
 10
91.75753442801548
 20
-204.9004990807193
 30
0.0
  0
VERTEX
  5
BE
330
BA
100
AcDbEntity
  8
Ebene 1
 62
   179
420
  1709851
370
    18
100
AcDbVertex
100
AcDb2dVertex
 10
91.92686087111551
 20
-204.7943901397736
 30
0.0
  0
VERTEX
  5
BF
330
BA
100
AcDbEntity
  8
Ebene 1
 62
   179
420
  1709851
370
    18
100
AcDbVertex
100
AcDb2dVertex
 10
91.90567353388123
 20
-204.5615016849708
 30
0.0
  0
VERTEX
  5
C0
330
BA
100
AcDbEntity
  8
Ebene 1
 62
   179
420
  1709851
370
    18
100
AcDbVertex
100
AcDb2dVertex
 10
91.71515975354691
 20
-204.5401420929622
 30
0.0
  0
SEQEND
  5
C1
330
BA
100
AcDbEntity
  8
Ebene 1
370
    18
  0
POLYLINE
  5
C2
330
4A
100
AcDbEntity
  8
Ebene 1
 62
   179
420
  1709851
370
    18
100
AcDb2dPolyline
 66
     1
 10
0.0
 20
0.0
 30
0.0
  0
VERTEX
  5
C3
330
C2
100
AcDbEntity
  8
Ebene 1
 62
   179
420
  1709851
370
    18
100
AcDbVertex
100
AcDb2dVertex
 10
91.71515975354691
 20
-219.526996472896
 30
0.0
  0
VERTEX
  5
C4
330
C2
100
AcDbEntity
  8
Ebene 1
 62
   179
420
  1709851
370
    18
100
AcDbVertex
100
AcDb2dVertex
 10
91.63058265938403
 20
-219.7378363165933
 30
0.0
  0
VERTEX
  5
C5
330
C2
100
AcDbEntity
  8
Ebene 1
 62
   179
420
  1709851
370
    18
100
AcDbVertex
100
AcDb2dVertex
 10
91.75753442801548
 20
-219.9073350144676
 30
0.0
  0
VERTEX
  5
C6
330
C2
100
AcDbEntity
  8
Ebene 1
 62
   179
420
  1709851
370
    18
100
AcDbVertex
100
AcDb2dVertex
 10
91.92686087111551
 20
-219.8012260735219
 30
0.0
  0
VERTEX
  5
C7
330
C2
100
AcDbEntity
  8
Ebene 1
 62
   179
420
  1709851
370
    18
100
AcDbVertex
100
AcDb2dVertex
 10
91.90567353388123
 20
-219.5690266378161
 30
0.0
  0
VERTEX
  5
C8
330
C2
100
AcDbEntity
  8
Ebene 1
 62
   179
420
  1709851
370
    18
100
AcDbVertex
100
AcDb2dVertex
 10
91.71515975354691
 20
-219.526996472896
 30
0.0
  0
SEQEND
  5
C9
330
C2
100
AcDbEntity
  8
Ebene 1
370
    18
  0
POLYLINE
  5
CA
330
4A
100
AcDbEntity
  8
Ebene 1
 62
   179
420
  1709851
370
    18
100
AcDb2dPolyline
 66
     1
 10
0.0
 20
0.0
 30
0.0
  0
VERTEX
  5
CB
330
CA
100
AcDbEntity
  8
Ebene 1
 62
   179
420
  1709851
370
    18
100
AcDbVertex
100
AcDb2dVertex
 10
94.80558265859028
 20
-140.7016614774114
 30
0.0
  0
VERTEX
  5
CC
330
CA
100
AcDbEntity
  8
Ebene 1
 62
   179
420
  1709851
370
    18
100
AcDbVertex
100
AcDb2dVertex
 10
94.72083330965313
 20
-140.9138793593028
 30
0.0
  0
VERTEX
  5
CD
330
CA
100
AcDbEntity
  8
Ebene 1
 62
   179
420
  1709851
370
    18
100
AcDbVertex
100
AcDb2dVertex
 10
94.84778507828459
 20
-141.0830335476286
 30
0.0
  0
VERTEX
  5
CE
330
CA
100
AcDbEntity
  8
Ebene 1
 62
   179
420
  1709851
370
    18
100
AcDbVertex
100
AcDb2dVertex
 10
95.01728377615888
 20
-140.9769246066829
 30
0.0
  0
VERTEX
  5
CF
330
CA
100
AcDbEntity
  8
Ebene 1
 62
   179
420
  1709851
370
    18
100
AcDbVertex
100
AcDb2dVertex
 10
94.9960964389246
 20
-140.7443806614285
 30
0.0
  0
VERTEX
  5
D0
330
CA
100
AcDbEntity
  8
Ebene 1
 62
   179
420
  1709851
370
    18
100
AcDbVertex
100
AcDb2dVertex
 10
94.80558265859028
 20
-140.7016614774114
 30
0.0
  0
SEQEND
  5
D1
330
CA
100
AcDbEntity
  8
Ebene 1
370
    18
  0
POLYLINE
  5
D2
330
4A
100
AcDbEntity
  8
Ebene 1
 62
   179
420
  1709851
370
    18
100
AcDb2dPolyline
 66
     1
 10
0.0
 20
0.0
 30
0.0
  0
VERTEX
  5
D3
330
D2
100
AcDbEntity
  8
Ebene 1
 62
   179
420
  1709851
370
    18
100
AcDbVertex
100
AcDb2dVertex
 10
94.80558265859028
 20
-155.6879990930225
 30
0.0
  0
VERTEX
  5
D4
330
D2
100
AcDbEntity
  8
Ebene 1
 62
   179
420
  1709851
370
    18
100
AcDbVertex
100
AcDb2dVertex
 10
94.72083330965313
 20
-155.8995279558168
 30
0.0
  0
VERTEX
  5
D5
330
D2
100
AcDbEntity
  8
Ebene 1
 62
   179
420
  1709851
370
    18
100
AcDbVertex
100
AcDb2dVertex
 10
94.84778507828459
 20
-156.0690266536911
 30
0.0
  0
VERTEX
  5
D6
330
D2
100
AcDbEntity
  8
Ebene 1
 62
   179
420
  1709851
370
    18
100
AcDbVertex
100
AcDb2dVertex
 10
95.01728377615888
 20
-155.9629177127454
 30
0.0
  0
VERTEX
  5
D7
330
D2
100
AcDbEntity
  8
Ebene 1
 62
   179
420
  1709851
370
    18
100
AcDbVertex
100
AcDb2dVertex
 10
94.9960964389246
 20
-155.751388849951
 30
0.0
  0
VERTEX
  5
D8
330
D2
100
AcDbEntity
  8
Ebene 1
 62
   179
420
  1709851
370
    18
100
AcDbVertex
100
AcDb2dVertex
 10
94.80558265859028
 20
-155.6879990930225
 30
0.0
  0
SEQEND
  5
D9
330
D2
100
AcDbEntity
  8
Ebene 1
370
    18
  0
POLYLINE
  5
DA
330
4A
100
AcDbEntity
  8
Ebene 1
 62
   179
420
  1709851
370
    18
100
AcDb2dPolyline
 66
     1
 10
0.0
 20
0.0
 30
0.0
  0
VERTEX
  5
DB
330
DA
100
AcDbEntity
  8
Ebene 1
 62
   179
420
  1709851
370
    18
100
AcDbVertex
100
AcDb2dVertex
 10
94.80558265859028
 20
-170.6948350267707
 30
0.0
  0
VERTEX
  5
DC
330
DA
100
AcDbEntity
  8
Ebene 1
 62
   179
420
  1709851
370
    18
100
AcDbVertex
100
AcDb2dVertex
 10
94.72083330965313
 20
-170.9070529086621
 30
0.0
  0
VERTEX
  5
DD
330
DA
100
AcDbEntity
  8
Ebene 1
 62
   179
420
  1709851
370
    18
100
AcDbVertex
100
AcDb2dVertex
 10
94.84778507828459
 20
-171.0758625874394
 30
0.0
  0
VERTEX
  5
DE
330
DA
100
AcDbEntity
  8
Ebene 1
 62
   179
420
  1709851
370
    18
100
AcDbVertex
100
AcDb2dVertex
 10
95.01728377615888
 20
-170.9697536464937
 30
0.0
  0
VERTEX
  5
DF
330
DA
100
AcDbEntity
  8
Ebene 1
 62
   179
420
  1709851
370
    18
100
AcDbVertex
100
AcDb2dVertex
 10
94.9960964389246
 20
-170.7368651916908
 30
0.0
  0
VERTEX
  5
E0
330
DA
100
AcDbEntity
  8
Ebene 1
 62
   179
420
  1709851
370
    18
100
AcDbVertex
100
AcDb2dVertex
 10
94.80558265859028
 20
-170.6948350267707
 30
0.0
  0
SEQEND
  5
E1
330
DA
100
AcDbEntity
  8
Ebene 1
370
    18
  0
POLYLINE
  5
E2
330
4A
100
AcDbEntity
  8
Ebene 1
 62
   179
420
  1709851
370
    18
100
AcDb2dPolyline
 66
     1
 10
0.0
 20
0.0
 30
0.0
  0
VERTEX
  5
E3
330
E2
100
AcDbEntity
  8
Ebene 1
 62
   179
420
  1709851
370
    18
100
AcDbVertex
100
AcDb2dVertex
 10
94.80558265859028
 20
-185.7023599796161
 30
0.0
  0
VERTEX
  5
E4
330
E2
100
AcDbEntity
  8
Ebene 1
 62
   179
420
  1709851
370
    18
100
AcDbVertex
100
AcDb2dVertex
 10
94.72083330965313
 20
-185.9138888424104
 30
0.0
  0
VERTEX
  5
E5
330
E2
100
AcDbEntity
  8
Ebene 1
 62
   179
420
  1709851
370
    18
100
AcDbVertex
100
AcDb2dVertex
 10
94.84778507828459
 20
-186.0620279482762
 30
0.0
  0
VERTEX
  5
E6
330
E2
100
AcDbEntity
  8
Ebene 1
 62
   179
420
  1709851
370
    18
100
AcDbVertex
100
AcDb2dVertex
 10
95.01728377615888
 20
-185.9566080264275
 30
0.0
  0
VERTEX
  5
E7
330
E2
100
AcDbEntity
  8
Ebene 1
 62
   179
420
  1709851
370
    18
100
AcDbVertex
100
AcDb2dVertex
 10
94.9960964389246
 20
-185.7443901445361
 30
0.0
  0
VERTEX
  5
E8
330
E2
100
AcDbEntity
  8
Ebene 1
 62
   179
420
  1709851
370
    18
100
AcDbVertex
100
AcDb2dVertex
 10
94.80558265859028
 20
-185.7023599796161
 30
0.0
  0
SEQEND
  5
E9
330
E2
100
AcDbEntity
  8
Ebene 1
370
    18
  0
POLYLINE
  5
EA
330
4A
100
AcDbEntity
  8
Ebene 1
 62
   179
420
  1709851
370
    18
100
AcDb2dPolyline
 66
     1
 10
0.0
 20
0.0
 30
0.0
  0
VERTEX
  5
EB
330
EA
100
AcDbEntity
  8
Ebene 1
 62
   179
420
  1709851
370
    18
100
AcDbVertex
100
AcDb2dVertex
 10
94.80558265859028
 20
-200.6878363213558
 30
0.0
  0
VERTEX
  5
EC
330
EA
100
AcDbEntity
  8
Ebene 1
 62
   179
420
  1709851
370
    18
100
AcDbVertex
100
AcDb2dVertex
 10
94.72083330965313
 20
-200.8993651841502
 30
0.0
  0
VERTEX
  5
ED
330
EA
100
AcDbEntity
  8
Ebene 1
 62
   179
420
  1709851
370
    18
100
AcDbVertex
100
AcDb2dVertex
 10
94.84778507828459
 20
-201.0695529011215
 30
0.0
  0
VERTEX
  5
EE
330
EA
100
AcDbEntity
  8
Ebene 1
 62
   179
420
  1709851
370
    18
100
AcDbVertex
100
AcDb2dVertex
 10
95.01728377615888
 20
-200.9634439601758
 30
0.0
  0
VERTEX
  5
EF
330
EA
100
AcDbEntity
  8
Ebene 1
 62
   179
420
  1709851
370
    18
100
AcDbVertex
100
AcDb2dVertex
 10
94.9960964389246
 20
-200.7305555053729
 30
0.0
  0
VERTEX
  5
F0
330
EA
100
AcDbEntity
  8
Ebene 1
 62
   179
420
  1709851
370
    18
100
AcDbVertex
100
AcDb2dVertex
 10
94.80558265859028
 20
-200.6878363213558
 30
0.0
  0
SEQEND
  5
F1
330
EA
100
AcDbEntity
  8
Ebene 1
370
    18
  0
POLYLINE
  5
F2
330
4A
100
AcDbEntity
  8
Ebene 1
 62
   179
420
  1709851
370
    18
100
AcDb2dPolyline
 66
     1
 10
0.0
 20
0.0
 30
0.0
  0
VERTEX
  5
F3
330
F2
100
AcDbEntity
  8
Ebene 1
 62
   179
420
  1709851
370
    18
100
AcDbVertex
100
AcDb2dVertex
 10
94.80558265859028
 20
-215.6953612742012
 30
0.0
  0
VERTEX
  5
F4
330
F2
100
AcDbEntity
  8
Ebene 1
 62
   179
420
  1709851
370
    18
100
AcDbVertex
100
AcDb2dVertex
 10
94.72083330965313
 20
-215.9068901369955
 30
0.0
  0
VERTEX
  5
F5
330
F2
100
AcDbEntity
  8
Ebene 1
 62
   179
420
  1709851
370
    18
100
AcDbVertex
100
AcDb2dVertex
 10
94.84778507828459
 20
-216.0763888348698
 30
0.0
  0
VERTEX
  5
F6
330
F2
100
AcDbEntity
  8
Ebene 1
 62
   179
420
  1709851
370
    18
100
AcDbVertex
100
AcDb2dVertex
 10
95.01728377615888
 20
-215.9709689130212
 30
0.0
  0
VERTEX
  5
F7
330
F2
100
AcDbEntity
  8
Ebene 1
 62
   179
420
  1709851
370
    18
100
AcDbVertex
100
AcDb2dVertex
 10
94.9960964389246
 20
-215.7380804582183
 30
0.0
  0
VERTEX
  5
F8
330
F2
100
AcDbEntity
  8
Ebene 1
 62
   179
420
  1709851
370
    18
100
AcDbVertex
100
AcDb2dVertex
 10
94.80558265859028
 20
-215.6953612742012
 30
0.0
  0
SEQEND
  5
F9
330
F2
100
AcDbEntity
  8
Ebene 1
370
    18
  0
POLYLINE
  5
FA
330
4A
100
AcDbEntity
  8
Ebene 1
 62
   179
420
  1709851
370
    18
100
AcDb2dPolyline
 66
     1
 10
0.0
 20
0.0
 30
0.0
  0
VERTEX
  5
FB
330
FA
100
AcDbEntity
  8
Ebene 1
 62
   179
420
  1709851
370
    18
100
AcDbVertex
100
AcDb2dVertex
 10
94.80558265859028
 20
-230.681526635038
 30
0.0
  0
VERTEX
  5
FC
330
FA
100
AcDbEntity
  8
Ebene 1
 62
   179
420
  1709851
370
    18
100
AcDbVertex
100
AcDb2dVertex
 10
94.72083330965313
 20
-230.8930554978323
 30
0.0
  0
VERTEX
  5
FD
330
FA
100
AcDbEntity
  8
Ebene 1
 62
   179
420
  1709851
370
    18
100
AcDbVertex
100
AcDb2dVertex
 10
94.84778507828459
 20
-231.0618651766096
 30
0.0
  0
VERTEX
  5
FE
330
FA
100
AcDbEntity
  8
Ebene 1
 62
   179
420
  1709851
370
    18
100
AcDbVertex
100
AcDb2dVertex
 10
95.01728377615888
 20
-230.9564452547609
 30
0.0
  0
VERTEX
  5
FF
330
FA
100
AcDbEntity
  8
Ebene 1
 62
   179
420
  1709851
370
    18
100
AcDbVertex
100
AcDb2dVertex
 10
94.9960964389246
 20
-230.7449163919666
 30
0.0
  0
VERTEX
  5
100
330
FA
100
AcDbEntity
  8
Ebene 1
 62
   179
420
  1709851
370
    18
100
AcDbVertex
100
AcDb2dVertex
 10
94.80558265859028
 20
-230.681526635038
 30
0.0
  0
SEQEND
  5
101
330
FA
100
AcDbEntity
  8
Ebene 1
370
    18
  0
POLYLINE
  5
102
330
4A
100
AcDbEntity
  8
Ebene 1
 62
   179
420
  1709851
370
    18
100
AcDb2dPolyline
 66
     1
 10
0.0
 20
0.0
 30
0.0
  0
VERTEX
  5
103
330
102
100
AcDbEntity
  8
Ebene 1
 62
   179
420
  1709851
370
    18
100
AcDbVertex
100
AcDb2dVertex
 10
96.30833330925626
 20
-127.8538668842692
 30
0.0
  0
VERTEX
  5
104
330
102
100
AcDbEntity
  8
Ebene 1
 62
   179
420
  1709851
370
    18
100
AcDbVertex
100
AcDb2dVertex
 10
96.22375621509337
 20
-128.0653957470635
 30
0.0
  0
VERTEX
  5
105
330
102
100
AcDbEntity
  8
Ebene 1
 62
   179
420
  1709851
370
    18
100
AcDbVertex
100
AcDb2dVertex
 10
96.35070798372483
 20
-128.2348944449378
 30
0.0
  0
VERTEX
  5
106
330
102
100
AcDbEntity
  8
Ebene 1
 62
   179
420
  1709851
370
    18
100
AcDbVertex
100
AcDb2dVertex
 10
96.52003442682485
 20
-128.1287855039921
 30
0.0
  0
VERTEX
  5
107
330
102
100
AcDbEntity
  8
Ebene 1
 62
   179
420
  1709851
370
    18
100
AcDbVertex
100
AcDb2dVertex
 10
96.49884708959057
 20
-127.8962415587378
 30
0.0
  0
VERTEX
  5
108
330
102
100
AcDbEntity
  8
Ebene 1
 62
   179
420
  1709851
370
    18
100
AcDbVertex
100
AcDb2dVertex
 10
96.30833330925626
 20
-127.8538668842692
 30
0.0
  0
SEQEND
  5
109
330
102
100
AcDbEntity
  8
Ebene 1
370
    18
  0
POLYLINE
  5
10A
330
4A
100
AcDbEntity
  8
Ebene 1
 62
   179
420
  1709851
370
    18
100
AcDb2dPolyline
 66
     1
 10
0.0
 20
0.0
 30
0.0
  0
VERTEX
  5
10B
330
10A
100
AcDbEntity
  8
Ebene 1
 62
   179
420
  1709851
370
    18
100
AcDbVertex
100
AcDb2dVertex
 10
96.30833330925626
 20
-142.861047327566
 30
0.0
  0
VERTEX
  5
10C
330
10A
100
AcDbEntity
  8
Ebene 1
 62
   179
420
  1709851
370
    18
100
AcDbVertex
100
AcDb2dVertex
 10
96.22375621509337
 20
-143.0722316808118
 30
0.0
  0
VERTEX
  5
10D
330
10A
100
AcDbEntity
  8
Ebene 1
 62
   179
420
  1709851
370
    18
100
AcDbVertex
100
AcDb2dVertex
 10
96.35070798372483
 20
-143.2420748882346
 30
0.0
  0
VERTEX
  5
10E
330
10A
100
AcDbEntity
  8
Ebene 1
 62
   179
420
  1709851
370
    18
100
AcDbVertex
100
AcDb2dVertex
 10
96.52003442682485
 20
-143.1359659472889
 30
0.0
  0
VERTEX
  5
10F
330
10A
100
AcDbEntity
  8
Ebene 1
 62
   179
420
  1709851
370
    18
100
AcDbVertex
100
AcDb2dVertex
 10
96.49884708959057
 20
-142.9034220020346
 30
0.0
  0
VERTEX
  5
110
330
10A
100
AcDbEntity
  8
Ebene 1
 62
   179
420
  1709851
370
    18
100
AcDbVertex
100
AcDb2dVertex
 10
96.30833330925626
 20
-142.861047327566
 30
0.0
  0
SEQEND
  5
111
330
10A
100
AcDbEntity
  8
Ebene 1
370
    18
  0
POLYLINE
  5
112
330
4A
100
AcDbEntity
  8
Ebene 1
 62
   179
420
  1709851
370
    18
100
AcDb2dPolyline
 66
     1
 10
0.0
 20
0.0
 30
0.0
  0
VERTEX
  5
113
330
112
100
AcDbEntity
  8
Ebene 1
 62
   179
420
  1709851
370
    18
100
AcDbVertex
100
AcDb2dVertex
 10
96.30833330925626
 20
-157.8680555160886
 30
0.0
  0
VERTEX
  5
114
330
112
100
AcDbEntity
  8
Ebene 1
 62
   179
420
  1709851
370
    18
100
AcDbVertex
100
AcDb2dVertex
 10
96.22375621509337
 20
-158.0589138059714
 30
0.0
  0
VERTEX
  5
115
330
112
100
AcDbEntity
  8
Ebene 1
 62
   179
420
  1709851
370
    18
100
AcDbVertex
100
AcDb2dVertex
 10
96.35070798372483
 20
-158.2277234847486
 30
0.0
  0
VERTEX
  5
116
330
112
100
AcDbEntity
  8
Ebene 1
 62
   179
420
  1709851
370
    18
100
AcDbVertex
100
AcDb2dVertex
 10
96.52003442682485
 20
-158.1216145438029
 30
0.0
  0
VERTEX
  5
117
330
112
100
AcDbEntity
  8
Ebene 1
 62
   179
420
  1709851
370
    18
100
AcDbVertex
100
AcDb2dVertex
 10
96.49884708959057
 20
-157.9107747001056
 30
0.0
  0
VERTEX
  5
118
330
112
100
AcDbEntity
  8
Ebene 1
 62
   179
420
  1709851
370
    18
100
AcDbVertex
100
AcDb2dVertex
 10
96.30833330925626
 20
-157.8680555160886
 30
0.0
  0
SEQEND
  5
119
330
112
100
AcDbEntity
  8
Ebene 1
370
    18
  0
POLYLINE
  5
11A
330
4A
100
AcDbEntity
  8
Ebene 1
 62
   179
420
  1709851
370
    18
100
AcDb2dPolyline
 66
     1
 10
0.0
 20
0.0
 30
0.0
  0
VERTEX
  5
11B
330
11A
100
AcDbEntity
  8
Ebene 1
 62
   179
420
  1709851
370
    18
100
AcDbVertex
100
AcDb2dVertex
 10
96.30833330925626
 20
-172.8535318578283
 30
0.0
  0
VERTEX
  5
11C
330
11A
100
AcDbEntity
  8
Ebene 1
 62
   179
420
  1709851
370
    18
100
AcDbVertex
100
AcDb2dVertex
 10
96.22375621509337
 20
-173.0657497397197
 30
0.0
  0
VERTEX
  5
11D
330
11A
100
AcDbEntity
  8
Ebene 1
 62
   179
420
  1709851
370
    18
100
AcDbVertex
100
AcDb2dVertex
 10
96.35070798372483
 20
-173.2345594184969
 30
0.0
  0
VERTEX
  5
11E
330
11A
100
AcDbEntity
  8
Ebene 1
 62
   179
420
  1709851
370
    18
100
AcDbVertex
100
AcDb2dVertex
 10
96.52003442682485
 20
-173.1291394966483
 30
0.0
  0
VERTEX
  5
11F
330
11A
100
AcDbEntity
  8
Ebene 1
 62
   179
420
  1709851
370
    18
100
AcDbVertex
100
AcDb2dVertex
 10
96.49884708959057
 20
-172.8962510418454
 30
0.0
  0
VERTEX
  5
120
330
11A
100
AcDbEntity
  8
Ebene 1
 62
   179
420
  1709851
370
    18
100
AcDbVertex
100
AcDb2dVertex
 10
96.30833330925626
 20
-172.8535318578283
 30
0.0
  0
SEQEND
  5
121
330
11A
100
AcDbEntity
  8
Ebene 1
370
    18
  0
POLYLINE
  5
122
330
4A
100
AcDbEntity
  8
Ebene 1
 62
   179
420
  1709851
370
    18
100
AcDb2dPolyline
 66
     1
 10
0.0
 20
0.0
 30
0.0
  0
VERTEX
  5
123
330
122
100
AcDbEntity
  8
Ebene 1
 62
   179
420
  1709851
370
    18
100
AcDbVertex
100
AcDb2dVertex
 10
96.30833330925626
 20
-187.8610568106736
 30
0.0
  0
VERTEX
  5
124
330
122
100
AcDbEntity
  8
Ebene 1
 62
   179
420
  1709851
370
    18
100
AcDbVertex
100
AcDb2dVertex
 10
96.22375621509337
 20
-188.073274692565
 30
0.0
  0
VERTEX
  5
125
330
122
100
AcDbEntity
  8
Ebene 1
 62
   179
420
  1709851
370
    18
100
AcDbVertex
100
AcDb2dVertex
 10
96.35070798372483
 20
-188.2214137984308
 30
0.0
  0
VERTEX
  5
126
330
122
100
AcDbEntity
  8
Ebene 1
 62
   179
420
  1709851
370
    18
100
AcDbVertex
100
AcDb2dVertex
 10
96.52003442682485
 20
-188.1153048574851
 30
0.0
  0
VERTEX
  5
127
330
122
100
AcDbEntity
  8
Ebene 1
 62
   179
420
  1709851
370
    18
100
AcDbVertex
100
AcDb2dVertex
 10
96.49884708959057
 20
-187.9030869755937
 30
0.0
  0
VERTEX
  5
128
330
122
100
AcDbEntity
  8
Ebene 1
 62
   179
420
  1709851
370
    18
100
AcDbVertex
100
AcDb2dVertex
 10
96.30833330925626
 20
-187.8610568106736
 30
0.0
  0
SEQEND
  5
129
330
122
100
AcDbEntity
  8
Ebene 1
370
    18
  0
POLYLINE
  5
12A
330
4A
100
AcDbEntity
  8
Ebene 1
 62
   179
420
  1709851
370
    18
100
AcDb2dPolyline
 66
     1
 10
0.0
 20
0.0
 30
0.0
  0
VERTEX
  5
12B
330
12A
100
AcDbEntity
  8
Ebene 1
 62
   179
420
  1709851
370
    18
100
AcDbVertex
100
AcDb2dVertex
 10
96.30833330925626
 20
-202.8472221715104
 30
0.0
  0
VERTEX
  5
12C
330
12A
100
AcDbEntity
  8
Ebene 1
 62
   179
420
  1709851
370
    18
100
AcDbVertex
100
AcDb2dVertex
 10
96.22375621509337
 20
-203.0587510343048
 30
0.0
  0
VERTEX
  5
12D
330
12A
100
AcDbEntity
  8
Ebene 1
 62
   179
420
  1709851
370
    18
100
AcDbVertex
100
AcDb2dVertex
 10
96.35070798372483
 20
-203.2282497321791
 30
0.0
  0
VERTEX
  5
12E
330
12A
100
AcDbEntity
  8
Ebene 1
 62
   179
420
  1709851
370
    18
100
AcDbVertex
100
AcDb2dVertex
 10
96.52003442682485
 20
-203.1228298103304
 30
0.0
  0
VERTEX
  5
12F
330
12A
100
AcDbEntity
  8
Ebene 1
 62
   179
420
  1709851
370
    18
100
AcDbVertex
100
AcDb2dVertex
 10
96.49884708959057
 20
-202.8899413555275
 30
0.0
  0
VERTEX
  5
130
330
12A
100
AcDbEntity
  8
Ebene 1
 62
   179
420
  1709851
370
    18
100
AcDbVertex
100
AcDb2dVertex
 10
96.30833330925626
 20
-202.8472221715104
 30
0.0
  0
SEQEND
  5
131
330
12A
100
AcDbEntity
  8
Ebene 1
370
    18
  0
POLYLINE
  5
132
330
4A
100
AcDbEntity
  8
Ebene 1
 62
   179
420
  1709851
370
    18
100
AcDb2dPolyline
 66
     1
 10
0.0
 20
0.0
 30
0.0
  0
VERTEX
  5
133
330
132
100
AcDbEntity
  8
Ebene 1
 62
   179
420
  1709851
370
    18
100
AcDbVertex
100
AcDb2dVertex
 10
96.30833330925626
 20
-217.8547471243558
 30
0.0
  0
VERTEX
  5
134
330
132
100
AcDbEntity
  8
Ebene 1
 62
   179
420
  1709851
370
    18
100
AcDbVertex
100
AcDb2dVertex
 10
96.22375621509337
 20
-218.0655869680531
 30
0.0
  0
VERTEX
  5
135
330
132
100
AcDbEntity
  8
Ebene 1
 62
   179
420
  1709851
370
    18
100
AcDbVertex
100
AcDb2dVertex
 10
96.35070798372483
 20
-218.2357746850244
 30
0.0
  0
VERTEX
  5
136
330
132
100
AcDbEntity
  8
Ebene 1
 62
   179
420
  1709851
370
    18
100
AcDbVertex
100
AcDb2dVertex
 10
96.52003442682485
 20
-218.1296657440787
 30
0.0
  0
VERTEX
  5
137
330
132
100
AcDbEntity
  8
Ebene 1
 62
   179
420
  1709851
370
    18
100
AcDbVertex
100
AcDb2dVertex
 10
96.49884708959057
 20
-217.8967772892758
 30
0.0
  0
VERTEX
  5
138
330
132
100
AcDbEntity
  8
Ebene 1
 62
   179
420
  1709851
370
    18
100
AcDbVertex
100
AcDb2dVertex
 10
96.30833330925626
 20
-217.8547471243558
 30
0.0
  0
SEQEND
  5
139
330
132
100
AcDbEntity
  8
Ebene 1
370
    18
  0
POLYLINE
  5
13A
330
4A
100
AcDbEntity
  8
Ebene 1
 62
   179
420
  1709851
370
    18
100
AcDb2dPolyline
 66
     1
 10
0.0
 20
0.0
 30
0.0
  0
VERTEX
  5
13B
330
13A
100
AcDbEntity
  8
Ebene 1
 62
   179
420
  1709851
370
    18
100
AcDbVertex
100
AcDb2dVertex
 10
96.47765975235629
 20
-232.9043022421212
 30
0.0
  0
VERTEX
  5
13C
330
13A
100
AcDbEntity
  8
Ebene 1
 62
   179
420
  1709851
370
    18
100
AcDbVertex
100
AcDb2dVertex
 10
96.30833330925626
 20
-232.8615830581041
 30
0.0
  0
SEQEND
  5
13D
330
13A
100
AcDbEntity
  8
Ebene 1
370
    18
  0
POLYLINE
  5
13E
330
4A
100
AcDbEntity
  8
Ebene 1
 62
   179
420
  1709851
370
    18
100
AcDb2dPolyline
 66
     1
 10
0.0
 20
0.0
 30
0.0
  0
VERTEX
  5
13F
330
13E
100
AcDbEntity
  8
Ebene 1
 62
   179
420
  1709851
370
    18
100
AcDbVertex
100
AcDb2dVertex
 10
96.30833330925626
 20
-232.8615830581041
 30
0.0
  0
VERTEX
  5
140
330
13E
100
AcDbEntity
  8
Ebene 1
 62
   179
420
  1709851
370
    18
100
AcDbVertex
100
AcDb2dVertex
 10
96.28714597202197
 20
-232.9043022421212
 30
0.0
  0
SEQEND
  5
141
330
13E
100
AcDbEntity
  8
Ebene 1
370
    18
  0
POLYLINE
  5
142
330
4A
100
AcDbEntity
  8
Ebene 1
 62
   179
420
  1709851
370
    18
100
AcDb2dPolyline
 66
     1
 10
0.0
 20
0.0
 30
0.0
  0
VERTEX
  5
143
330
142
100
AcDbEntity
  8
Ebene 1
 62
   179
420
  1709851
370
    18
100
AcDbVertex
100
AcDb2dVertex
 10
95.99086776029048
 20
-129.1237290801323
 30
0.0
  0
VERTEX
  5
144
330
142
100
AcDbEntity
  8
Ebene 1
 62
   179
420
  1709851
370
    18
100
AcDbVertex
100
AcDb2dVertex
 10
95.90611841135333
 20
-129.3356024524751
 30
0.0
  0
VERTEX
  5
145
330
142
100
AcDbEntity
  8
Ebene 1
 62
   179
420
  1709851
370
    18
100
AcDbVertex
100
AcDb2dVertex
 10
96.05442977199334
 20
-129.5047566408009
 30
0.0
  0
VERTEX
  5
146
330
142
100
AcDbEntity
  8
Ebene 1
 62
   179
420
  1709851
370
    18
100
AcDbVertex
100
AcDb2dVertex
 10
96.22375621509337
 20
-129.3986476998552
 30
0.0
  0
VERTEX
  5
147
330
142
100
AcDbEntity
  8
Ebene 1
 62
   179
420
  1709851
370
    18
100
AcDbVertex
100
AcDb2dVertex
 10
96.1813815406248
 20
-129.1657592450523
 30
0.0
  0
VERTEX
  5
148
330
142
100
AcDbEntity
  8
Ebene 1
 62
   179
420
  1709851
370
    18
100
AcDbVertex
100
AcDb2dVertex
 10
95.99086776029048
 20
-129.1237290801323
 30
0.0
  0
SEQEND
  5
149
330
142
100
AcDbEntity
  8
Ebene 1
370
    18
  0
POLYLINE
  5
14A
330
4A
100
AcDbEntity
  8
Ebene 1
 62
   179
420
  1709851
370
    18
100
AcDb2dPolyline
 66
     1
 10
0.0
 20
0.0
 30
0.0
  0
VERTEX
  5
14B
330
14A
100
AcDbEntity
  8
Ebene 1
 62
   179
420
  1709851
370
    18
100
AcDbVertex
100
AcDb2dVertex
 10
95.99086776029048
 20
-144.1098944409691
 30
0.0
  0
VERTEX
  5
14C
330
14A
100
AcDbEntity
  8
Ebene 1
 62
   179
420
  1709851
370
    18
100
AcDbVertex
100
AcDb2dVertex
 10
95.90611841135333
 20
-144.3214233037634
 30
0.0
  0
VERTEX
  5
14D
330
14A
100
AcDbEntity
  8
Ebene 1
 62
   179
420
  1709851
370
    18
100
AcDbVertex
100
AcDb2dVertex
 10
96.05442977199334
 20
-144.4909220016377
 30
0.0
  0
VERTEX
  5
14E
330
14A
100
AcDbEntity
  8
Ebene 1
 62
   179
420
  1709851
370
    18
100
AcDbVertex
100
AcDb2dVertex
 10
96.22375621509337
 20
-144.384813060692
 30
0.0
  0
VERTEX
  5
14F
330
14A
100
AcDbEntity
  8
Ebene 1
 62
   179
420
  1709851
370
    18
100
AcDbVertex
100
AcDb2dVertex
 10
96.1813815406248
 20
-144.1729396883491
 30
0.0
  0
VERTEX
  5
150
330
14A
100
AcDbEntity
  8
Ebene 1
 62
   179
420
  1709851
370
    18
100
AcDbVertex
100
AcDb2dVertex
 10
95.99086776029048
 20
-144.1098944409691
 30
0.0
  0
SEQEND
  5
151
330
14A
100
AcDbEntity
  8
Ebene 1
370
    18
  0
POLYLINE
  5
152
330
4A
100
AcDbEntity
  8
Ebene 1
 62
   179
420
  1709851
370
    18
100
AcDb2dPolyline
 66
     1
 10
0.0
 20
0.0
 30
0.0
  0
VERTEX
  5
153
330
152
100
AcDbEntity
  8
Ebene 1
 62
   179
420
  1709851
370
    18
100
AcDbVertex
100
AcDb2dVertex
 10
95.99086776029048
 20
-159.1172471390401
 30
0.0
  0
VERTEX
  5
154
330
152
100
AcDbEntity
  8
Ebene 1
 62
   179
420
  1709851
370
    18
100
AcDbVertex
100
AcDb2dVertex
 10
95.90611841135333
 20
-159.3280869827374
 30
0.0
  0
VERTEX
  5
155
330
152
100
AcDbEntity
  8
Ebene 1
 62
   179
420
  1709851
370
    18
100
AcDbVertex
100
AcDb2dVertex
 10
96.05442977199334
 20
-159.4982746997088
 30
0.0
  0
VERTEX
  5
156
330
152
100
AcDbEntity
  8
Ebene 1
 62
   179
420
  1709851
370
    18
100
AcDbVertex
100
AcDb2dVertex
 10
96.22375621509337
 20
-159.3921657587631
 30
0.0
  0
VERTEX
  5
157
330
152
100
AcDbEntity
  8
Ebene 1
 62
   179
420
  1709851
370
    18
100
AcDbVertex
100
AcDb2dVertex
 10
96.1813815406248
 20
-159.1592773039602
 30
0.0
  0
VERTEX
  5
158
330
152
100
AcDbEntity
  8
Ebene 1
 62
   179
420
  1709851
370
    18
100
AcDbVertex
100
AcDb2dVertex
 10
95.99086776029048
 20
-159.1172471390401
 30
0.0
  0
SEQEND
  5
159
330
152
100
AcDbEntity
  8
Ebene 1
370
    18
  0
POLYLINE
  5
15A
330
4A
100
AcDbEntity
  8
Ebene 1
 62
   179
420
  1709851
370
    18
100
AcDb2dPolyline
 66
     1
 10
0.0
 20
0.0
 30
0.0
  0
VERTEX
  5
15B
330
15A
100
AcDbEntity
  8
Ebene 1
 62
   179
420
  1709851
370
    18
100
AcDbVertex
100
AcDb2dVertex
 10
95.99086776029048
 20
-174.1240830727884
 30
0.0
  0
VERTEX
  5
15C
330
15A
100
AcDbEntity
  8
Ebene 1
 62
   179
420
  1709851
370
    18
100
AcDbVertex
100
AcDb2dVertex
 10
95.90611841135333
 20
-174.3356119355828
 30
0.0
  0
VERTEX
  5
15D
330
15A
100
AcDbEntity
  8
Ebene 1
 62
   179
420
  1709851
370
    18
100
AcDbVertex
100
AcDb2dVertex
 10
96.05442977199334
 20
-174.4837510414485
 30
0.0
  0
VERTEX
  5
15E
330
15A
100
AcDbEntity
  8
Ebene 1
 62
   179
420
  1709851
370
    18
100
AcDbVertex
100
AcDb2dVertex
 10
96.22375621509337
 20
-174.3776421005028
 30
0.0
  0
VERTEX
  5
15F
330
15A
100
AcDbEntity
  8
Ebene 1
 62
   179
420
  1709851
370
    18
100
AcDbVertex
100
AcDb2dVertex
 10
96.1813815406248
 20
-174.1668022568055
 30
0.0
  0
VERTEX
  5
160
330
15A
100
AcDbEntity
  8
Ebene 1
 62
   179
420
  1709851
370
    18
100
AcDbVertex
100
AcDb2dVertex
 10
95.99086776029048
 20
-174.1240830727884
 30
0.0
  0
SEQEND
  5
161
330
15A
100
AcDbEntity
  8
Ebene 1
370
    18
  0
POLYLINE
  5
162
330
4A
100
AcDbEntity
  8
Ebene 1
 62
   179
420
  1709851
370
    18
100
AcDb2dPolyline
 66
     1
 10
0.0
 20
0.0
 30
0.0
  0
VERTEX
  5
163
330
162
100
AcDbEntity
  8
Ebene 1
 62
   179
420
  1709851
370
    18
100
AcDbVertex
100
AcDb2dVertex
 10
95.99086776029048
 20
-189.1095594145282
 30
0.0
  0
VERTEX
  5
164
330
162
100
AcDbEntity
  8
Ebene 1
 62
   179
420
  1709851
370
    18
100
AcDbVertex
100
AcDb2dVertex
 10
95.90611841135333
 20
-189.3217772964196
 30
0.0
  0
VERTEX
  5
165
330
162
100
AcDbEntity
  8
Ebene 1
 62
   179
420
  1709851
370
    18
100
AcDbVertex
100
AcDb2dVertex
 10
96.05442977199334
 20
-189.4905869751968
 30
0.0
  0
VERTEX
  5
166
330
162
100
AcDbEntity
  8
Ebene 1
 62
   179
420
  1709851
370
    18
100
AcDbVertex
100
AcDb2dVertex
 10
96.22375621509337
 20
-189.3851670533482
 30
0.0
  0
VERTEX
  5
167
330
162
100
AcDbEntity
  8
Ebene 1
 62
   179
420
  1709851
370
    18
100
AcDbVertex
100
AcDb2dVertex
 10
96.1813815406248
 20
-189.1522785985453
 30
0.0
  0
VERTEX
  5
168
330
162
100
AcDbEntity
  8
Ebene 1
 62
   179
420
  1709851
370
    18
100
AcDbVertex
100
AcDb2dVertex
 10
95.99086776029048
 20
-189.1095594145282
 30
0.0
  0
SEQEND
  5
169
330
162
100
AcDbEntity
  8
Ebene 1
370
    18
  0
POLYLINE
  5
16A
330
4A
100
AcDbEntity
  8
Ebene 1
 62
   179
420
  1709851
370
    18
100
AcDb2dPolyline
 66
     1
 10
0.0
 20
0.0
 30
0.0
  0
VERTEX
  5
16B
330
16A
100
AcDbEntity
  8
Ebene 1
 62
   179
420
  1709851
370
    18
100
AcDbVertex
100
AcDb2dVertex
 10
95.99086776029048
 20
-204.1170843673735
 30
0.0
  0
VERTEX
  5
16C
330
16A
100
AcDbEntity
  8
Ebene 1
 62
   179
420
  1709851
370
    18
100
AcDbVertex
100
AcDb2dVertex
 10
95.90611841135333
 20
-204.3293022492649
 30
0.0
  0
VERTEX
  5
16D
330
16A
100
AcDbEntity
  8
Ebene 1
 62
   179
420
  1709851
370
    18
100
AcDbVertex
100
AcDb2dVertex
 10
96.05442977199334
 20
-204.4981119280421
 30
0.0
  0
VERTEX
  5
16E
330
16A
100
AcDbEntity
  8
Ebene 1
 62
   179
420
  1709851
370
    18
100
AcDbVertex
100
AcDb2dVertex
 10
96.22375621509337
 20
-204.3920029870964
 30
0.0
  0
VERTEX
  5
16F
330
16A
100
AcDbEntity
  8
Ebene 1
 62
   179
420
  1709851
370
    18
100
AcDbVertex
100
AcDb2dVertex
 10
96.1813815406248
 20
-204.1591145322936
 30
0.0
  0
VERTEX
  5
170
330
16A
100
AcDbEntity
  8
Ebene 1
 62
   179
420
  1709851
370
    18
100
AcDbVertex
100
AcDb2dVertex
 10
95.99086776029048
 20
-204.1170843673735
 30
0.0
  0
SEQEND
  5
171
330
16A
100
AcDbEntity
  8
Ebene 1
370
    18
  0
POLYLINE
  5
172
330
4A
100
AcDbEntity
  8
Ebene 1
 62
   179
420
  1709851
370
    18
100
AcDb2dPolyline
 66
     1
 10
0.0
 20
0.0
 30
0.0
  0
VERTEX
  5
173
330
172
100
AcDbEntity
  8
Ebene 1
 62
   179
420
  1709851
370
    18
100
AcDbVertex
100
AcDb2dVertex
 10
95.99086776029048
 20
-219.1032497282103
 30
0.0
  0
VERTEX
  5
174
330
172
100
AcDbEntity
  8
Ebene 1
 62
   179
420
  1709851
370
    18
100
AcDbVertex
100
AcDb2dVertex
 10
95.90611841135333
 20
-219.3147785910047
 30
0.0
  0
VERTEX
  5
175
330
172
100
AcDbEntity
  8
Ebene 1
 62
   179
420
  1709851
370
    18
100
AcDbVertex
100
AcDb2dVertex
 10
96.05442977199334
 20
-219.4842772888789
 30
0.0
  0
VERTEX
  5
176
330
172
100
AcDbEntity
  8
Ebene 1
 62
   179
420
  1709851
370
    18
100
AcDbVertex
100
AcDb2dVertex
 10
96.22375621509337
 20
-219.3788573670303
 30
0.0
  0
VERTEX
  5
177
330
172
100
AcDbEntity
  8
Ebene 1
 62
   179
420
  1709851
370
    18
100
AcDbVertex
100
AcDb2dVertex
 10
96.1813815406248
 20
-219.1666394851389
 30
0.0
  0
VERTEX
  5
178
330
172
100
AcDbEntity
  8
Ebene 1
 62
   179
420
  1709851
370
    18
100
AcDbVertex
100
AcDb2dVertex
 10
95.99086776029048
 20
-219.1032497282103
 30
0.0
  0
SEQEND
  5
179
330
172
100
AcDbEntity
  8
Ebene 1
370
    18
  0
POLYLINE
  5
17A
330
4A
100
AcDbEntity
  8
Ebene 1
 62
   179
420
  1709851
370
    18
100
AcDb2dPolyline
 66
     1
 10
0.0
 20
0.0
 30
0.0
  0
VERTEX
  5
17B
330
17A
100
AcDbEntity
  8
Ebene 1
 62
   179
420
  1709851
370
    18
100
AcDbVertex
100
AcDb2dVertex
 10
97.3878539795593
 20
-135.2194810317333
 30
0.0
  0
VERTEX
  5
17C
330
17A
100
AcDbEntity
  8
Ebene 1
 62
   179
420
  1709851
370
    18
100
AcDbVertex
100
AcDb2dVertex
 10
97.30327688539641
 20
-135.4313544040762
 30
0.0
  0
VERTEX
  5
17D
330
17A
100
AcDbEntity
  8
Ebene 1
 62
   179
420
  1709851
370
    18
100
AcDbVertex
100
AcDb2dVertex
 10
97.43022865402786
 20
-135.600508592402
 30
0.0
  0
VERTEX
  5
17E
330
17A
100
AcDbEntity
  8
Ebene 1
 62
   179
420
  1709851
370
    18
100
AcDbVertex
100
AcDb2dVertex
 10
97.59955509712789
 20
-135.4950886705533
 30
0.0
  0
VERTEX
  5
17F
330
17A
100
AcDbEntity
  8
Ebene 1
 62
   179
420
  1709851
370
    18
100
AcDbVertex
100
AcDb2dVertex
 10
97.57836775989361
 20
-135.2622002157504
 30
0.0
  0
VERTEX
  5
180
330
17A
100
AcDbEntity
  8
Ebene 1
 62
   179
420
  1709851
370
    18
100
AcDbVertex
100
AcDb2dVertex
 10
97.3878539795593
 20
-135.2194810317333
 30
0.0
  0
SEQEND
  5
181
330
17A
100
AcDbEntity
  8
Ebene 1
370
    18
  0
POLYLINE
  5
182
330
4A
100
AcDbEntity
  8
Ebene 1
 62
   179
420
  1709851
370
    18
100
AcDb2dPolyline
 66
     1
 10
0.0
 20
0.0
 30
0.0
  0
VERTEX
  5
183
330
182
100
AcDbEntity
  8
Ebene 1
 62
   179
420
  1709851
370
    18
100
AcDbVertex
100
AcDb2dVertex
 10
97.3878539795593
 20
-150.2268337298044
 30
0.0
  0
VERTEX
  5
184
330
182
100
AcDbEntity
  8
Ebene 1
 62
   179
420
  1709851
370
    18
100
AcDbVertex
100
AcDb2dVertex
 10
97.30327688539641
 20
-150.4383625925987
 30
0.0
  0
VERTEX
  5
185
330
182
100
AcDbEntity
  8
Ebene 1
 62
   179
420
  1709851
370
    18
100
AcDbVertex
100
AcDb2dVertex
 10
97.43022865402786
 20
-150.607861290473
 30
0.0
  0
VERTEX
  5
186
330
182
100
AcDbEntity
  8
Ebene 1
 62
   179
420
  1709851
370
    18
100
AcDbVertex
100
AcDb2dVertex
 10
97.59955509712789
 20
-150.5024413686244
 30
0.0
  0
VERTEX
  5
187
330
182
100
AcDbEntity
  8
Ebene 1
 62
   179
420
  1709851
370
    18
100
AcDbVertex
100
AcDb2dVertex
 10
97.57836775989361
 20
-150.2481933218129
 30
0.0
  0
VERTEX
  5
188
330
182
100
AcDbEntity
  8
Ebene 1
 62
   179
420
  1709851
370
    18
100
AcDbVertex
100
AcDb2dVertex
 10
97.3878539795593
 20
-150.2268337298044
 30
0.0
  0
SEQEND
  5
189
330
182
100
AcDbEntity
  8
Ebene 1
370
    18
  0
POLYLINE
  5
18A
330
4A
100
AcDbEntity
  8
Ebene 1
 62
   179
420
  1709851
370
    18
100
AcDb2dPolyline
 66
     1
 10
0.0
 20
0.0
 30
0.0
  0
VERTEX
  5
18B
330
18A
100
AcDbEntity
  8
Ebene 1
 62
   179
420
  1709851
370
    18
100
AcDbVertex
100
AcDb2dVertex
 10
97.3878539795593
 20
-165.2129990906412
 30
0.0
  0
VERTEX
  5
18C
330
18A
100
AcDbEntity
  8
Ebene 1
 62
   179
420
  1709851
370
    18
100
AcDbVertex
100
AcDb2dVertex
 10
97.30327688539641
 20
-165.4245279534355
 30
0.0
  0
VERTEX
  5
18D
330
18A
100
AcDbEntity
  8
Ebene 1
 62
   179
420
  1709851
370
    18
100
AcDbVertex
100
AcDb2dVertex
 10
97.43022865402786
 20
-165.5940266513098
 30
0.0
  0
VERTEX
  5
18E
330
18A
100
AcDbEntity
  8
Ebene 1
 62
   179
420
  1709851
370
    18
100
AcDbVertex
100
AcDb2dVertex
 10
97.59955509712789
 20
-165.4879177103641
 30
0.0
  0
VERTEX
  5
18F
330
18A
100
AcDbEntity
  8
Ebene 1
 62
   179
420
  1709851
370
    18
100
AcDbVertex
100
AcDb2dVertex
 10
97.57836775989361
 20
-165.2557182746583
 30
0.0
  0
VERTEX
  5
190
330
18A
100
AcDbEntity
  8
Ebene 1
 62
   179
420
  1709851
370
    18
100
AcDbVertex
100
AcDb2dVertex
 10
97.3878539795593
 20
-165.2129990906412
 30
0.0
  0
SEQEND
  5
191
330
18A
100
AcDbEntity
  8
Ebene 1
370
    18
  0
POLYLINE
  5
192
330
4A
100
AcDbEntity
  8
Ebene 1
 62
   179
420
  1709851
370
    18
100
AcDb2dPolyline
 66
     1
 10
0.0
 20
0.0
 30
0.0
  0
VERTEX
  5
193
330
192
100
AcDbEntity
  8
Ebene 1
 62
   179
420
  1709851
370
    18
100
AcDbVertex
100
AcDb2dVertex
 10
97.3878539795593
 20
-180.2205240434865
 30
0.0
  0
VERTEX
  5
194
330
192
100
AcDbEntity
  8
Ebene 1
 62
   179
420
  1709851
370
    18
100
AcDbVertex
100
AcDb2dVertex
 10
97.30327688539641
 20
-180.4320529062809
 30
0.0
  0
VERTEX
  5
195
330
192
100
AcDbEntity
  8
Ebene 1
 62
   179
420
  1709851
370
    18
100
AcDbVertex
100
AcDb2dVertex
 10
97.43022865402786
 20
-180.6015516041552
 30
0.0
  0
VERTEX
  5
196
330
192
100
AcDbEntity
  8
Ebene 1
 62
   179
420
  1709851
370
    18
100
AcDbVertex
100
AcDb2dVertex
 10
97.59955509712789
 20
-180.4947536441124
 30
0.0
  0
VERTEX
  5
197
330
192
100
AcDbEntity
  8
Ebene 1
 62
   179
420
  1709851
370
    18
100
AcDbVertex
100
AcDb2dVertex
 10
97.57836775989361
 20
-180.241194616398
 30
0.0
  0
VERTEX
  5
198
330
192
100
AcDbEntity
  8
Ebene 1
 62
   179
420
  1709851
370
    18
100
AcDbVertex
100
AcDb2dVertex
 10
97.3878539795593
 20
-180.2205240434865
 30
0.0
  0
SEQEND
  5
199
330
192
100
AcDbEntity
  8
Ebene 1
370
    18
  0
POLYLINE
  5
19A
330
4A
100
AcDbEntity
  8
Ebene 1
 62
   179
420
  1709851
370
    18
100
AcDb2dPolyline
 66
     1
 10
0.0
 20
0.0
 30
0.0
  0
VERTEX
  5
19B
330
19A
100
AcDbEntity
  8
Ebene 1
 62
   179
420
  1709851
370
    18
100
AcDbVertex
100
AcDb2dVertex
 10
97.3878539795593
 20
-195.2273599772348
 30
0.0
  0
VERTEX
  5
19C
330
19A
100
AcDbEntity
  8
Ebene 1
 62
   179
420
  1709851
370
    18
100
AcDbVertex
100
AcDb2dVertex
 10
97.30327688539641
 20
-195.4388888400292
 30
0.0
  0
VERTEX
  5
19D
330
19A
100
AcDbEntity
  8
Ebene 1
 62
   179
420
  1709851
370
    18
100
AcDbVertex
100
AcDb2dVertex
 10
97.43022865402786
 20
-195.5870279458949
 30
0.0
  0
VERTEX
  5
19E
330
19A
100
AcDbEntity
  8
Ebene 1
 62
   179
420
  1709851
370
    18
100
AcDbVertex
100
AcDb2dVertex
 10
97.59955509712789
 20
-195.4816080240463
 30
0.0
  0
VERTEX
  5
19F
330
19A
100
AcDbEntity
  8
Ebene 1
 62
   179
420
  1709851
370
    18
100
AcDbVertex
100
AcDb2dVertex
 10
97.57836775989361
 20
-195.2487195692434
 30
0.0
  0
VERTEX
  5
1A0
330
19A
100
AcDbEntity
  8
Ebene 1
 62
   179
420
  1709851
370
    18
100
AcDbVertex
100
AcDb2dVertex
 10
97.3878539795593
 20
-195.2273599772348
 30
0.0
  0
SEQEND
  5
1A1
330
19A
100
AcDbEntity
  8
Ebene 1
370
    18
  0
POLYLINE
  5
1A2
330
4A
100
AcDbEntity
  8
Ebene 1
 62
   179
420
  1709851
370
    18
100
AcDb2dPolyline
 66
     1
 10
0.0
 20
0.0
 30
0.0
  0
VERTEX
  5
1A3
330
1A2
100
AcDbEntity
  8
Ebene 1
 62
   179
420
  1709851
370
    18
100
AcDbVertex
100
AcDb2dVertex
 10
97.3878539795593
 20
-210.2128363189746
 30
0.0
  0
VERTEX
  5
1A4
330
1A2
100
AcDbEntity
  8
Ebene 1
 62
   179
420
  1709851
370
    18
100
AcDbVertex
100
AcDb2dVertex
 10
97.30327688539641
 20
-210.4243651817689
 30
0.0
  0
VERTEX
  5
1A5
330
1A2
100
AcDbEntity
  8
Ebene 1
 62
   179
420
  1709851
370
    18
100
AcDbVertex
100
AcDb2dVertex
 10
97.43022865402786
 20
-210.5945528987403
 30
0.0
  0
VERTEX
  5
1A6
330
1A2
100
AcDbEntity
  8
Ebene 1
 62
   179
420
  1709851
370
    18
100
AcDbVertex
100
AcDb2dVertex
 10
97.59955509712789
 20
-210.4884439577946
 30
0.0
  0
VERTEX
  5
1A7
330
1A2
100
AcDbEntity
  8
Ebene 1
 62
   179
420
  1709851
370
    18
100
AcDbVertex
100
AcDb2dVertex
 10
97.57836775989361
 20
-210.2555555029917
 30
0.0
  0
VERTEX
  5
1A8
330
1A2
100
AcDbEntity
  8
Ebene 1
 62
   179
420
  1709851
370
    18
100
AcDbVertex
100
AcDb2dVertex
 10
97.3878539795593
 20
-210.2128363189746
 30
0.0
  0
SEQEND
  5
1A9
330
1A2
100
AcDbEntity
  8
Ebene 1
370
    18
  0
POLYLINE
  5
1AA
330
4A
100
AcDbEntity
  8
Ebene 1
 62
   179
420
  1709851
370
    18
100
AcDb2dPolyline
 66
     1
 10
0.0
 20
0.0
 30
0.0
  0
VERTEX
  5
1AB
330
1AA
100
AcDbEntity
  8
Ebene 1
 62
   179
420
  1709851
370
    18
100
AcDbVertex
100
AcDb2dVertex
 10
97.3878539795593
 20
-225.2203612718199
 30
0.0
  0
VERTEX
  5
1AC
330
1AA
100
AcDbEntity
  8
Ebene 1
 62
   179
420
  1709851
370
    18
100
AcDbVertex
100
AcDb2dVertex
 10
97.30327688539641
 20
-225.4318901346143
 30
0.0
  0
VERTEX
  5
1AD
330
1AA
100
AcDbEntity
  8
Ebene 1
 62
   179
420
  1709851
370
    18
100
AcDbVertex
100
AcDb2dVertex
 10
97.43022865402786
 20
-225.6013888324885
 30
0.0
  0
VERTEX
  5
1AE
330
1AA
100
AcDbEntity
  8
Ebene 1
 62
   179
420
  1709851
370
    18
100
AcDbVertex
100
AcDb2dVertex
 10
97.59955509712789
 20
-225.4959689106399
 30
0.0
  0
VERTEX
  5
1AF
330
1AA
100
AcDbEntity
  8
Ebene 1
 62
   179
420
  1709851
370
    18
100
AcDbVertex
100
AcDb2dVertex
 10
97.57836775989361
 20
-225.2410318447314
 30
0.0
  0
VERTEX
  5
1B0
330
1AA
100
AcDbEntity
  8
Ebene 1
 62
   179
420
  1709851
370
    18
100
AcDbVertex
100
AcDb2dVertex
 10
97.3878539795593
 20
-225.2203612718199
 30
0.0
  0
SEQEND
  5
1B1
330
1AA
100
AcDbEntity
  8
Ebene 1
370
    18
  0
POLYLINE
  5
1B2
330
4A
100
AcDbEntity
  8
Ebene 1
 62
   179
420
  1709851
370
    18
100
AcDb2dPolyline
 66
     1
 10
0.0
 20
0.0
 30
0.0
  0
VERTEX
  5
1B3
330
1B2
100
AcDbEntity
  8
Ebene 1
 62
   179
420
  1709851
370
    18
100
AcDbVertex
100
AcDb2dVertex
 10
95.86391599165903
 20
-137.9080335484223
 30
0.0
  0
VERTEX
  5
1B4
330
1B2
100
AcDbEntity
  8
Ebene 1
 62
   179
420
  1709851
370
    18
100
AcDbVertex
100
AcDb2dVertex
 10
95.7579793054876
 20
-138.1195624112166
 30
0.0
  0
VERTEX
  5
1B5
330
1B2
100
AcDbEntity
  8
Ebene 1
 62
   179
420
  1709851
370
    18
100
AcDbVertex
100
AcDb2dVertex
 10
95.88510332889331
 20
-138.310076191551
 30
0.0
  0
VERTEX
  5
1B6
330
1B2
100
AcDbEntity
  8
Ebene 1
 62
   179
420
  1709851
370
    18
100
AcDbVertex
100
AcDb2dVertex
 10
96.05442977199334
 20
-138.2039672506053
 30
0.0
  0
VERTEX
  5
1B7
330
1B2
100
AcDbEntity
  8
Ebene 1
 62
   179
420
  1709851
370
    18
100
AcDbVertex
100
AcDb2dVertex
 10
96.03324243475906
 20
-137.9504082228909
 30
0.0
  0
VERTEX
  5
1B8
330
1B2
100
AcDbEntity
  8
Ebene 1
 62
   179
420
  1709851
370
    18
100
AcDbVertex
100
AcDb2dVertex
 10
95.86391599165903
 20
-137.9080335484223
 30
0.0
  0
SEQEND
  5
1B9
330
1B2
100
AcDbEntity
  8
Ebene 1
370
    18
  0
POLYLINE
  5
1BA
330
4A
100
AcDbEntity
  8
Ebene 1
 62
   179
420
  1709851
370
    18
100
AcDb2dPolyline
 66
     1
 10
0.0
 20
0.0
 30
0.0
  0
VERTEX
  5
1BB
330
1BA
100
AcDbEntity
  8
Ebene 1
 62
   179
420
  1709851
370
    18
100
AcDbVertex
100
AcDb2dVertex
 10
95.86391599165903
 20
-152.9153862464934
 30
0.0
  0
VERTEX
  5
1BC
330
1BA
100
AcDbEntity
  8
Ebene 1
 62
   179
420
  1709851
370
    18
100
AcDbVertex
100
AcDb2dVertex
 10
95.7579793054876
 20
-153.1262260901907
 30
0.0
  0
VERTEX
  5
1BD
330
1BA
100
AcDbEntity
  8
Ebene 1
 62
   179
420
  1709851
370
    18
100
AcDbVertex
100
AcDb2dVertex
 10
95.88510332889331
 20
-153.296413807162
 30
0.0
  0
VERTEX
  5
1BE
330
1BA
100
AcDbEntity
  8
Ebene 1
 62
   179
420
  1709851
370
    18
100
AcDbVertex
100
AcDb2dVertex
 10
96.05442977199334
 20
-153.1903048662163
 30
0.0
  0
VERTEX
  5
1BF
330
1BA
100
AcDbEntity
  8
Ebene 1
 62
   179
420
  1709851
370
    18
100
AcDbVertex
100
AcDb2dVertex
 10
96.03324243475906
 20
-152.9574164114134
 30
0.0
  0
VERTEX
  5
1C0
330
1BA
100
AcDbEntity
  8
Ebene 1
 62
   179
420
  1709851
370
    18
100
AcDbVertex
100
AcDb2dVertex
 10
95.86391599165903
 20
-152.9153862464934
 30
0.0
  0
SEQEND
  5
1C1
330
1BA
100
AcDbEntity
  8
Ebene 1
370
    18
  0
POLYLINE
  5
1C2
330
4A
100
AcDbEntity
  8
Ebene 1
 62
   179
420
  1709851
370
    18
100
AcDb2dPolyline
 66
     1
 10
0.0
 20
0.0
 30
0.0
  0
VERTEX
  5
1C3
330
1C2
100
AcDbEntity
  8
Ebene 1
 62
   179
420
  1709851
370
    18
100
AcDbVertex
100
AcDb2dVertex
 10
95.86391599165903
 20
-167.9015516073302
 30
0.0
  0
VERTEX
  5
1C4
330
1C2
100
AcDbEntity
  8
Ebene 1
 62
   179
420
  1709851
370
    18
100
AcDbVertex
100
AcDb2dVertex
 10
95.7579793054876
 20
-168.1130804701245
 30
0.0
  0
VERTEX
  5
1C5
330
1C2
100
AcDbEntity
  8
Ebene 1
 62
   179
420
  1709851
370
    18
100
AcDbVertex
100
AcDb2dVertex
 10
95.88510332889331
 20
-168.3032497409103
 30
0.0
  0
VERTEX
  5
1C6
330
1C2
100
AcDbEntity
  8
Ebene 1
 62
   179
420
  1709851
370
    18
100
AcDbVertex
100
AcDb2dVertex
 10
96.05442977199334
 20
-168.1978298190617
 30
0.0
  0
VERTEX
  5
1C7
330
1C2
100
AcDbEntity
  8
Ebene 1
 62
   179
420
  1709851
370
    18
100
AcDbVertex
100
AcDb2dVertex
 10
96.03324243475906
 20
-167.9428927531532
 30
0.0
  0
VERTEX
  5
1C8
330
1C2
100
AcDbEntity
  8
Ebene 1
 62
   179
420
  1709851
370
    18
100
AcDbVertex
100
AcDb2dVertex
 10
95.86391599165903
 20
-167.9015516073302
 30
0.0
  0
SEQEND
  5
1C9
330
1C2
100
AcDbEntity
  8
Ebene 1
370
    18
  0
POLYLINE
  5
1CA
330
4A
100
AcDbEntity
  8
Ebene 1
 62
   179
420
  1709851
370
    18
100
AcDb2dPolyline
 66
     1
 10
0.0
 20
0.0
 30
0.0
  0
VERTEX
  5
1CB
330
1CA
100
AcDbEntity
  8
Ebene 1
 62
   179
420
  1709851
370
    18
100
AcDbVertex
100
AcDb2dVertex
 10
95.86391599165903
 20
-182.9076985219814
 30
0.0
  0
VERTEX
  5
1CC
330
1CA
100
AcDbEntity
  8
Ebene 1
 62
   179
420
  1709851
370
    18
100
AcDbVertex
100
AcDb2dVertex
 10
95.7579793054876
 20
-183.1199164038728
 30
0.0
  0
VERTEX
  5
1CD
330
1CA
100
AcDbEntity
  8
Ebene 1
 62
   179
420
  1709851
370
    18
100
AcDbVertex
100
AcDb2dVertex
 10
95.88510332889331
 20
-183.28872608265
 30
0.0
  0
VERTEX
  5
1CE
330
1CA
100
AcDbEntity
  8
Ebene 1
 62
   179
420
  1709851
370
    18
100
AcDbVertex
100
AcDb2dVertex
 10
96.05442977199334
 20
-183.1833061608014
 30
0.0
  0
VERTEX
  5
1CF
330
1CA
100
AcDbEntity
  8
Ebene 1
 62
   179
420
  1709851
370
    18
100
AcDbVertex
100
AcDb2dVertex
 10
96.03324243475906
 20
-182.9504177059985
 30
0.0
  0
VERTEX
  5
1D0
330
1CA
100
AcDbEntity
  8
Ebene 1
 62
   179
420
  1709851
370
    18
100
AcDbVertex
100
AcDb2dVertex
 10
95.86391599165903
 20
-182.9076985219814
 30
0.0
  0
SEQEND
  5
1D1
330
1CA
100
AcDbEntity
  8
Ebene 1
370
    18
  0
POLYLINE
  5
1D2
330
4A
100
AcDbEntity
  8
Ebene 1
 62
   179
420
  1709851
370
    18
100
AcDb2dPolyline
 66
     1
 10
0.0
 20
0.0
 30
0.0
  0
VERTEX
  5
1D3
330
1D2
100
AcDbEntity
  8
Ebene 1
 62
   179
420
  1709851
370
    18
100
AcDbVertex
100
AcDb2dVertex
 10
95.7579793054876
 20
-198.1053927456126
 30
0.0
  0
VERTEX
  5
1D4
330
1D2
100
AcDbEntity
  8
Ebene 1
 62
   179
420
  1709851
370
    18
100
AcDbVertex
100
AcDb2dVertex
 10
95.88510332889331
 20
-198.2962510354954
 30
0.0
  0
VERTEX
  5
1D5
330
1D2
100
AcDbEntity
  8
Ebene 1
 62
   179
420
  1709851
370
    18
100
AcDbVertex
100
AcDb2dVertex
 10
96.05442977199334
 20
-198.1901420945497
 30
0.0
  0
VERTEX
  5
1D6
330
1D2
100
AcDbEntity
  8
Ebene 1
 62
   179
420
  1709851
370
    18
100
AcDbVertex
100
AcDb2dVertex
 10
96.03324243475906
 20
-197.9572536397468
 30
0.0
  0
VERTEX
  5
1D7
330
1D2
100
AcDbEntity
  8
Ebene 1
 62
   179
420
  1709851
370
    18
100
AcDbVertex
100
AcDb2dVertex
 10
95.86391599165903
 20
-197.8945529019153
 30
0.0
  0
SEQEND
  5
1D8
330
1D2
100
AcDbEntity
  8
Ebene 1
370
    18
  0
POLYLINE
  5
1D9
330
4A
100
AcDbEntity
  8
Ebene 1
 62
   179
420
  1709851
370
    18
100
AcDb2dPolyline
 66
     1
 10
0.0
 20
0.0
 30
0.0
  0
VERTEX
  5
1DA
330
1D9
100
AcDbEntity
  8
Ebene 1
 62
   179
420
  1709851
370
    18
100
AcDbVertex
100
AcDb2dVertex
 10
95.86391599165903
 20
-197.8945529019153
 30
0.0
  0
VERTEX
  5
1DB
330
1D9
100
AcDbEntity
  8
Ebene 1
 62
   179
420
  1709851
370
    18
100
AcDbVertex
100
AcDb2dVertex
 10
95.7579793054876
 20
-198.1053927456126
 30
0.0
  0
SEQEND
  5
1DC
330
1D9
100
AcDbEntity
  8
Ebene 1
370
    18
  0
POLYLINE
  5
1DD
330
4A
100
AcDbEntity
  8
Ebene 1
 62
   179
420
  1709851
370
    18
100
AcDb2dPolyline
 66
     1
 10
0.0
 20
0.0
 30
0.0
  0
VERTEX
  5
1DE
330
1DD
100
AcDbEntity
  8
Ebene 1
 62
   179
420
  1709851
370
    18
100
AcDbVertex
100
AcDb2dVertex
 10
95.86391599165903
 20
-212.9013888356635
 30
0.0
  0
VERTEX
  5
1DF
330
1DD
100
AcDbEntity
  8
Ebene 1
 62
   179
420
  1709851
370
    18
100
AcDbVertex
100
AcDb2dVertex
 10
95.7579793054876
 20
-213.1129176984579
 30
0.0
  0
VERTEX
  5
1E0
330
1DD
100
AcDbEntity
  8
Ebene 1
 62
   179
420
  1709851
370
    18
100
AcDbVertex
100
AcDb2dVertex
 10
95.88510332889331
 20
-213.3030869692437
 30
0.0
  0
VERTEX
  5
1E1
330
1DD
100
AcDbEntity
  8
Ebene 1
 62
   179
420
  1709851
370
    18
100
AcDbVertex
100
AcDb2dVertex
 10
96.05442977199334
 20
-213.197667047395
 30
0.0
  0
VERTEX
  5
1E2
330
1DD
100
AcDbEntity
  8
Ebene 1
 62
   179
420
  1709851
370
    18
100
AcDbVertex
100
AcDb2dVertex
 10
96.03324243475906
 20
-212.9441080196806
 30
0.0
  0
VERTEX
  5
1E3
330
1DD
100
AcDbEntity
  8
Ebene 1
 62
   179
420
  1709851
370
    18
100
AcDbVertex
100
AcDb2dVertex
 10
95.86391599165903
 20
-212.9013888356635
 30
0.0
  0
SEQEND
  5
1E4
330
1DD
100
AcDbEntity
  8
Ebene 1
370
    18
  0
POLYLINE
  5
1E5
330
4A
100
AcDbEntity
  8
Ebene 1
 62
   179
420
  1709851
370
    18
100
AcDb2dPolyline
 66
     1
 10
0.0
 20
0.0
 30
0.0
  0
VERTEX
  5
1E6
330
1E5
100
AcDbEntity
  8
Ebene 1
 62
   179
420
  1709851
370
    18
100
AcDbVertex
100
AcDb2dVertex
 10
95.86391599165903
 20
-227.9089137885089
 30
0.0
  0
VERTEX
  5
1E7
330
1E5
100
AcDbEntity
  8
Ebene 1
 62
   179
420
  1709851
370
    18
100
AcDbVertex
100
AcDb2dVertex
 10
95.7579793054876
 20
-228.1197536322062
 30
0.0
  0
VERTEX
  5
1E8
330
1E5
100
AcDbEntity
  8
Ebene 1
 62
   179
420
  1709851
370
    18
100
AcDbVertex
100
AcDb2dVertex
 10
95.88510332889331
 20
-228.2899413491775
 30
0.0
  0
VERTEX
  5
1E9
330
1E5
100
AcDbEntity
  8
Ebene 1
 62
   179
420
  1709851
370
    18
100
AcDbVertex
100
AcDb2dVertex
 10
96.05442977199334
 20
-228.1838324082318
 30
0.0
  0
VERTEX
  5
1EA
330
1E5
100
AcDbEntity
  8
Ebene 1
 62
   179
420
  1709851
370
    18
100
AcDbVertex
100
AcDb2dVertex
 10
96.03324243475906
 20
-227.9509439534289
 30
0.0
  0
VERTEX
  5
1EB
330
1E5
100
AcDbEntity
  8
Ebene 1
 62
   179
420
  1709851
370
    18
100
AcDbVertex
100
AcDb2dVertex
 10
95.86391599165903
 20
-227.9089137885089
 30
0.0
  0
SEQEND
  5
1EC
330
1E5
100
AcDbEntity
  8
Ebene 1
370
    18
  0
POLYLINE
  5
1ED
330
4A
100
AcDbEntity
  8
Ebene 1
 62
   179
420
  1709851
370
    18
100
AcDb2dPolyline
 66
     1
 10
0.0
 20
0.0
 30
0.0
  0
VERTEX
  5
1EE
330
1ED
100
AcDbEntity
  8
Ebene 1
 62
   179
420
  1709851
370
    18
100
AcDbVertex
100
AcDb2dVertex
 10
90.12765975394379
 20
-134.7537041221275
 30
0.0
  0
VERTEX
  5
1EF
330
1ED
100
AcDbEntity
  8
Ebene 1
 62
   179
420
  1709851
370
    18
100
AcDbVertex
100
AcDb2dVertex
 10
90.0430826597809
 20
-134.9655774944704
 30
0.0
  0
VERTEX
  5
1F0
330
1ED
100
AcDbEntity
  8
Ebene 1
 62
   179
420
  1709851
370
    18
100
AcDbVertex
100
AcDb2dVertex
 10
90.17003442841235
 20
-135.1347316827962
 30
0.0
  0
VERTEX
  5
1F1
330
1ED
100
AcDbEntity
  8
Ebene 1
 62
   179
420
  1709851
370
    18
100
AcDbVertex
100
AcDb2dVertex
 10
90.33936087151238
 20
-135.028967251399
 30
0.0
  0
VERTEX
  5
1F2
330
1ED
100
AcDbEntity
  8
Ebene 1
 62
   179
420
  1709851
370
    18
100
AcDbVertex
100
AcDb2dVertex
 10
90.3181735342781
 20
-134.7960787965961
 30
0.0
  0
VERTEX
  5
1F3
330
1ED
100
AcDbEntity
  8
Ebene 1
 62
   179
420
  1709851
370
    18
100
AcDbVertex
100
AcDb2dVertex
 10
90.12765975394379
 20
-134.7537041221275
 30
0.0
  0
SEQEND
  5
1F4
330
1ED
100
AcDbEntity
  8
Ebene 1
370
    18
  0
POLYLINE
  5
1F5
330
4A
100
AcDbEntity
  8
Ebene 1
 62
   179
420
  1709851
370
    18
100
AcDb2dPolyline
 66
     1
 10
0.0
 20
0.0
 30
0.0
  0
VERTEX
  5
1F6
330
1F5
100
AcDbEntity
  8
Ebene 1
 62
   179
420
  1709851
370
    18
100
AcDbVertex
100
AcDb2dVertex
 10
90.12765975394379
 20
-149.7610568201986
 30
0.0
  0
VERTEX
  5
1F7
330
1F5
100
AcDbEntity
  8
Ebene 1
 62
   179
420
  1709851
370
    18
100
AcDbVertex
100
AcDb2dVertex
 10
90.0430826597809
 20
-149.97327470209
 30
0.0
  0
VERTEX
  5
1F8
330
1F5
100
AcDbEntity
  8
Ebene 1
 62
   179
420
  1709851
370
    18
100
AcDbVertex
100
AcDb2dVertex
 10
90.17003442841235
 20
-150.1420843808673
 30
0.0
  0
VERTEX
  5
1F9
330
1F5
100
AcDbEntity
  8
Ebene 1
 62
   179
420
  1709851
370
    18
100
AcDbVertex
100
AcDb2dVertex
 10
90.33936087151238
 20
-150.0359754399216
 30
0.0
  0
VERTEX
  5
1FA
330
1F5
100
AcDbEntity
  8
Ebene 1
 62
   179
420
  1709851
370
    18
100
AcDbVertex
100
AcDb2dVertex
 10
90.3181735342781
 20
-149.8030869851187
 30
0.0
  0
VERTEX
  5
1FB
330
1F5
100
AcDbEntity
  8
Ebene 1
 62
   179
420
  1709851
370
    18
100
AcDbVertex
100
AcDb2dVertex
 10
90.12765975394379
 20
-149.7610568201986
 30
0.0
  0
SEQEND
  5
1FC
330
1F5
100
AcDbEntity
  8
Ebene 1
370
    18
  0
POLYLINE
  5
1FD
330
4A
100
AcDbEntity
  8
Ebene 1
 62
   179
420
  1709851
370
    18
100
AcDb2dPolyline
 66
     1
 10
0.0
 20
0.0
 30
0.0
  0
VERTEX
  5
1FE
330
1FD
100
AcDbEntity
  8
Ebene 1
 62
   179
420
  1709851
370
    18
100
AcDbVertex
100
AcDb2dVertex
 10
90.12765975394379
 20
-164.7472221810354
 30
0.0
  0
VERTEX
  5
1FF
330
1FD
100
AcDbEntity
  8
Ebene 1
 62
   179
420
  1709851
370
    18
100
AcDbVertex
100
AcDb2dVertex
 10
90.0430826597809
 20
-164.9587510438298
 30
0.0
  0
VERTEX
  5
200
330
1FD
100
AcDbEntity
  8
Ebene 1
 62
   179
420
  1709851
370
    18
100
AcDbVertex
100
AcDb2dVertex
 10
90.17003442841235
 20
-165.1282497417041
 30
0.0
  0
VERTEX
  5
201
330
1FD
100
AcDbEntity
  8
Ebene 1
 62
   179
420
  1709851
370
    18
100
AcDbVertex
100
AcDb2dVertex
 10
90.33936087151238
 20
-165.0228298198554
 30
0.0
  0
VERTEX
  5
202
330
1FD
100
AcDbEntity
  8
Ebene 1
 62
   179
420
  1709851
370
    18
100
AcDbVertex
100
AcDb2dVertex
 10
90.3181735342781
 20
-164.810611937964
 30
0.0
  0
VERTEX
  5
203
330
1FD
100
AcDbEntity
  8
Ebene 1
 62
   179
420
  1709851
370
    18
100
AcDbVertex
100
AcDb2dVertex
 10
90.12765975394379
 20
-164.7472221810354
 30
0.0
  0
SEQEND
  5
204
330
1FD
100
AcDbEntity
  8
Ebene 1
370
    18
  0
POLYLINE
  5
205
330
4A
100
AcDbEntity
  8
Ebene 1
 62
   179
420
  1709851
370
    18
100
AcDb2dPolyline
 66
     1
 10
0.0
 20
0.0
 30
0.0
  0
VERTEX
  5
206
330
205
100
AcDbEntity
  8
Ebene 1
 62
   179
420
  1709851
370
    18
100
AcDbVertex
100
AcDb2dVertex
 10
90.12765975394379
 20
-179.7547471338808
 30
0.0
  0
VERTEX
  5
207
330
205
100
AcDbEntity
  8
Ebene 1
 62
   179
420
  1709851
370
    18
100
AcDbVertex
100
AcDb2dVertex
 10
90.0430826597809
 20
-179.9655869775781
 30
0.0
  0
VERTEX
  5
208
330
205
100
AcDbEntity
  8
Ebene 1
 62
   179
420
  1709851
370
    18
100
AcDbVertex
100
AcDb2dVertex
 10
90.17003442841235
 20
-180.1357746945494
 30
0.0
  0
VERTEX
  5
209
330
205
100
AcDbEntity
  8
Ebene 1
 62
   179
420
  1709851
370
    18
100
AcDbVertex
100
AcDb2dVertex
 10
90.33936087151238
 20
-180.0296657536037
 30
0.0
  0
VERTEX
  5
20A
330
205
100
AcDbEntity
  8
Ebene 1
 62
   179
420
  1709851
370
    18
100
AcDbVertex
100
AcDb2dVertex
 10
90.3181735342781
 20
-179.7967772988008
 30
0.0
  0
VERTEX
  5
20B
330
205
100
AcDbEntity
  8
Ebene 1
 62
   179
420
  1709851
370
    18
100
AcDbVertex
100
AcDb2dVertex
 10
90.12765975394379
 20
-179.7547471338808
 30
0.0
  0
SEQEND
  5
20C
330
205
100
AcDbEntity
  8
Ebene 1
370
    18
  0
POLYLINE
  5
20D
330
4A
100
AcDbEntity
  8
Ebene 1
 62
   179
420
  1709851
370
    18
100
AcDb2dPolyline
 66
     1
 10
0.0
 20
0.0
 30
0.0
  0
VERTEX
  5
20E
330
20D
100
AcDbEntity
  8
Ebene 1
 62
   179
420
  1709851
370
    18
100
AcDbVertex
100
AcDb2dVertex
 10
90.12765975394379
 20
-194.7615830676291
 30
0.0
  0
VERTEX
  5
20F
330
20D
100
AcDbEntity
  8
Ebene 1
 62
   179
420
  1709851
370
    18
100
AcDbVertex
100
AcDb2dVertex
 10
90.0430826597809
 20
-194.9731119304234
 30
0.0
  0
VERTEX
  5
210
330
20D
100
AcDbEntity
  8
Ebene 1
 62
   179
420
  1709851
370
    18
100
AcDbVertex
100
AcDb2dVertex
 10
90.17003442841235
 20
-195.1212510362892
 30
0.0
  0
VERTEX
  5
211
330
20D
100
AcDbEntity
  8
Ebene 1
 62
   179
420
  1709851
370
    18
100
AcDbVertex
100
AcDb2dVertex
 10
90.33936087151238
 20
-195.0151420953434
 30
0.0
  0
VERTEX
  5
212
330
20D
100
AcDbEntity
  8
Ebene 1
 62
   179
420
  1709851
370
    18
100
AcDbVertex
100
AcDb2dVertex
 10
90.3181735342781
 20
-194.8043022516462
 30
0.0
  0
VERTEX
  5
213
330
20D
100
AcDbEntity
  8
Ebene 1
 62
   179
420
  1709851
370
    18
100
AcDbVertex
100
AcDb2dVertex
 10
90.12765975394379
 20
-194.7615830676291
 30
0.0
  0
SEQEND
  5
214
330
20D
100
AcDbEntity
  8
Ebene 1
370
    18
  0
POLYLINE
  5
215
330
4A
100
AcDbEntity
  8
Ebene 1
 62
   179
420
  1709851
370
    18
100
AcDb2dPolyline
 66
     1
 10
0.0
 20
0.0
 30
0.0
  0
VERTEX
  5
216
330
215
100
AcDbEntity
  8
Ebene 1
 62
   179
420
  1709851
370
    18
100
AcDbVertex
100
AcDb2dVertex
 10
90.12765975394379
 20
-209.7470594093688
 30
0.0
  0
VERTEX
  5
217
330
215
100
AcDbEntity
  8
Ebene 1
 62
   179
420
  1709851
370
    18
100
AcDbVertex
100
AcDb2dVertex
 10
90.0430826597809
 20
-209.9592772912602
 30
0.0
  0
VERTEX
  5
218
330
215
100
AcDbEntity
  8
Ebene 1
 62
   179
420
  1709851
370
    18
100
AcDbVertex
100
AcDb2dVertex
 10
90.17003442841235
 20
-210.1280869700374
 30
0.0
  0
VERTEX
  5
219
330
215
100
AcDbEntity
  8
Ebene 1
 62
   179
420
  1709851
370
    18
100
AcDbVertex
100
AcDb2dVertex
 10
90.33936087151238
 20
-210.0226670481888
 30
0.0
  0
VERTEX
  5
21A
330
215
100
AcDbEntity
  8
Ebene 1
 62
   179
420
  1709851
370
    18
100
AcDbVertex
100
AcDb2dVertex
 10
90.3181735342781
 20
-209.7897785933859
 30
0.0
  0
VERTEX
  5
21B
330
215
100
AcDbEntity
  8
Ebene 1
 62
   179
420
  1709851
370
    18
100
AcDbVertex
100
AcDb2dVertex
 10
90.12765975394379
 20
-209.7470594093688
 30
0.0
  0
SEQEND
  5
21C
330
215
100
AcDbEntity
  8
Ebene 1
370
    18
  0
POLYLINE
  5
21D
330
4A
100
AcDbEntity
  8
Ebene 1
 62
   179
420
  1709851
370
    18
100
AcDb2dPolyline
 66
     1
 10
0.0
 20
0.0
 30
0.0
  0
VERTEX
  5
21E
330
21D
100
AcDbEntity
  8
Ebene 1
 62
   179
420
  1709851
370
    18
100
AcDbVertex
100
AcDb2dVertex
 10
90.12765975394379
 20
-224.7545843622141
 30
0.0
  0
VERTEX
  5
21F
330
21D
100
AcDbEntity
  8
Ebene 1
 62
   179
420
  1709851
370
    18
100
AcDbVertex
100
AcDb2dVertex
 10
90.0430826597809
 20
-224.9668022441055
 30
0.0
  0
VERTEX
  5
220
330
21D
100
AcDbEntity
  8
Ebene 1
 62
   179
420
  1709851
370
    18
100
AcDbVertex
100
AcDb2dVertex
 10
90.17003442841235
 20
-225.1356119228828
 30
0.0
  0
VERTEX
  5
221
330
21D
100
AcDbEntity
  8
Ebene 1
 62
   179
420
  1709851
370
    18
100
AcDbVertex
100
AcDb2dVertex
 10
90.33936087151238
 20
-225.0295029819371
 30
0.0
  0
VERTEX
  5
222
330
21D
100
AcDbEntity
  8
Ebene 1
 62
   179
420
  1709851
370
    18
100
AcDbVertex
100
AcDb2dVertex
 10
90.3181735342781
 20
-224.7966145271342
 30
0.0
  0
VERTEX
  5
223
330
21D
100
AcDbEntity
  8
Ebene 1
 62
   179
420
  1709851
370
    18
100
AcDbVertex
100
AcDb2dVertex
 10
90.12765975394379
 20
-224.7545843622141
 30
0.0
  0
SEQEND
  5
224
330
21D
100
AcDbEntity
  8
Ebene 1
370
    18
  0
POLYLINE
  5
225
330
4A
100
AcDbEntity
  8
Ebene 1
 62
   179
420
  1709851
370
    18
100
AcDb2dPolyline
 66
     1
 10
0.0
 20
0.0
 30
0.0
  0
VERTEX
  5
226
330
225
100
AcDbEntity
  8
Ebene 1
 62
   179
420
  1709851
370
    18
100
AcDbVertex
100
AcDb2dVertex
 10
92.07499997698126
 20
-134.5848944433503
 30
0.0
  0
VERTEX
  5
227
330
225
100
AcDbEntity
  8
Ebene 1
 62
   179
420
  1709851
370
    18
100
AcDbVertex
100
AcDb2dVertex
 10
91.99042288281836
 20
-134.7960787965961
 30
0.0
  0
VERTEX
  5
228
330
225
100
AcDbEntity
  8
Ebene 1
 62
   179
420
  1709851
370
    18
100
AcDbVertex
100
AcDb2dVertex
 10
92.11737465144982
 20
-134.9655774944704
 30
0.0
  0
VERTEX
  5
229
330
225
100
AcDbEntity
  8
Ebene 1
 62
   179
420
  1709851
370
    18
100
AcDbVertex
100
AcDb2dVertex
 10
92.28670109454985
 20
-134.8598130630733
 30
0.0
  0
VERTEX
  5
22A
330
225
100
AcDbEntity
  8
Ebene 1
 62
   179
420
  1709851
370
    18
100
AcDbVertex
100
AcDb2dVertex
 10
92.26551375731557
 20
-134.6269246082704
 30
0.0
  0
VERTEX
  5
22B
330
225
100
AcDbEntity
  8
Ebene 1
 62
   179
420
  1709851
370
    18
100
AcDbVertex
100
AcDb2dVertex
 10
92.07499997698126
 20
-134.5848944433503
 30
0.0
  0
SEQEND
  5
22C
330
225
100
AcDbEntity
  8
Ebene 1
370
    18
  0
POLYLINE
  5
22D
330
4A
100
AcDbEntity
  8
Ebene 1
 62
   179
420
  1709851
370
    18
100
AcDb2dPolyline
 66
     1
 10
0.0
 20
0.0
 30
0.0
  0
VERTEX
  5
22E
330
22D
100
AcDbEntity
  8
Ebene 1
 62
   179
420
  1709851
370
    18
100
AcDbVertex
100
AcDb2dVertex
 10
92.07499997698126
 20
-149.5922471414214
 30
0.0
  0
VERTEX
  5
22F
330
22D
100
AcDbEntity
  8
Ebene 1
 62
   179
420
  1709851
370
    18
100
AcDbVertex
100
AcDb2dVertex
 10
91.99042288281836
 20
-149.8030869851187
 30
0.0
  0
VERTEX
  5
230
330
22D
100
AcDbEntity
  8
Ebene 1
 62
   179
420
  1709851
370
    18
100
AcDbVertex
100
AcDb2dVertex
 10
92.11737465144982
 20
-149.97327470209
 30
0.0
  0
VERTEX
  5
231
330
22D
100
AcDbEntity
  8
Ebene 1
 62
   179
420
  1709851
370
    18
100
AcDbVertex
100
AcDb2dVertex
 10
92.28670109454985
 20
-149.8671657611443
 30
0.0
  0
VERTEX
  5
232
330
22D
100
AcDbEntity
  8
Ebene 1
 62
   179
420
  1709851
370
    18
100
AcDbVertex
100
AcDb2dVertex
 10
92.26551375731557
 20
-149.6342773063414
 30
0.0
  0
VERTEX
  5
233
330
22D
100
AcDbEntity
  8
Ebene 1
 62
   179
420
  1709851
370
    18
100
AcDbVertex
100
AcDb2dVertex
 10
92.07499997698126
 20
-149.5922471414214
 30
0.0
  0
SEQEND
  5
234
330
22D
100
AcDbEntity
  8
Ebene 1
370
    18
  0
POLYLINE
  5
235
330
4A
100
AcDbEntity
  8
Ebene 1
 62
   179
420
  1709851
370
    18
100
AcDb2dPolyline
 66
     1
 10
0.0
 20
0.0
 30
0.0
  0
VERTEX
  5
236
330
235
100
AcDbEntity
  8
Ebene 1
 62
   179
420
  1709851
370
    18
100
AcDbVertex
100
AcDb2dVertex
 10
92.07499997698126
 20
-164.5990830751697
 30
0.0
  0
VERTEX
  5
237
330
235
100
AcDbEntity
  8
Ebene 1
 62
   179
420
  1709851
370
    18
100
AcDbVertex
100
AcDb2dVertex
 10
91.99042288281836
 20
-164.810611937964
 30
0.0
  0
VERTEX
  5
238
330
235
100
AcDbEntity
  8
Ebene 1
 62
   179
420
  1709851
370
    18
100
AcDbVertex
100
AcDb2dVertex
 10
92.11737465144982
 20
-164.9587510438298
 30
0.0
  0
VERTEX
  5
239
330
235
100
AcDbEntity
  8
Ebene 1
 62
   179
420
  1709851
370
    18
100
AcDbVertex
100
AcDb2dVertex
 10
92.28670109454985
 20
-164.8526421028841
 30
0.0
  0
VERTEX
  5
23A
330
235
100
AcDbEntity
  8
Ebene 1
 62
   179
420
  1709851
370
    18
100
AcDbVertex
100
AcDb2dVertex
 10
92.26551375731557
 20
-164.6197536480812
 30
0.0
  0
VERTEX
  5
23B
330
235
100
AcDbEntity
  8
Ebene 1
 62
   179
420
  1709851
370
    18
100
AcDbVertex
100
AcDb2dVertex
 10
92.07499997698126
 20
-164.5990830751697
 30
0.0
  0
SEQEND
  5
23C
330
235
100
AcDbEntity
  8
Ebene 1
370
    18
  0
POLYLINE
  5
23D
330
4A
100
AcDbEntity
  8
Ebene 1
 62
   179
420
  1709851
370
    18
100
AcDb2dPolyline
 66
     1
 10
0.0
 20
0.0
 30
0.0
  0
VERTEX
  5
23E
330
23D
100
AcDbEntity
  8
Ebene 1
 62
   179
420
  1709851
370
    18
100
AcDbVertex
100
AcDb2dVertex
 10
92.07499997698126
 20
-179.5845594169094
 30
0.0
  0
VERTEX
  5
23F
330
23D
100
AcDbEntity
  8
Ebene 1
 62
   179
420
  1709851
370
    18
100
AcDbVertex
100
AcDb2dVertex
 10
91.99042288281836
 20
-179.7967772988008
 30
0.0
  0
VERTEX
  5
240
330
23D
100
AcDbEntity
  8
Ebene 1
 62
   179
420
  1709851
370
    18
100
AcDbVertex
100
AcDb2dVertex
 10
92.11737465144982
 20
-179.9655869775781
 30
0.0
  0
VERTEX
  5
241
330
23D
100
AcDbEntity
  8
Ebene 1
 62
   179
420
  1709851
370
    18
100
AcDbVertex
100
AcDb2dVertex
 10
92.28670109454985
 20
-179.8601670557294
 30
0.0
  0
VERTEX
  5
242
330
23D
100
AcDbEntity
  8
Ebene 1
 62
   179
420
  1709851
370
    18
100
AcDbVertex
100
AcDb2dVertex
 10
92.26551375731557
 20
-179.6272786009265
 30
0.0
  0
VERTEX
  5
243
330
23D
100
AcDbEntity
  8
Ebene 1
 62
   179
420
  1709851
370
    18
100
AcDbVertex
100
AcDb2dVertex
 10
92.07499997698126
 20
-179.5845594169094
 30
0.0
  0
SEQEND
  5
244
330
23D
100
AcDbEntity
  8
Ebene 1
370
    18
  0
POLYLINE
  5
245
330
4A
100
AcDbEntity
  8
Ebene 1
 62
   179
420
  1709851
370
    18
100
AcDb2dPolyline
 66
     1
 10
0.0
 20
0.0
 30
0.0
  0
VERTEX
  5
246
330
245
100
AcDbEntity
  8
Ebene 1
 62
   179
420
  1709851
370
    18
100
AcDbVertex
100
AcDb2dVertex
 10
92.07499997698126
 20
-194.5920843697548
 30
0.0
  0
VERTEX
  5
247
330
245
100
AcDbEntity
  8
Ebene 1
 62
   179
420
  1709851
370
    18
100
AcDbVertex
100
AcDb2dVertex
 10
91.99042288281836
 20
-194.8043022516462
 30
0.0
  0
VERTEX
  5
248
330
245
100
AcDbEntity
  8
Ebene 1
 62
   179
420
  1709851
370
    18
100
AcDbVertex
100
AcDb2dVertex
 10
92.11737465144982
 20
-194.9731119304234
 30
0.0
  0
VERTEX
  5
249
330
245
100
AcDbEntity
  8
Ebene 1
 62
   179
420
  1709851
370
    18
100
AcDbVertex
100
AcDb2dVertex
 10
92.28670109454985
 20
-194.8670029894777
 30
0.0
  0
VERTEX
  5
24A
330
245
100
AcDbEntity
  8
Ebene 1
 62
   179
420
  1709851
370
    18
100
AcDbVertex
100
AcDb2dVertex
 10
92.26551375731557
 20
-194.6134439617633
 30
0.0
  0
VERTEX
  5
24B
330
245
100
AcDbEntity
  8
Ebene 1
 62
   179
420
  1709851
370
    18
100
AcDbVertex
100
AcDb2dVertex
 10
92.07499997698126
 20
-194.5920843697548
 30
0.0
  0
SEQEND
  5
24C
330
245
100
AcDbEntity
  8
Ebene 1
370
    18
  0
POLYLINE
  5
24D
330
4A
100
AcDbEntity
  8
Ebene 1
 62
   179
420
  1709851
370
    18
100
AcDb2dPolyline
 66
     1
 10
0.0
 20
0.0
 30
0.0
  0
VERTEX
  5
24E
330
24D
100
AcDbEntity
  8
Ebene 1
 62
   179
420
  1709851
370
    18
100
AcDbVertex
100
AcDb2dVertex
 10
92.07499997698126
 20
-209.5782497305916
 30
0.0
  0
VERTEX
  5
24F
330
24D
100
AcDbEntity
  8
Ebene 1
 62
   179
420
  1709851
370
    18
100
AcDbVertex
100
AcDb2dVertex
 10
91.99042288281836
 20
-209.7897785933859
 30
0.0
  0
VERTEX
  5
250
330
24D
100
AcDbEntity
  8
Ebene 1
 62
   179
420
  1709851
370
    18
100
AcDbVertex
100
AcDb2dVertex
 10
92.11737465144982
 20
-209.9592772912602
 30
0.0
  0
VERTEX
  5
251
330
24D
100
AcDbEntity
  8
Ebene 1
 62
   179
420
  1709851
370
    18
100
AcDbVertex
100
AcDb2dVertex
 10
92.28670109454985
 20
-209.8531683503145
 30
0.0
  0
VERTEX
  5
252
330
24D
100
AcDbEntity
  8
Ebene 1
 62
   179
420
  1709851
370
    18
100
AcDbVertex
100
AcDb2dVertex
 10
92.26551375731557
 20
-209.6209689146087
 30
0.0
  0
VERTEX
  5
253
330
24D
100
AcDbEntity
  8
Ebene 1
 62
   179
420
  1709851
370
    18
100
AcDbVertex
100
AcDb2dVertex
 10
92.07499997698126
 20
-209.5782497305916
 30
0.0
  0
SEQEND
  5
254
330
24D
100
AcDbEntity
  8
Ebene 1
370
    18
  0
POLYLINE
  5
255
330
4A
100
AcDbEntity
  8
Ebene 1
 62
   179
420
  1709851
370
    18
100
AcDb2dPolyline
 66
     1
 10
0.0
 20
0.0
 30
0.0
  0
VERTEX
  5
256
330
255
100
AcDbEntity
  8
Ebene 1
 62
   179
420
  1709851
370
    18
100
AcDbVertex
100
AcDb2dVertex
 10
92.07499997698126
 20
-224.5857746834369
 30
0.0
  0
VERTEX
  5
257
330
255
100
AcDbEntity
  8
Ebene 1
 62
   179
420
  1709851
370
    18
100
AcDbVertex
100
AcDb2dVertex
 10
91.99042288281836
 20
-224.7966145271342
 30
0.0
  0
VERTEX
  5
258
330
255
100
AcDbEntity
  8
Ebene 1
 62
   179
420
  1709851
370
    18
100
AcDbVertex
100
AcDb2dVertex
 10
92.11737465144982
 20
-224.9668022441055
 30
0.0
  0
VERTEX
  5
259
330
255
100
AcDbEntity
  8
Ebene 1
 62
   179
420
  1709851
370
    18
100
AcDbVertex
100
AcDb2dVertex
 10
92.28670109454985
 20
-224.8606933031598
 30
0.0
  0
VERTEX
  5
25A
330
255
100
AcDbEntity
  8
Ebene 1
 62
   179
420
  1709851
370
    18
100
AcDbVertex
100
AcDb2dVertex
 10
92.26551375731557
 20
-224.627804848357
 30
0.0
  0
VERTEX
  5
25B
330
255
100
AcDbEntity
  8
Ebene 1
 62
   179
420
  1709851
370
    18
100
AcDbVertex
100
AcDb2dVertex
 10
92.07499997698126
 20
-224.5857746834369
 30
0.0
  0
SEQEND
  5
25C
330
255
100
AcDbEntity
  8
Ebene 1
370
    18
  0
POLYLINE
  5
25D
330
4A
100
AcDbEntity
  8
Ebene 1
 62
   179
420
  1709851
370
    18
100
AcDb2dPolyline
 66
     1
 10
0.0
 20
0.0
 30
0.0
  0
VERTEX
  5
25E
330
25D
100
AcDbEntity
  8
Ebene 1
 62
   179
420
  1709851
370
    18
100
AcDbVertex
100
AcDb2dVertex
 10
90.78395044388388
 20
-136.4473130626764
 30
0.0
  0
VERTEX
  5
25F
330
25D
100
AcDbEntity
  8
Ebene 1
 62
   179
420
  1709851
370
    18
100
AcDbVertex
100
AcDb2dVertex
 10
90.67801375771245
 20
-136.6588419254707
 30
0.0
  0
VERTEX
  5
260
330
25D
100
AcDbEntity
  8
Ebene 1
 62
   179
420
  1709851
370
    18
100
AcDbVertex
100
AcDb2dVertex
 10
90.82615286357819
 20
-136.828340623345
 30
0.0
  0
VERTEX
  5
261
330
25D
100
AcDbEntity
  8
Ebene 1
 62
   179
420
  1709851
370
    18
100
AcDbVertex
100
AcDb2dVertex
 10
90.97429196944393
 20
-136.7225761919478
 30
0.0
  0
VERTEX
  5
262
330
25D
100
AcDbEntity
  8
Ebene 1
 62
   179
420
  1709851
370
    18
100
AcDbVertex
100
AcDb2dVertex
 10
90.9532768869839
 20
-136.4896877371449
 30
0.0
  0
VERTEX
  5
263
330
25D
100
AcDbEntity
  8
Ebene 1
 62
   179
420
  1709851
370
    18
100
AcDbVertex
100
AcDb2dVertex
 10
90.78395044388388
 20
-136.4473130626764
 30
0.0
  0
SEQEND
  5
264
330
25D
100
AcDbEntity
  8
Ebene 1
370
    18
  0
POLYLINE
  5
265
330
4A
100
AcDbEntity
  8
Ebene 1
 62
   179
420
  1709851
370
    18
100
AcDb2dPolyline
 66
     1
 10
0.0
 20
0.0
 30
0.0
  0
VERTEX
  5
266
330
265
100
AcDbEntity
  8
Ebene 1
 62
   179
420
  1709851
370
    18
100
AcDbVertex
100
AcDb2dVertex
 10
90.78395044388388
 20
-151.4546657607474
 30
0.0
  0
VERTEX
  5
267
330
265
100
AcDbEntity
  8
Ebene 1
 62
   179
420
  1709851
370
    18
100
AcDbVertex
100
AcDb2dVertex
 10
90.67801375771245
 20
-151.6661946235418
 30
0.0
  0
VERTEX
  5
268
330
265
100
AcDbEntity
  8
Ebene 1
 62
   179
420
  1709851
370
    18
100
AcDbVertex
100
AcDb2dVertex
 10
90.82615286357819
 20
-151.8356933214161
 30
0.0
  0
VERTEX
  5
269
330
265
100
AcDbEntity
  8
Ebene 1
 62
   179
420
  1709851
370
    18
100
AcDbVertex
100
AcDb2dVertex
 10
90.97429196944393
 20
-151.7295843804704
 30
0.0
  0
VERTEX
  5
26A
330
265
100
AcDbEntity
  8
Ebene 1
 62
   179
420
  1709851
370
    18
100
AcDbVertex
100
AcDb2dVertex
 10
90.9532768869839
 20
-151.475336333659
 30
0.0
  0
VERTEX
  5
26B
330
265
100
AcDbEntity
  8
Ebene 1
 62
   179
420
  1709851
370
    18
100
AcDbVertex
100
AcDb2dVertex
 10
90.78395044388388
 20
-151.4546657607474
 30
0.0
  0
SEQEND
  5
26C
330
265
100
AcDbEntity
  8
Ebene 1
370
    18
  0
POLYLINE
  5
26D
330
4A
100
AcDbEntity
  8
Ebene 1
 62
   179
420
  1709851
370
    18
100
AcDb2dPolyline
 66
     1
 10
0.0
 20
0.0
 30
0.0
  0
VERTEX
  5
26E
330
26D
100
AcDbEntity
  8
Ebene 1
 62
   179
420
  1709851
370
    18
100
AcDbVertex
100
AcDb2dVertex
 10
90.78395044388388
 20
-166.4621907135928
 30
0.0
  0
VERTEX
  5
26F
330
26D
100
AcDbEntity
  8
Ebene 1
 62
   179
420
  1709851
370
    18
100
AcDbVertex
100
AcDb2dVertex
 10
90.67801375771245
 20
-166.6523599843786
 30
0.0
  0
VERTEX
  5
270
330
26D
100
AcDbEntity
  8
Ebene 1
 62
   179
420
  1709851
370
    18
100
AcDbVertex
100
AcDb2dVertex
 10
90.82615286357819
 20
-166.8211696631558
 30
0.0
  0
VERTEX
  5
271
330
26D
100
AcDbEntity
  8
Ebene 1
 62
   179
420
  1709851
370
    18
100
AcDbVertex
100
AcDb2dVertex
 10
90.97429196944393
 20
-166.7157497413072
 30
0.0
  0
VERTEX
  5
272
330
26D
100
AcDbEntity
  8
Ebene 1
 62
   179
420
  1709851
370
    18
100
AcDbVertex
100
AcDb2dVertex
 10
90.9532768869839
 20
-166.4828612865043
 30
0.0
  0
VERTEX
  5
273
330
26D
100
AcDbEntity
  8
Ebene 1
 62
   179
420
  1709851
370
    18
100
AcDbVertex
100
AcDb2dVertex
 10
90.78395044388388
 20
-166.4621907135928
 30
0.0
  0
SEQEND
  5
274
330
26D
100
AcDbEntity
  8
Ebene 1
370
    18
  0
POLYLINE
  5
275
330
4A
100
AcDbEntity
  8
Ebene 1
 62
   179
420
  1709851
370
    18
100
AcDb2dPolyline
 66
     1
 10
0.0
 20
0.0
 30
0.0
  0
VERTEX
  5
276
330
275
100
AcDbEntity
  8
Ebene 1
 62
   179
420
  1709851
370
    18
100
AcDbVertex
100
AcDb2dVertex
 10
90.78395044388388
 20
-181.4476670553325
 30
0.0
  0
VERTEX
  5
277
330
275
100
AcDbEntity
  8
Ebene 1
 62
   179
420
  1709851
370
    18
100
AcDbVertex
100
AcDb2dVertex
 10
90.67801375771245
 20
-181.6591959181269
 30
0.0
  0
VERTEX
  5
278
330
275
100
AcDbEntity
  8
Ebene 1
 62
   179
420
  1709851
370
    18
100
AcDbVertex
100
AcDb2dVertex
 10
90.82615286357819
 20
-181.8286946160012
 30
0.0
  0
VERTEX
  5
279
330
275
100
AcDbEntity
  8
Ebene 1
 62
   179
420
  1709851
370
    18
100
AcDbVertex
100
AcDb2dVertex
 10
90.97429196944393
 20
-181.7232746941525
 30
0.0
  0
VERTEX
  5
27A
330
275
100
AcDbEntity
  8
Ebene 1
 62
   179
420
  1709851
370
    18
100
AcDbVertex
100
AcDb2dVertex
 10
90.9532768869839
 20
-181.4903862393496
 30
0.0
  0
VERTEX
  5
27B
330
275
100
AcDbEntity
  8
Ebene 1
 62
   179
420
  1709851
370
    18
100
AcDbVertex
100
AcDb2dVertex
 10
90.78395044388388
 20
-181.4476670553325
 30
0.0
  0
SEQEND
  5
27C
330
275
100
AcDbEntity
  8
Ebene 1
370
    18
  0
POLYLINE
  5
27D
330
4A
100
AcDbEntity
  8
Ebene 1
 62
   179
420
  1709851
370
    18
100
AcDb2dPolyline
 66
     1
 10
0.0
 20
0.0
 30
0.0
  0
VERTEX
  5
27E
330
27D
100
AcDbEntity
  8
Ebene 1
 62
   179
420
  1709851
370
    18
100
AcDbVertex
100
AcDb2dVertex
 10
90.78395044388388
 20
-196.4545029890808
 30
0.0
  0
VERTEX
  5
27F
330
27D
100
AcDbEntity
  8
Ebene 1
 62
   179
420
  1709851
370
    18
100
AcDbVertex
100
AcDb2dVertex
 10
90.67801375771245
 20
-196.6660318518752
 30
0.0
  0
VERTEX
  5
280
330
27D
100
AcDbEntity
  8
Ebene 1
 62
   179
420
  1709851
370
    18
100
AcDbVertex
100
AcDb2dVertex
 10
90.82615286357819
 20
-196.814859976838
 30
0.0
  0
VERTEX
  5
281
330
27D
100
AcDbEntity
  8
Ebene 1
 62
   179
420
  1709851
370
    18
100
AcDbVertex
100
AcDb2dVertex
 10
90.97429196944393
 20
-196.7301106279008
 30
0.0
  0
VERTEX
  5
282
330
27D
100
AcDbEntity
  8
Ebene 1
 62
   179
420
  1709851
370
    18
100
AcDbVertex
100
AcDb2dVertex
 10
90.9532768869839
 20
-196.4758625810894
 30
0.0
  0
VERTEX
  5
283
330
27D
100
AcDbEntity
  8
Ebene 1
 62
   179
420
  1709851
370
    18
100
AcDbVertex
100
AcDb2dVertex
 10
90.78395044388388
 20
-196.4545029890808
 30
0.0
  0
SEQEND
  5
284
330
27D
100
AcDbEntity
  8
Ebene 1
370
    18
  0
POLYLINE
  5
285
330
4A
100
AcDbEntity
  8
Ebene 1
 62
   179
420
  1709851
370
    18
100
AcDb2dPolyline
 66
     1
 10
0.0
 20
0.0
 30
0.0
  0
VERTEX
  5
286
330
285
100
AcDbEntity
  8
Ebene 1
 62
   179
420
  1709851
370
    18
100
AcDbVertex
100
AcDb2dVertex
 10
90.78395044388388
 20
-211.4413573690147
 30
0.0
  0
VERTEX
  5
287
330
285
100
AcDbEntity
  8
Ebene 1
 62
   179
420
  1709851
370
    18
100
AcDbVertex
100
AcDb2dVertex
 10
90.67801375771245
 20
-211.652886231809
 30
0.0
  0
VERTEX
  5
288
330
285
100
AcDbEntity
  8
Ebene 1
 62
   179
420
  1709851
370
    18
100
AcDbVertex
100
AcDb2dVertex
 10
90.82615286357819
 20
-211.8216959105862
 30
0.0
  0
VERTEX
  5
289
330
285
100
AcDbEntity
  8
Ebene 1
 62
   179
420
  1709851
370
    18
100
AcDbVertex
100
AcDb2dVertex
 10
90.97429196944393
 20
-211.7155869696406
 30
0.0
  0
VERTEX
  5
28A
330
285
100
AcDbEntity
  8
Ebene 1
 62
   179
420
  1709851
370
    18
100
AcDbVertex
100
AcDb2dVertex
 10
90.9532768869839
 20
-211.4826985148377
 30
0.0
  0
VERTEX
  5
28B
330
285
100
AcDbEntity
  8
Ebene 1
 62
   179
420
  1709851
370
    18
100
AcDbVertex
100
AcDb2dVertex
 10
90.78395044388388
 20
-211.4413573690147
 30
0.0
  0
SEQEND
  5
28C
330
285
100
AcDbEntity
  8
Ebene 1
370
    18
  0
POLYLINE
  5
28D
330
4A
100
AcDbEntity
  8
Ebene 1
 62
   179
420
  1709851
370
    18
100
AcDb2dPolyline
 66
     1
 10
0.0
 20
0.0
 30
0.0
  0
VERTEX
  5
28E
330
28D
100
AcDbEntity
  8
Ebene 1
 62
   179
420
  1709851
370
    18
100
AcDbVertex
100
AcDb2dVertex
 10
90.78395044388388
 20
-226.448193302763
 30
0.0
  0
VERTEX
  5
28F
330
28D
100
AcDbEntity
  8
Ebene 1
 62
   179
420
  1709851
370
    18
100
AcDbVertex
100
AcDb2dVertex
 10
90.67801375771245
 20
-226.6597221655573
 30
0.0
  0
VERTEX
  5
290
330
28D
100
AcDbEntity
  8
Ebene 1
 62
   179
420
  1709851
370
    18
100
AcDbVertex
100
AcDb2dVertex
 10
90.82615286357819
 20
-226.8285318443345
 30
0.0
  0
VERTEX
  5
291
330
28D
100
AcDbEntity
  8
Ebene 1
 62
   179
420
  1709851
370
    18
100
AcDbVertex
100
AcDb2dVertex
 10
90.97429196944393
 20
-226.7231119224859
 30
0.0
  0
VERTEX
  5
292
330
28D
100
AcDbEntity
  8
Ebene 1
 62
   179
420
  1709851
370
    18
100
AcDbVertex
100
AcDb2dVertex
 10
90.9532768869839
 20
-226.4695528947715
 30
0.0
  0
VERTEX
  5
293
330
28D
100
AcDbEntity
  8
Ebene 1
 62
   179
420
  1709851
370
    18
100
AcDbVertex
100
AcDb2dVertex
 10
90.78395044388388
 20
-226.448193302763
 30
0.0
  0
SEQEND
  5
294
330
28D
100
AcDbEntity
  8
Ebene 1
370
    18
  0
POLYLINE
  5
295
330
4A
100
AcDbEntity
  8
Ebene 1
 62
   179
420
  1709851
370
    18
100
AcDb2dPolyline
 66
     1
 10
0.0
 20
0.0
 30
0.0
  0
VERTEX
  5
296
330
295
100
AcDbEntity
  8
Ebene 1
 62
   179
420
  1709851
370
    18
100
AcDbVertex
100
AcDb2dVertex
 10
96.77411021886203
 20
-128.933215299798
 30
0.0
  0
VERTEX
  5
297
330
295
100
AcDbEntity
  8
Ebene 1
 62
   179
420
  1709851
370
    18
100
AcDbVertex
100
AcDb2dVertex
 10
96.83749997579064
 20
-129.3356024524751
 30
0.0
  0
VERTEX
  5
298
330
295
100
AcDbEntity
  8
Ebene 1
 62
   179
420
  1709851
370
    18
100
AcDbVertex
100
AcDb2dVertex
 10
97.13395044229638
 20
-129.4837415583409
 30
0.0
  0
VERTEX
  5
299
330
295
100
AcDbEntity
  8
Ebene 1
 62
   179
420
  1709851
370
    18
100
AcDbVertex
100
AcDb2dVertex
 10
97.40904131679358
 20
-129.2294935115294
 30
0.0
  0
VERTEX
  5
29A
330
295
100
AcDbEntity
  8
Ebene 1
 62
   179
420
  1709851
370
    18
100
AcDbVertex
100
AcDb2dVertex
 10
97.34547930509072
 20
-128.8064357859407
 30
0.0
  0
VERTEX
  5
29B
330
295
100
AcDbEntity
  8
Ebene 1
 62
   179
420
  1709851
370
    18
100
AcDbVertex
100
AcDb2dVertex
 10
97.02801375612495
 20
-128.6579521705265
 30
0.0
  0
VERTEX
  5
29C
330
295
100
AcDbEntity
  8
Ebene 1
 62
   179
420
  1709851
370
    18
100
AcDbVertex
100
AcDb2dVertex
 10
96.77411021886203
 20
-128.933215299798
 30
0.0
  0
SEQEND
  5
29D
330
295
100
AcDbEntity
  8
Ebene 1
370
    18
  0
POLYLINE
  5
29E
330
4A
100
AcDbEntity
  8
Ebene 1
 62
   179
420
  1709851
370
    18
100
AcDb2dPolyline
 66
     1
 10
0.0
 20
0.0
 30
0.0
  0
VERTEX
  5
29F
330
29E
100
AcDbEntity
  8
Ebene 1
 62
   179
420
  1709851
370
    18
100
AcDbVertex
100
AcDb2dVertex
 10
96.77411021886203
 20
-143.9193806606347
 30
0.0
  0
VERTEX
  5
2A0
330
29E
100
AcDbEntity
  8
Ebene 1
 62
   179
420
  1709851
370
    18
100
AcDbVertex
100
AcDb2dVertex
 10
96.83749997579064
 20
-144.3214233037634
 30
0.0
  0
VERTEX
  5
2A1
330
29E
100
AcDbEntity
  8
Ebene 1
 62
   179
420
  1709851
370
    18
100
AcDbVertex
100
AcDb2dVertex
 10
97.13395044229638
 20
-144.4695624096291
 30
0.0
  0
VERTEX
  5
2A2
330
29E
100
AcDbEntity
  8
Ebene 1
 62
   179
420
  1709851
370
    18
100
AcDbVertex
100
AcDb2dVertex
 10
97.40904131679358
 20
-144.2153143628177
 30
0.0
  0
VERTEX
  5
2A3
330
29E
100
AcDbEntity
  8
Ebene 1
 62
   179
420
  1709851
370
    18
100
AcDbVertex
100
AcDb2dVertex
 10
97.34547930509072
 20
-143.8136162292376
 30
0.0
  0
VERTEX
  5
2A4
330
29E
100
AcDbEntity
  8
Ebene 1
 62
   179
420
  1709851
370
    18
100
AcDbVertex
100
AcDb2dVertex
 10
97.02801375612495
 20
-143.6437730218148
 30
0.0
  0
VERTEX
  5
2A5
330
29E
100
AcDbEntity
  8
Ebene 1
 62
   179
420
  1709851
370
    18
100
AcDbVertex
100
AcDb2dVertex
 10
96.77411021886203
 20
-143.9193806606347
 30
0.0
  0
SEQEND
  5
2A6
330
29E
100
AcDbEntity
  8
Ebene 1
370
    18
  0
POLYLINE
  5
2A7
330
4A
100
AcDbEntity
  8
Ebene 1
 62
   179
420
  1709851
370
    18
100
AcDb2dPolyline
 66
     1
 10
0.0
 20
0.0
 30
0.0
  0
VERTEX
  5
2A8
330
2A7
100
AcDbEntity
  8
Ebene 1
 62
   179
420
  1709851
370
    18
100
AcDbVertex
100
AcDb2dVertex
 10
96.77411021886203
 20
-158.9263888491573
 30
0.0
  0
VERTEX
  5
2A9
330
2A7
100
AcDbEntity
  8
Ebene 1
 62
   179
420
  1709851
370
    18
100
AcDbVertex
100
AcDb2dVertex
 10
96.83749997579064
 20
-159.3280869827374
 30
0.0
  0
VERTEX
  5
2AA
330
2A7
100
AcDbEntity
  8
Ebene 1
 62
   179
420
  1709851
370
    18
100
AcDbVertex
100
AcDb2dVertex
 10
97.13395044229638
 20
-159.4762260886032
 30
0.0
  0
VERTEX
  5
2AB
330
2A7
100
AcDbEntity
  8
Ebene 1
 62
   179
420
  1709851
370
    18
100
AcDbVertex
100
AcDb2dVertex
 10
97.40904131679358
 20
-159.2226670608888
 30
0.0
  0
VERTEX
  5
2AC
330
2A7
100
AcDbEntity
  8
Ebene 1
 62
   179
420
  1709851
370
    18
100
AcDbVertex
100
AcDb2dVertex
 10
97.34547930509072
 20
-158.7989203162031
 30
0.0
  0
VERTEX
  5
2AD
330
2A7
100
AcDbEntity
  8
Ebene 1
 62
   179
420
  1709851
370
    18
100
AcDbVertex
100
AcDb2dVertex
 10
97.02801375612495
 20
-158.6507812103373
 30
0.0
  0
VERTEX
  5
2AE
330
2A7
100
AcDbEntity
  8
Ebene 1
 62
   179
420
  1709851
370
    18
100
AcDbVertex
100
AcDb2dVertex
 10
96.77411021886203
 20
-158.9263888491573
 30
0.0
  0
SEQEND
  5
2AF
330
2A7
100
AcDbEntity
  8
Ebene 1
370
    18
  0
POLYLINE
  5
2B0
330
4A
100
AcDbEntity
  8
Ebene 1
 62
   179
420
  1709851
370
    18
100
AcDb2dPolyline
 66
     1
 10
0.0
 20
0.0
 30
0.0
  0
VERTEX
  5
2B1
330
2B0
100
AcDbEntity
  8
Ebene 1
 62
   179
420
  1709851
370
    18
100
AcDbVertex
100
AcDb2dVertex
 10
96.77411021886203
 20
-173.911865190897
 30
0.0
  0
VERTEX
  5
2B2
330
2B0
100
AcDbEntity
  8
Ebene 1
 62
   179
420
  1709851
370
    18
100
AcDbVertex
100
AcDb2dVertex
 10
96.83749997579064
 20
-174.3356119355828
 30
0.0
  0
VERTEX
  5
2B3
330
2B0
100
AcDbEntity
  8
Ebene 1
 62
   179
420
  1709851
370
    18
100
AcDbVertex
100
AcDb2dVertex
 10
97.13395044229638
 20
-174.4837510414485
 30
0.0
  0
VERTEX
  5
2B4
330
2B0
100
AcDbEntity
  8
Ebene 1
 62
   179
420
  1709851
370
    18
100
AcDbVertex
100
AcDb2dVertex
 10
97.40904131679358
 20
-174.2295029946371
 30
0.0
  0
VERTEX
  5
2B5
330
2B0
100
AcDbEntity
  8
Ebene 1
 62
   179
420
  1709851
370
    18
100
AcDbVertex
100
AcDb2dVertex
 10
97.34547930509072
 20
-173.8064452690484
 30
0.0
  0
VERTEX
  5
2B6
330
2B0
100
AcDbEntity
  8
Ebene 1
 62
   179
420
  1709851
370
    18
100
AcDbVertex
100
AcDb2dVertex
 10
97.02801375612495
 20
-173.6583061631827
 30
0.0
  0
VERTEX
  5
2B7
330
2B0
100
AcDbEntity
  8
Ebene 1
 62
   179
420
  1709851
370
    18
100
AcDbVertex
100
AcDb2dVertex
 10
96.77411021886203
 20
-173.911865190897
 30
0.0
  0
SEQEND
  5
2B8
330
2B0
100
AcDbEntity
  8
Ebene 1
370
    18
  0
POLYLINE
  5
2B9
330
4A
100
AcDbEntity
  8
Ebene 1
 62
   179
420
  1709851
370
    18
100
AcDb2dPolyline
 66
     1
 10
0.0
 20
0.0
 30
0.0
  0
VERTEX
  5
2BA
330
2B9
100
AcDbEntity
  8
Ebene 1
 62
   179
420
  1709851
370
    18
100
AcDbVertex
100
AcDb2dVertex
 10
96.77411021886203
 20
-188.9193901437424
 30
0.0
  0
VERTEX
  5
2BB
330
2B9
100
AcDbEntity
  8
Ebene 1
 62
   179
420
  1709851
370
    18
100
AcDbVertex
100
AcDb2dVertex
 10
96.83749997579064
 20
-189.3217772964196
 30
0.0
  0
VERTEX
  5
2BC
330
2B9
100
AcDbEntity
  8
Ebene 1
 62
   179
420
  1709851
370
    18
100
AcDbVertex
100
AcDb2dVertex
 10
97.13395044229638
 20
-189.4699164022853
 30
0.0
  0
VERTEX
  5
2BD
330
2B9
100
AcDbEntity
  8
Ebene 1
 62
   179
420
  1709851
370
    18
100
AcDbVertex
100
AcDb2dVertex
 10
97.40904131679358
 20
-189.2163573745709
 30
0.0
  0
VERTEX
  5
2BE
330
2B9
100
AcDbEntity
  8
Ebene 1
 62
   179
420
  1709851
370
    18
100
AcDbVertex
100
AcDb2dVertex
 10
97.34547930509072
 20
-188.7926106298852
 30
0.0
  0
VERTEX
  5
2BF
330
2B9
100
AcDbEntity
  8
Ebene 1
 62
   179
420
  1709851
370
    18
100
AcDbVertex
100
AcDb2dVertex
 10
97.02801375612495
 20
-188.6444715240195
 30
0.0
  0
VERTEX
  5
2C0
330
2B9
100
AcDbEntity
  8
Ebene 1
 62
   179
420
  1709851
370
    18
100
AcDbVertex
100
AcDb2dVertex
 10
96.77411021886203
 20
-188.9193901437424
 30
0.0
  0
SEQEND
  5
2C1
330
2B9
100
AcDbEntity
  8
Ebene 1
370
    18
  0
POLYLINE
  5
2C2
330
4A
100
AcDbEntity
  8
Ebene 1
 62
   179
420
  1709851
370
    18
100
AcDb2dPolyline
 66
     1
 10
0.0
 20
0.0
 30
0.0
  0
VERTEX
  5
2C3
330
2C2
100
AcDbEntity
  8
Ebene 1
 62
   179
420
  1709851
370
    18
100
AcDbVertex
100
AcDb2dVertex
 10
96.77411021886203
 20
-203.9262260774907
 30
0.0
  0
VERTEX
  5
2C4
330
2C2
100
AcDbEntity
  8
Ebene 1
 62
   179
420
  1709851
370
    18
100
AcDbVertex
100
AcDb2dVertex
 10
96.83749997579064
 20
-204.3293022492649
 30
0.0
  0
VERTEX
  5
2C5
330
2C2
100
AcDbEntity
  8
Ebene 1
 62
   179
420
  1709851
370
    18
100
AcDbVertex
100
AcDb2dVertex
 10
97.13395044229638
 20
-204.4774413551307
 30
0.0
  0
VERTEX
  5
2C6
330
2C2
100
AcDbEntity
  8
Ebene 1
 62
   179
420
  1709851
370
    18
100
AcDbVertex
100
AcDb2dVertex
 10
97.40904131679358
 20
-204.2231933083192
 30
0.0
  0
VERTEX
  5
2C7
330
2C2
100
AcDbEntity
  8
Ebene 1
 62
   179
420
  1709851
370
    18
100
AcDbVertex
100
AcDb2dVertex
 10
97.34547930509072
 20
-203.8001355827305
 30
0.0
  0
VERTEX
  5
2C8
330
2C2
100
AcDbEntity
  8
Ebene 1
 62
   179
420
  1709851
370
    18
100
AcDbVertex
100
AcDb2dVertex
 10
97.02801375612495
 20
-203.6519964768648
 30
0.0
  0
VERTEX
  5
2C9
330
2C2
100
AcDbEntity
  8
Ebene 1
 62
   179
420
  1709851
370
    18
100
AcDbVertex
100
AcDb2dVertex
 10
96.77411021886203
 20
-203.9262260774907
 30
0.0
  0
SEQEND
  5
2CA
330
2C2
100
AcDbEntity
  8
Ebene 1
370
    18
  0
POLYLINE
  5
2CB
330
4A
100
AcDbEntity
  8
Ebene 1
 62
   179
420
  1709851
370
    18
100
AcDb2dPolyline
 66
     1
 10
0.0
 20
0.0
 30
0.0
  0
VERTEX
  5
2CC
330
2CB
100
AcDbEntity
  8
Ebene 1
 62
   179
420
  1709851
370
    18
100
AcDbVertex
100
AcDb2dVertex
 10
96.77411021886203
 20
-218.9130804574245
 30
0.0
  0
VERTEX
  5
2CD
330
2CB
100
AcDbEntity
  8
Ebene 1
 62
   179
420
  1709851
370
    18
100
AcDbVertex
100
AcDb2dVertex
 10
96.83749997579064
 20
-219.3147785910047
 30
0.0
  0
VERTEX
  5
2CE
330
2CB
100
AcDbEntity
  8
Ebene 1
 62
   179
420
  1709851
370
    18
100
AcDbVertex
100
AcDb2dVertex
 10
97.13395044229638
 20
-219.4629176968704
 30
0.0
  0
VERTEX
  5
2CF
330
2CB
100
AcDbEntity
  8
Ebene 1
 62
   179
420
  1709851
370
    18
100
AcDbVertex
100
AcDb2dVertex
 10
97.40904131679358
 20
-219.208669650059
 30
0.0
  0
VERTEX
  5
2D0
330
2CB
100
AcDbEntity
  8
Ebene 1
 62
   179
420
  1709851
370
    18
100
AcDbVertex
100
AcDb2dVertex
 10
97.34547930509072
 20
-218.8069715164788
 30
0.0
  0
VERTEX
  5
2D1
330
2CB
100
AcDbEntity
  8
Ebene 1
 62
   179
420
  1709851
370
    18
100
AcDbVertex
100
AcDb2dVertex
 10
97.02801375612495
 20
-218.6374728186045
 30
0.0
  0
VERTEX
  5
2D2
330
2CB
100
AcDbEntity
  8
Ebene 1
 62
   179
420
  1709851
370
    18
100
AcDbVertex
100
AcDb2dVertex
 10
96.77411021886203
 20
-218.9130804574245
 30
0.0
  0
SEQEND
  5
2D3
330
2CB
100
AcDbEntity
  8
Ebene 1
370
    18
  0
POLYLINE
  5
2D4
330
4A
100
AcDbEntity
  8
Ebene 1
 62
   179
420
  1709851
370
    18
100
AcDb2dPolyline
 66
     1
 10
0.0
 20
0.0
 30
0.0
  0
VERTEX
  5
2D5
330
2D4
100
AcDbEntity
  8
Ebene 1
 62
   179
420
  1709851
370
    18
100
AcDbVertex
100
AcDb2dVertex
 10
92.71010332968706
 20
-137.5266614782051
 30
0.0
  0
VERTEX
  5
2D6
330
2D4
100
AcDbEntity
  8
Ebene 1
 62
   179
420
  1709851
370
    18
100
AcDbVertex
100
AcDb2dVertex
 10
92.75230574938138
 20
-137.9504082228909
 30
0.0
  0
VERTEX
  5
2D7
330
2D4
100
AcDbEntity
  8
Ebene 1
 62
   179
420
  1709851
370
    18
100
AcDbVertex
100
AcDb2dVertex
 10
93.0699435531214
 20
-138.0985473287566
 30
0.0
  0
VERTEX
  5
2D8
330
2D4
100
AcDbEntity
  8
Ebene 1
 62
   179
420
  1709851
370
    18
100
AcDbVertex
100
AcDb2dVertex
 10
93.32384709038432
 20
-137.8232841994852
 30
0.0
  0
VERTEX
  5
2D9
330
2D4
100
AcDbEntity
  8
Ebene 1
 62
   179
420
  1709851
370
    18
100
AcDbVertex
100
AcDb2dVertex
 10
93.26028507868146
 20
-137.4212415563565
 30
0.0
  0
VERTEX
  5
2DA
330
2D4
100
AcDbEntity
  8
Ebene 1
 62
   179
420
  1709851
370
    18
100
AcDbVertex
100
AcDb2dVertex
 10
92.94281952971569
 20
-137.2731024504908
 30
0.0
  0
VERTEX
  5
2DB
330
2D4
100
AcDbEntity
  8
Ebene 1
 62
   179
420
  1709851
370
    18
100
AcDbVertex
100
AcDb2dVertex
 10
92.71010332968706
 20
-137.5266614782051
 30
0.0
  0
SEQEND
  5
2DC
330
2D4
100
AcDbEntity
  8
Ebene 1
370
    18
  0
POLYLINE
  5
2DD
330
4A
100
AcDbEntity
  8
Ebene 1
 62
   179
420
  1709851
370
    18
100
AcDb2dPolyline
 66
     1
 10
0.0
 20
0.0
 30
0.0
  0
VERTEX
  5
2DE
330
2DD
100
AcDbEntity
  8
Ebene 1
 62
   179
420
  1709851
370
    18
100
AcDbVertex
100
AcDb2dVertex
 10
92.71010332968706
 20
-152.5129990938162
 30
0.0
  0
VERTEX
  5
2DF
330
2DD
100
AcDbEntity
  8
Ebene 1
 62
   179
420
  1709851
370
    18
100
AcDbVertex
100
AcDb2dVertex
 10
92.75230574938138
 20
-152.9360568194049
 30
0.0
  0
VERTEX
  5
2E0
330
2DD
100
AcDbEntity
  8
Ebene 1
 62
   179
420
  1709851
370
    18
100
AcDbVertex
100
AcDb2dVertex
 10
93.0699435531214
 20
-153.0848849443677
 30
0.0
  0
VERTEX
  5
2E1
330
2DD
100
AcDbEntity
  8
Ebene 1
 62
   179
420
  1709851
370
    18
100
AcDbVertex
100
AcDb2dVertex
 10
93.32384709038432
 20
-152.8092773055477
 30
0.0
  0
VERTEX
  5
2E2
330
2DD
100
AcDbEntity
  8
Ebene 1
 62
   179
420
  1709851
370
    18
100
AcDbVertex
100
AcDb2dVertex
 10
93.26028507868146
 20
-152.4068901528705
 30
0.0
  0
VERTEX
  5
2E3
330
2DD
100
AcDbEntity
  8
Ebene 1
 62
   179
420
  1709851
370
    18
100
AcDbVertex
100
AcDb2dVertex
 10
92.94281952971569
 20
-152.2587510470048
 30
0.0
  0
VERTEX
  5
2E4
330
2DD
100
AcDbEntity
  8
Ebene 1
 62
   179
420
  1709851
370
    18
100
AcDbVertex
100
AcDb2dVertex
 10
92.71010332968706
 20
-152.5129990938162
 30
0.0
  0
SEQEND
  5
2E5
330
2DD
100
AcDbEntity
  8
Ebene 1
370
    18
  0
POLYLINE
  5
2E6
330
4A
100
AcDbEntity
  8
Ebene 1
 62
   179
420
  1709851
370
    18
100
AcDb2dPolyline
 66
     1
 10
0.0
 20
0.0
 30
0.0
  0
VERTEX
  5
2E7
330
2E6
100
AcDbEntity
  8
Ebene 1
 62
   179
420
  1709851
370
    18
100
AcDbVertex
100
AcDb2dVertex
 10
92.71010332968706
 20
-167.5205240466615
 30
0.0
  0
VERTEX
  5
2E8
330
2E6
100
AcDbEntity
  8
Ebene 1
 62
   179
420
  1709851
370
    18
100
AcDbVertex
100
AcDb2dVertex
 10
92.75230574938138
 20
-167.9428927531532
 30
0.0
  0
VERTEX
  5
2E9
330
2E6
100
AcDbEntity
  8
Ebene 1
 62
   179
420
  1709851
370
    18
100
AcDbVertex
100
AcDb2dVertex
 10
93.0699435531214
 20
-168.0910318590189
 30
0.0
  0
VERTEX
  5
2EA
330
2E6
100
AcDbEntity
  8
Ebene 1
 62
   179
420
  1709851
370
    18
100
AcDbVertex
100
AcDb2dVertex
 10
93.32384709038432
 20
-167.816802258393
 30
0.0
  0
VERTEX
  5
2EB
330
2E6
100
AcDbEntity
  8
Ebene 1
 62
   179
420
  1709851
370
    18
100
AcDbVertex
100
AcDb2dVertex
 10
93.26028507868146
 20
-167.4137260866188
 30
0.0
  0
VERTEX
  5
2EC
330
2E6
100
AcDbEntity
  8
Ebene 1
 62
   179
420
  1709851
370
    18
100
AcDbVertex
100
AcDb2dVertex
 10
92.94281952971569
 20
-167.2655869807531
 30
0.0
  0
VERTEX
  5
2ED
330
2E6
100
AcDbEntity
  8
Ebene 1
 62
   179
420
  1709851
370
    18
100
AcDbVertex
100
AcDb2dVertex
 10
92.71010332968706
 20
-167.5205240466615
 30
0.0
  0
SEQEND
  5
2EE
330
2E6
100
AcDbEntity
  8
Ebene 1
370
    18
  0
POLYLINE
  5
2EF
330
4A
100
AcDbEntity
  8
Ebene 1
 62
   179
420
  1709851
370
    18
100
AcDb2dPolyline
 66
     1
 10
0.0
 20
0.0
 30
0.0
  0
VERTEX
  5
2F0
330
2EF
100
AcDbEntity
  8
Ebene 1
 62
   179
420
  1709851
370
    18
100
AcDbVertex
100
AcDb2dVertex
 10
92.71010332968706
 20
-182.5060003884013
 30
0.0
  0
VERTEX
  5
2F1
330
2EF
100
AcDbEntity
  8
Ebene 1
 62
   179
420
  1709851
370
    18
100
AcDbVertex
100
AcDb2dVertex
 10
92.75230574938138
 20
-182.929747133087
 30
0.0
  0
VERTEX
  5
2F2
330
2EF
100
AcDbEntity
  8
Ebene 1
 62
   179
420
  1709851
370
    18
100
AcDbVertex
100
AcDb2dVertex
 10
93.0699435531214
 20
-183.0778862389528
 30
0.0
  0
VERTEX
  5
2F3
330
2EF
100
AcDbEntity
  8
Ebene 1
 62
   179
420
  1709851
370
    18
100
AcDbVertex
100
AcDb2dVertex
 10
93.32384709038432
 20
-182.8236381921413
 30
0.0
  0
VERTEX
  5
2F4
330
2EF
100
AcDbEntity
  8
Ebene 1
 62
   179
420
  1709851
370
    18
100
AcDbVertex
100
AcDb2dVertex
 10
93.26028507868146
 20
-182.4212510394642
 30
0.0
  0
VERTEX
  5
2F5
330
2EF
100
AcDbEntity
  8
Ebene 1
 62
   179
420
  1709851
370
    18
100
AcDbVertex
100
AcDb2dVertex
 10
92.94281952971569
 20
-182.2524413606869
 30
0.0
  0
VERTEX
  5
2F6
330
2EF
100
AcDbEntity
  8
Ebene 1
 62
   179
420
  1709851
370
    18
100
AcDbVertex
100
AcDb2dVertex
 10
92.71010332968706
 20
-182.5060003884013
 30
0.0
  0
SEQEND
  5
2F7
330
2EF
100
AcDbEntity
  8
Ebene 1
370
    18
  0
POLYLINE
  5
2F8
330
4A
100
AcDbEntity
  8
Ebene 1
 62
   179
420
  1709851
370
    18
100
AcDb2dPolyline
 66
     1
 10
0.0
 20
0.0
 30
0.0
  0
VERTEX
  5
2F9
330
2F8
100
AcDbEntity
  8
Ebene 1
 62
   179
420
  1709851
370
    18
100
AcDbVertex
100
AcDb2dVertex
 10
92.71010332968706
 20
-197.5128363221496
 30
0.0
  0
VERTEX
  5
2FA
330
2F8
100
AcDbEntity
  8
Ebene 1
 62
   179
420
  1709851
370
    18
100
AcDbVertex
100
AcDb2dVertex
 10
92.75230574938138
 20
-197.9365830668353
 30
0.0
  0
VERTEX
  5
2FB
330
2F8
100
AcDbEntity
  8
Ebene 1
 62
   179
420
  1709851
370
    18
100
AcDbVertex
100
AcDb2dVertex
 10
93.0699435531214
 20
-198.084722172701
 30
0.0
  0
VERTEX
  5
2FC
330
2F8
100
AcDbEntity
  8
Ebene 1
 62
   179
420
  1709851
370
    18
100
AcDbVertex
100
AcDb2dVertex
 10
93.32384709038432
 20
-197.8091145338811
 30
0.0
  0
VERTEX
  5
2FD
330
2F8
100
AcDbEntity
  8
Ebene 1
 62
   179
420
  1709851
370
    18
100
AcDbVertex
100
AcDb2dVertex
 10
93.26028507868146
 20
-197.4074164003009
 30
0.0
  0
VERTEX
  5
2FE
330
2F8
100
AcDbEntity
  8
Ebene 1
 62
   179
420
  1709851
370
    18
100
AcDbVertex
100
AcDb2dVertex
 10
92.94281952971569
 20
-197.2592772944352
 30
0.0
  0
VERTEX
  5
2FF
330
2F8
100
AcDbEntity
  8
Ebene 1
 62
   179
420
  1709851
370
    18
100
AcDbVertex
100
AcDb2dVertex
 10
92.71010332968706
 20
-197.5128363221496
 30
0.0
  0
SEQEND
  5
300
330
2F8
100
AcDbEntity
  8
Ebene 1
370
    18
  0
POLYLINE
  5
301
330
4A
100
AcDbEntity
  8
Ebene 1
 62
   179
420
  1709851
370
    18
100
AcDb2dPolyline
 66
     1
 10
0.0
 20
0.0
 30
0.0
  0
VERTEX
  5
302
330
301
100
AcDbEntity
  8
Ebene 1
 62
   179
420
  1709851
370
    18
100
AcDbVertex
100
AcDb2dVertex
 10
92.71010332968706
 20
-212.5203612749949
 30
0.0
  0
VERTEX
  5
303
330
301
100
AcDbEntity
  8
Ebene 1
 62
   179
420
  1709851
370
    18
100
AcDbVertex
100
AcDb2dVertex
 10
92.75230574938138
 20
-212.9441080196806
 30
0.0
  0
VERTEX
  5
304
330
301
100
AcDbEntity
  8
Ebene 1
 62
   179
420
  1709851
370
    18
100
AcDbVertex
100
AcDb2dVertex
 10
93.0699435531214
 20
-213.0922471255464
 30
0.0
  0
VERTEX
  5
305
330
301
100
AcDbEntity
  8
Ebene 1
 62
   179
420
  1709851
370
    18
100
AcDbVertex
100
AcDb2dVertex
 10
93.32384709038432
 20
-212.8166394867264
 30
0.0
  0
VERTEX
  5
306
330
301
100
AcDbEntity
  8
Ebene 1
 62
   179
420
  1709851
370
    18
100
AcDbVertex
100
AcDb2dVertex
 10
93.26028507868146
 20
-212.4149413531463
 30
0.0
  0
VERTEX
  5
307
330
301
100
AcDbEntity
  8
Ebene 1
 62
   179
420
  1709851
370
    18
100
AcDbVertex
100
AcDb2dVertex
 10
92.94281952971569
 20
-212.2668022472805
 30
0.0
  0
VERTEX
  5
308
330
301
100
AcDbEntity
  8
Ebene 1
 62
   179
420
  1709851
370
    18
100
AcDbVertex
100
AcDb2dVertex
 10
92.71010332968706
 20
-212.5203612749949
 30
0.0
  0
SEQEND
  5
309
330
301
100
AcDbEntity
  8
Ebene 1
370
    18
  0
POLYLINE
  5
30A
330
4A
100
AcDbEntity
  8
Ebene 1
 62
   179
420
  1709851
370
    18
100
AcDb2dPolyline
 66
     1
 10
0.0
 20
0.0
 30
0.0
  0
VERTEX
  5
30B
330
30A
100
AcDbEntity
  8
Ebene 1
 62
   179
420
  1709851
370
    18
100
AcDbVertex
100
AcDb2dVertex
 10
92.71010332968706
 20
-227.5065266358317
 30
0.0
  0
VERTEX
  5
30C
330
30A
100
AcDbEntity
  8
Ebene 1
 62
   179
420
  1709851
370
    18
100
AcDbVertex
100
AcDb2dVertex
 10
92.75230574938138
 20
-227.9295843614204
 30
0.0
  0
VERTEX
  5
30D
330
30A
100
AcDbEntity
  8
Ebene 1
 62
   179
420
  1709851
370
    18
100
AcDbVertex
100
AcDb2dVertex
 10
93.0699435531214
 20
-228.0777234672861
 30
0.0
  0
VERTEX
  5
30E
330
30A
100
AcDbEntity
  8
Ebene 1
 62
   179
420
  1709851
370
    18
100
AcDbVertex
100
AcDb2dVertex
 10
93.32384709038432
 20
-227.8028048475632
 30
0.0
  0
VERTEX
  5
30F
330
30A
100
AcDbEntity
  8
Ebene 1
 62
   179
420
  1709851
370
    18
100
AcDbVertex
100
AcDb2dVertex
 10
93.26028507868146
 20
-227.400417694886
 30
0.0
  0
VERTEX
  5
310
330
30A
100
AcDbEntity
  8
Ebene 1
 62
   179
420
  1709851
370
    18
100
AcDbVertex
100
AcDb2dVertex
 10
92.94281952971569
 20
-227.2522785890203
 30
0.0
  0
VERTEX
  5
311
330
30A
100
AcDbEntity
  8
Ebene 1
 62
   179
420
  1709851
370
    18
100
AcDbVertex
100
AcDb2dVertex
 10
92.71010332968706
 20
-227.5065266358317
 30
0.0
  0
SEQEND
  5
312
330
30A
100
AcDbEntity
  8
Ebene 1
370
    18
  0
POLYLINE
  5
313
330
4A
100
AcDbEntity
  8
Ebene 1
 62
   179
420
  1709851
370
    18
100
AcDb2dPolyline
 66
     1
 10
0.0
 20
0.0
 30
0.0
  0
VERTEX
  5
314
330
313
100
AcDbEntity
  8
Ebene 1
 62
   179
420
  1709851
370
    18
100
AcDbVertex
100
AcDb2dVertex
 10
131.3601128143822
 20
-124.2130899754572
 30
0.0
  0
VERTEX
  5
315
330
313
100
AcDbEntity
  8
Ebene 1
 62
   179
420
  1709851
370
    18
100
AcDbVertex
100
AcDb2dVertex
 10
131.0218044377307
 20
-123.8744370892571
 30
0.0
  0
SEQEND
  5
316
330
313
100
AcDbEntity
  8
Ebene 1
370
    18
  0
POLYLINE
  5
317
330
4A
100
AcDbEntity
  8
Ebene 1
 62
   179
420
  1709851
370
    18
100
AcDb2dPolyline
 66
     1
 10
0.0
 20
0.0
 30
0.0
  0
VERTEX
  5
318
330
317
100
AcDbEntity
  8
Ebene 1
 62
   179
420
  1709851
370
    18
100
AcDbVertex
100
AcDb2dVertex
 10
135.5934461466572
 20
-124.2130899754572
 30
0.0
  0
VERTEX
  5
319
330
317
100
AcDbEntity
  8
Ebene 1
 62
   179
420
  1709851
370
    18
100
AcDbVertex
100
AcDb2dVertex
 10
131.5930012691851
 20
-120.2123005884365
 30
0.0
  0
SEQEND
  5
31A
330
317
100
AcDbEntity
  8
Ebene 1
370
    18
  0
POLYLINE
  5
31B
330
4A
100
AcDbEntity
  8
Ebene 1
 62
   179
420
  1709851
370
    18
100
AcDb2dPolyline
 66
     1
 10
0.0
 20
0.0
 30
0.0
  0
VERTEX
  5
31C
330
31B
100
AcDbEntity
  8
Ebene 1
 62
   179
420
  1709851
370
    18
100
AcDbVertex
100
AcDb2dVertex
 10
139.8484835804893
 20
-124.2130899754572
 30
0.0
  0
VERTEX
  5
31D
330
31B
100
AcDbEntity
  8
Ebene 1
 62
   179
420
  1709851
370
    18
100
AcDbVertex
100
AcDb2dVertex
 10
135.8480387030172
 20
-120.2123005884365
 30
0.0
  0
SEQEND
  5
31E
330
31B
100
AcDbEntity
  8
Ebene 1
370
    18
  0
POLYLINE
  5
31F
330
4A
100
AcDbEntity
  8
Ebene 1
 62
   179
420
  1709851
370
    18
100
AcDb2dPolyline
 66
     1
 10
0.0
 20
0.0
 30
0.0
  0
VERTEX
  5
320
330
31F
100
AcDbEntity
  8
Ebene 1
 62
   179
420
  1709851
370
    18
100
AcDbVertex
100
AcDb2dVertex
 10
144.0818169127643
 20
-124.2130899754572
 30
0.0
  0
VERTEX
  5
321
330
31F
100
AcDbEntity
  8
Ebene 1
 62
   179
420
  1709851
370
    18
100
AcDbVertex
100
AcDb2dVertex
 10
140.0813720352922
 20
-120.2123005884365
 30
0.0
  0
SEQEND
  5
322
330
31F
100
AcDbEntity
  8
Ebene 1
370
    18
  0
POLYLINE
  5
323
330
4A
100
AcDbEntity
  8
Ebene 1
 62
   179
420
  1709851
370
    18
100
AcDb2dPolyline
 66
     1
 10
0.0
 20
0.0
 30
0.0
  0
VERTEX
  5
324
330
323
100
AcDbEntity
  8
Ebene 1
 62
   179
420
  1709851
370
    18
100
AcDbVertex
100
AcDb2dVertex
 10
148.3151502450393
 20
-124.2130899754572
 30
0.0
  0
VERTEX
  5
325
330
323
100
AcDbEntity
  8
Ebene 1
 62
   179
420
  1709851
370
    18
100
AcDbVertex
100
AcDb2dVertex
 10
144.3357204500272
 20
-120.2123005884365
 30
0.0
  0
SEQEND
  5
326
330
323
100
AcDbEntity
  8
Ebene 1
370
    18
  0
POLYLINE
  5
327
330
4A
100
AcDbEntity
  8
Ebene 1
 62
   179
420
  1709851
370
    18
100
AcDb2dPolyline
 66
     1
 10
0.0
 20
0.0
 30
0.0
  0
VERTEX
  5
328
330
327
100
AcDbEntity
  8
Ebene 1
 62
   179
420
  1709851
370
    18
100
AcDbVertex
100
AcDb2dVertex
 10
152.5694986597743
 20
-124.2130899754572
 30
0.0
  0
VERTEX
  5
329
330
327
100
AcDbEntity
  8
Ebene 1
 62
   179
420
  1709851
370
    18
100
AcDbVertex
100
AcDb2dVertex
 10
148.5690537823022
 20
-120.2123005884365
 30
0.0
  0
SEQEND
  5
32A
330
327
100
AcDbEntity
  8
Ebene 1
370
    18
  0
POLYLINE
  5
32B
330
4A
100
AcDbEntity
  8
Ebene 1
 62
   179
420
  1709851
370
    18
100
AcDb2dPolyline
 66
     1
 10
0.0
 20
0.0
 30
0.0
  0
VERTEX
  5
32C
330
32B
100
AcDbEntity
  8
Ebene 1
 62
   179
420
  1709851
370
    18
100
AcDbVertex
100
AcDb2dVertex
 10
156.8028319920493
 20
-124.2130899754572
 30
0.0
  0
VERTEX
  5
32D
330
32B
100
AcDbEntity
  8
Ebene 1
 62
   179
420
  1709851
370
    18
100
AcDbVertex
100
AcDb2dVertex
 10
152.8023871145772
 20
-120.2123005884365
 30
0.0
  0
SEQEND
  5
32E
330
32B
100
AcDbEntity
  8
Ebene 1
370
    18
  0
POLYLINE
  5
32F
330
4A
100
AcDbEntity
  8
Ebene 1
 62
   179
420
  1709851
370
    18
100
AcDb2dPolyline
 66
     1
 10
0.0
 20
0.0
 30
0.0
  0
VERTEX
  5
330
330
32F
100
AcDbEntity
  8
Ebene 1
 62
   179
420
  1709851
370
    18
100
AcDbVertex
100
AcDb2dVertex
 10
161.0575249163329
 20
-124.2130899754572
 30
0.0
  0
VERTEX
  5
331
330
32F
100
AcDbEntity
  8
Ebene 1
 62
   179
420
  1709851
370
    18
100
AcDbVertex
100
AcDb2dVertex
 10
157.0567355293122
 20
-120.2123005884365
 30
0.0
  0
SEQEND
  5
332
330
32F
100
AcDbEntity
  8
Ebene 1
370
    18
  0
POLYLINE
  5
333
330
4A
100
AcDbEntity
  8
Ebene 1
 62
   179
420
  1709851
370
    18
100
AcDb2dPolyline
 66
     1
 10
0.0
 20
0.0
 30
0.0
  0
VERTEX
  5
334
330
333
100
AcDbEntity
  8
Ebene 1
 62
   179
420
  1709851
370
    18
100
AcDbVertex
100
AcDb2dVertex
 10
165.2908582486079
 20
-124.2130899754572
 30
0.0
  0
VERTEX
  5
335
330
333
100
AcDbEntity
  8
Ebene 1
 62
   179
420
  1709851
370
    18
100
AcDbVertex
100
AcDb2dVertex
 10
161.2900688615872
 20
-120.2123005884365
 30
0.0
  0
SEQEND
  5
336
330
333
100
AcDbEntity
  8
Ebene 1
370
    18
  0
POLYLINE
  5
337
330
4A
100
AcDbEntity
  8
Ebene 1
 62
   179
420
  1709851
370
    18
100
AcDb2dPolyline
 66
     1
 10
0.0
 20
0.0
 30
0.0
  0
VERTEX
  5
338
330
337
100
AcDbEntity
  8
Ebene 1
 62
   179
420
  1709851
370
    18
100
AcDbVertex
100
AcDb2dVertex
 10
166.2010524758109
 20
-120.8899508703852
 30
0.0
  0
VERTEX
  5
339
330
337
100
AcDbEntity
  8
Ebene 1
 62
   179
420
  1709851
370
    18
100
AcDbVertex
100
AcDb2dVertex
 10
165.5444172763222
 20
-120.2123005884365
 30
0.0
  0
SEQEND
  5
33A
330
337
100
AcDbEntity
  8
Ebene 1
370
    18
  0
POLYLINE
  5
33B
330
4A
100
AcDbEntity
  8
Ebene 1
 62
   179
420
  1709851
370
    18
100
AcDb2dPolyline
 66
     1
 10
0.0
 20
0.0
 30
0.0
  0
VERTEX
  5
33C
330
33B
100
AcDbEntity
  8
Ebene 1
 62
   179
420
  1709851
370
    18
100
AcDbVertex
100
AcDb2dVertex
 10
133.4767794805197
 20
-124.2130899754572
 30
0.0
  0
VERTEX
  5
33D
330
33B
100
AcDbEntity
  8
Ebene 1
 62
   179
420
  1709851
370
    18
100
AcDbVertex
100
AcDb2dVertex
 10
131.0218044377307
 20
-121.7577704231196
 30
0.0
  0
SEQEND
  5
33E
330
33B
100
AcDbEntity
  8
Ebene 1
370
    18
  0
POLYLINE
  5
33F
330
4A
100
AcDbEntity
  8
Ebene 1
 62
   179
420
  1709851
370
    18
100
AcDb2dPolyline
 66
     1
 10
0.0
 20
0.0
 30
0.0
  0
VERTEX
  5
340
330
33F
100
AcDbEntity
  8
Ebene 1
 62
   179
420
  1709851
370
    18
100
AcDbVertex
100
AcDb2dVertex
 10
137.7101128127947
 20
-124.2130899754572
 30
0.0
  0
VERTEX
  5
341
330
33F
100
AcDbEntity
  8
Ebene 1
 62
   179
420
  1709851
370
    18
100
AcDbVertex
100
AcDb2dVertex
 10
133.7096679353226
 20
-120.2123005884365
 30
0.0
  0
SEQEND
  5
342
330
33F
100
AcDbEntity
  8
Ebene 1
370
    18
  0
POLYLINE
  5
343
330
4A
100
AcDbEntity
  8
Ebene 1
 62
   179
420
  1709851
370
    18
100
AcDb2dPolyline
 66
     1
 10
0.0
 20
0.0
 30
0.0
  0
VERTEX
  5
344
330
343
100
AcDbEntity
  8
Ebene 1
 62
   179
420
  1709851
370
    18
100
AcDbVertex
100
AcDb2dVertex
 10
141.9651502466268
 20
-124.2130899754572
 30
0.0
  0
VERTEX
  5
345
330
343
100
AcDbEntity
  8
Ebene 1
 62
   179
420
  1709851
370
    18
100
AcDbVertex
100
AcDb2dVertex
 10
137.9647053691547
 20
-120.2123005884365
 30
0.0
  0
SEQEND
  5
346
330
343
100
AcDbEntity
  8
Ebene 1
370
    18
  0
POLYLINE
  5
347
330
4A
100
AcDbEntity
  8
Ebene 1
 62
   179
420
  1709851
370
    18
100
AcDb2dPolyline
 66
     1
 10
0.0
 20
0.0
 30
0.0
  0
VERTEX
  5
348
330
347
100
AcDbEntity
  8
Ebene 1
 62
   179
420
  1709851
370
    18
100
AcDbVertex
100
AcDb2dVertex
 10
146.1984835789018
 20
-124.2130899754572
 30
0.0
  0
VERTEX
  5
349
330
347
100
AcDbEntity
  8
Ebene 1
 62
   179
420
  1709851
370
    18
100
AcDbVertex
100
AcDb2dVertex
 10
142.1980387014297
 20
-120.2123005884365
 30
0.0
  0
SEQEND
  5
34A
330
347
100
AcDbEntity
  8
Ebene 1
370
    18
  0
POLYLINE
  5
34B
330
4A
100
AcDbEntity
  8
Ebene 1
 62
   179
420
  1709851
370
    18
100
AcDb2dPolyline
 66
     1
 10
0.0
 20
0.0
 30
0.0
  0
VERTEX
  5
34C
330
34B
100
AcDbEntity
  8
Ebene 1
 62
   179
420
  1709851
370
    18
100
AcDbVertex
100
AcDb2dVertex
 10
150.4528319936368
 20
-124.2130899754572
 30
0.0
  0
VERTEX
  5
34D
330
34B
100
AcDbEntity
  8
Ebene 1
 62
   179
420
  1709851
370
    18
100
AcDbVertex
100
AcDb2dVertex
 10
146.4523871161647
 20
-120.2123005884365
 30
0.0
  0
SEQEND
  5
34E
330
34B
100
AcDbEntity
  8
Ebene 1
370
    18
  0
POLYLINE
  5
34F
330
4A
100
AcDbEntity
  8
Ebene 1
 62
   179
420
  1709851
370
    18
100
AcDb2dPolyline
 66
     1
 10
0.0
 20
0.0
 30
0.0
  0
VERTEX
  5
350
330
34F
100
AcDbEntity
  8
Ebene 1
 62
   179
420
  1709851
370
    18
100
AcDbVertex
100
AcDb2dVertex
 10
154.6861653259118
 20
-124.2130899754572
 30
0.0
  0
VERTEX
  5
351
330
34F
100
AcDbEntity
  8
Ebene 1
 62
   179
420
  1709851
370
    18
100
AcDbVertex
100
AcDb2dVertex
 10
150.6857204484397
 20
-120.2123005884365
 30
0.0
  0
SEQEND
  5
352
330
34F
100
AcDbEntity
  8
Ebene 1
370
    18
  0
POLYLINE
  5
353
330
4A
100
AcDbEntity
  8
Ebene 1
 62
   179
420
  1709851
370
    18
100
AcDb2dPolyline
 66
     1
 10
0.0
 20
0.0
 30
0.0
  0
VERTEX
  5
354
330
353
100
AcDbEntity
  8
Ebene 1
 62
   179
420
  1709851
370
    18
100
AcDbVertex
100
AcDb2dVertex
 10
158.9408582501954
 20
-124.2130899754572
 30
0.0
  0
VERTEX
  5
355
330
353
100
AcDbEntity
  8
Ebene 1
 62
   179
420
  1709851
370
    18
100
AcDbVertex
100
AcDb2dVertex
 10
154.9400688631747
 20
-120.2123005884365
 30
0.0
  0
SEQEND
  5
356
330
353
100
AcDbEntity
  8
Ebene 1
370
    18
  0
POLYLINE
  5
357
330
4A
100
AcDbEntity
  8
Ebene 1
 62
   179
420
  1709851
370
    18
100
AcDb2dPolyline
 66
     1
 10
0.0
 20
0.0
 30
0.0
  0
VERTEX
  5
358
330
357
100
AcDbEntity
  8
Ebene 1
 62
   179
420
  1709851
370
    18
100
AcDbVertex
100
AcDb2dVertex
 10
163.1741915824703
 20
-124.2130899754572
 30
0.0
  0
VERTEX
  5
359
330
357
100
AcDbEntity
  8
Ebene 1
 62
   179
420
  1709851
370
    18
100
AcDbVertex
100
AcDb2dVertex
 10
159.1734021954497
 20
-120.2123005884365
 30
0.0
  0
SEQEND
  5
35A
330
357
100
AcDbEntity
  8
Ebene 1
370
    18
  0
POLYLINE
  5
35B
330
4A
100
AcDbEntity
  8
Ebene 1
 62
   179
420
  1709851
370
    18
100
AcDb2dPolyline
 66
     1
 10
0.0
 20
0.0
 30
0.0
  0
VERTEX
  5
35C
330
35B
100
AcDbEntity
  8
Ebene 1
 62
   179
420
  1709851
370
    18
100
AcDbVertex
100
AcDb2dVertex
 10
166.2010524758109
 20
-123.0066175365227
 30
0.0
  0
VERTEX
  5
35D
330
35B
100
AcDbEntity
  8
Ebene 1
 62
   179
420
  1709851
370
    18
100
AcDbVertex
100
AcDb2dVertex
 10
163.4067355277247
 20
-120.2123005884365
 30
0.0
  0
SEQEND
  5
35E
330
35B
100
AcDbEntity
  8
Ebene 1
370
    18
  0
POLYLINE
  5
35F
330
4A
100
AcDbEntity
  8
Ebene 1
 62
   179
420
  1709851
370
    18
100
AcDb2dPolyline
 66
     1
 10
0.0
 20
0.0
 30
0.0
  0
VERTEX
  5
360
330
35F
100
AcDbEntity
  8
Ebene 1
 62
   179
420
  1709851
370
    18
100
AcDbVertex
100
AcDb2dVertex
 10
129.412944846119
 20
-126.2026326181889
 30
0.0
  0
VERTEX
  5
361
330
35F
100
AcDbEntity
  8
Ebene 1
 62
   179
420
  1709851
370
    18
100
AcDbVertex
100
AcDb2dVertex
 10
129.8573621637162
 20
-126.2026326181889
 30
0.0
  0
SEQEND
  5
362
330
35F
100
AcDbEntity
  8
Ebene 1
370
    18
  0
POLYLINE
  5
363
330
4A
100
AcDbEntity
  8
Ebene 1
 62
   179
420
  1709851
370
    18
100
AcDb2dPolyline
 66
     1
 10
0.0
 20
0.0
 30
0.0
  0
VERTEX
  5
364
330
363
100
AcDbEntity
  8
Ebene 1
 62
   179
420
  1709851
370
    18
100
AcDbVertex
100
AcDb2dVertex
 10
126.8098306974642
 20
-126.2026326181889
 30
0.0
  0
VERTEX
  5
365
330
363
100
AcDbEntity
  8
Ebene 1
 62
   179
420
  1709851
370
    18
100
AcDbVertex
100
AcDb2dVertex
 10
127.2542480150614
 20
-126.2026326181889
 30
0.0
  0
SEQEND
  5
366
330
363
100
AcDbEntity
  8
Ebene 1
370
    18
  0
POLYLINE
  5
367
330
4A
100
AcDbEntity
  8
Ebene 1
 62
   179
420
  1709851
370
    18
100
AcDb2dPolyline
 66
     1
 10
0.0
 20
0.0
 30
0.0
  0
VERTEX
  5
368
330
367
100
AcDbEntity
  8
Ebene 1
 62
   179
420
  1709851
370
    18
100
AcDbVertex
100
AcDb2dVertex
 10
124.2063720392609
 20
-126.2026326181889
 30
0.0
  0
VERTEX
  5
369
330
367
100
AcDbEntity
  8
Ebene 1
 62
   179
420
  1709851
370
    18
100
AcDbVertex
100
AcDb2dVertex
 10
124.6504448473096
 20
-126.2026326181889
 30
0.0
  0
SEQEND
  5
36A
330
367
100
AcDbEntity
  8
Ebene 1
370
    18
  0
POLYLINE
  5
36B
330
4A
100
AcDbEntity
  8
Ebene 1
 62
   179
420
  1709851
370
    18
100
AcDb2dPolyline
 66
     1
 10
0.0
 20
0.0
 30
0.0
  0
VERTEX
  5
36C
330
36B
100
AcDbEntity
  8
Ebene 1
 62
   179
420
  1709851
370
    18
100
AcDbVertex
100
AcDb2dVertex
 10
121.6235839539691
 20
-126.2026326181889
 30
0.0
  0
VERTEX
  5
36D
330
36B
100
AcDbEntity
  8
Ebene 1
 62
   179
420
  1709851
370
    18
100
AcDbVertex
100
AcDb2dVertex
 10
122.0473306986548
 20
-126.2026326181889
 30
0.0
  0
SEQEND
  5
36E
330
36B
100
AcDbEntity
  8
Ebene 1
370
    18
  0
POLYLINE
  5
36F
330
4A
100
AcDbEntity
  8
Ebene 1
 62
   179
420
  1709851
370
    18
100
AcDb2dPolyline
 66
     1
 10
0.0
 20
0.0
 30
0.0
  0
VERTEX
  5
370
330
36F
100
AcDbEntity
  8
Ebene 1
 62
   179
420
  1709851
370
    18
100
AcDbVertex
100
AcDb2dVertex
 10
119.0204698053143
 20
-126.2026326181889
 30
0.0
  0
VERTEX
  5
371
330
36F
100
AcDbEntity
  8
Ebene 1
 62
   179
420
  1709851
370
    18
100
AcDbVertex
100
AcDb2dVertex
 10
119.4438720404515
 20
-126.2026326181889
 30
0.0
  0
SEQEND
  5
372
330
36F
100
AcDbEntity
  8
Ebene 1
370
    18
  0
POLYLINE
  5
373
330
4A
100
AcDbEntity
  8
Ebene 1
 62
   179
420
  1709851
370
    18
100
AcDb2dPolyline
 66
     1
 10
0.0
 20
0.0
 30
0.0
  0
VERTEX
  5
374
330
373
100
AcDbEntity
  8
Ebene 1
 62
   179
420
  1709851
370
    18
100
AcDbVertex
100
AcDb2dVertex
 10
128.9898871205303
 20
-126.2026326181889
 30
0.0
  0
VERTEX
  5
375
330
373
100
AcDbEntity
  8
Ebene 1
 62
   179
420
  1709851
370
    18
100
AcDbVertex
100
AcDb2dVertex
 10
129.412944846119
 20
-126.2026326181889
 30
0.0
  0
SEQEND
  5
376
330
373
100
AcDbEntity
  8
Ebene 1
370
    18
  0
POLYLINE
  5
377
330
4A
100
AcDbEntity
  8
Ebene 1
 62
   179
420
  1709851
370
    18
100
AcDb2dPolyline
 66
     1
 10
0.0
 20
0.0
 30
0.0
  0
VERTEX
  5
378
330
377
100
AcDbEntity
  8
Ebene 1
 62
   179
420
  1709851
370
    18
100
AcDbVertex
100
AcDb2dVertex
 10
126.3860839527785
 20
-126.2026326181889
 30
0.0
  0
VERTEX
  5
379
330
377
100
AcDbEntity
  8
Ebene 1
 62
   179
420
  1709851
370
    18
100
AcDbVertex
100
AcDb2dVertex
 10
126.8098306974642
 20
-126.2026326181889
 30
0.0
  0
SEQEND
  5
37A
330
377
100
AcDbEntity
  8
Ebene 1
370
    18
  0
POLYLINE
  5
37B
330
4A
100
AcDbEntity
  8
Ebene 1
 62
   179
420
  1709851
370
    18
100
AcDb2dPolyline
 66
     1
 10
0.0
 20
0.0
 30
0.0
  0
VERTEX
  5
37C
330
37B
100
AcDbEntity
  8
Ebene 1
 62
   179
420
  1709851
370
    18
100
AcDbVertex
100
AcDb2dVertex
 10
123.7829698041237
 20
-126.2026326181889
 30
0.0
  0
VERTEX
  5
37D
330
37B
100
AcDbEntity
  8
Ebene 1
 62
   179
420
  1709851
370
    18
100
AcDbVertex
100
AcDb2dVertex
 10
124.2063720392609
 20
-126.2026326181889
 30
0.0
  0
SEQEND
  5
37E
330
37B
100
AcDbEntity
  8
Ebene 1
370
    18
  0
POLYLINE
  5
37F
330
4A
100
AcDbEntity
  8
Ebene 1
 62
   179
420
  1709851
370
    18
100
AcDb2dPolyline
 66
     1
 10
0.0
 20
0.0
 30
0.0
  0
VERTEX
  5
380
330
37F
100
AcDbEntity
  8
Ebene 1
 62
   179
420
  1709851
370
    18
100
AcDbVertex
100
AcDb2dVertex
 10
121.1795111459204
 20
-126.2026326181889
 30
0.0
  0
VERTEX
  5
381
330
37F
100
AcDbEntity
  8
Ebene 1
 62
   179
420
  1709851
370
    18
100
AcDbVertex
100
AcDb2dVertex
 10
121.6235839539691
 20
-126.2026326181889
 30
0.0
  0
SEQEND
  5
382
330
37F
100
AcDbEntity
  8
Ebene 1
370
    18
  0
POLYLINE
  5
383
330
4A
100
AcDbEntity
  8
Ebene 1
 62
   179
420
  1709851
370
    18
100
AcDb2dPolyline
 66
     1
 10
0.0
 20
0.0
 30
0.0
  0
VERTEX
  5
384
330
383
100
AcDbEntity
  8
Ebene 1
 62
   179
420
  1709851
370
    18
100
AcDbVertex
100
AcDb2dVertex
 10
130.281108908402
 20
-125.4619370888602
 30
0.0
  0
VERTEX
  5
385
330
383
100
AcDbEntity
  8
Ebene 1
 62
   179
420
  1709851
370
    18
100
AcDbVertex
100
AcDb2dVertex
 10
131.0218044377307
 20
-125.4619370888602
 30
0.0
  0
SEQEND
  5
386
330
383
100
AcDbEntity
  8
Ebene 1
370
    18
  0
POLYLINE
  5
387
330
4A
100
AcDbEntity
  8
Ebene 1
 62
   179
420
  1709851
370
    18
100
AcDb2dPolyline
 66
     1
 10
0.0
 20
0.0
 30
0.0
  0
VERTEX
  5
388
330
387
100
AcDbEntity
  8
Ebene 1
 62
   179
420
  1709851
370
    18
100
AcDbVertex
100
AcDb2dVertex
 10
127.6776502501987
 20
-125.4619370888602
 30
0.0
  0
VERTEX
  5
389
330
387
100
AcDbEntity
  8
Ebene 1
 62
   179
420
  1709851
370
    18
100
AcDbVertex
100
AcDb2dVertex
 10
128.5454698029331
 20
-125.4619370888602
 30
0.0
  0
VERTEX
  5
38A
330
387
100
AcDbEntity
  8
Ebene 1
 62
   179
420
  1709851
370
    18
100
AcDbVertex
100
AcDb2dVertex
 10
128.9898871205303
 20
-124.7212415595315
 30
0.0
  0
VERTEX
  5
38B
330
387
100
AcDbEntity
  8
Ebene 1
 62
   179
420
  1709851
370
    18
100
AcDbVertex
100
AcDb2dVertex
 10
128.6936089087988
 20
-124.2130899754572
 30
0.0
  0
SEQEND
  5
38C
330
387
100
AcDbEntity
  8
Ebene 1
370
    18
  0
POLYLINE
  5
38D
330
4A
100
AcDbEntity
  8
Ebene 1
 62
   179
420
  1709851
370
    18
100
AcDb2dPolyline
 66
     1
 10
0.0
 20
0.0
 30
0.0
  0
VERTEX
  5
38E
330
38D
100
AcDbEntity
  8
Ebene 1
 62
   179
420
  1709851
370
    18
100
AcDbVertex
100
AcDb2dVertex
 10
125.0741915919953
 20
-125.4619370888602
 30
0.0
  0
VERTEX
  5
38F
330
38D
100
AcDbEntity
  8
Ebene 1
 62
   179
420
  1709851
370
    18
100
AcDbVertex
100
AcDb2dVertex
 10
125.9420111447298
 20
-125.4619370888602
 30
0.0
  0
VERTEX
  5
390
330
38D
100
AcDbEntity
  8
Ebene 1
 62
   179
420
  1709851
370
    18
100
AcDbVertex
100
AcDb2dVertex
 10
126.3860839527785
 20
-124.7212415595315
 30
0.0
  0
VERTEX
  5
391
330
38D
100
AcDbEntity
  8
Ebene 1
 62
   179
420
  1709851
370
    18
100
AcDbVertex
100
AcDb2dVertex
 10
126.0901502505955
 20
-124.2130899754572
 30
0.0
  0
SEQEND
  5
392
330
38D
100
AcDbEntity
  8
Ebene 1
370
    18
  0
POLYLINE
  5
393
330
4A
100
AcDbEntity
  8
Ebene 1
 62
   179
420
  1709851
370
    18
100
AcDb2dPolyline
 66
     1
 10
0.0
 20
0.0
 30
0.0
  0
VERTEX
  5
394
330
393
100
AcDbEntity
  8
Ebene 1
 62
   179
420
  1709851
370
    18
100
AcDbVertex
100
AcDb2dVertex
 10
122.4703884242435
 20
-125.4619370888602
 30
0.0
  0
VERTEX
  5
395
330
393
100
AcDbEntity
  8
Ebene 1
 62
   179
420
  1709851
370
    18
100
AcDbVertex
100
AcDb2dVertex
 10
123.338207976978
 20
-125.4619370888602
 30
0.0
  0
VERTEX
  5
396
330
393
100
AcDbEntity
  8
Ebene 1
 62
   179
420
  1709851
370
    18
100
AcDbVertex
100
AcDb2dVertex
 10
123.7829698041237
 20
-124.7212415595315
 30
0.0
  0
VERTEX
  5
397
330
393
100
AcDbEntity
  8
Ebene 1
 62
   179
420
  1709851
370
    18
100
AcDbVertex
100
AcDb2dVertex
 10
123.4866915923922
 20
-124.2130899754572
 30
0.0
  0
SEQEND
  5
398
330
393
100
AcDbEntity
  8
Ebene 1
370
    18
  0
POLYLINE
  5
399
330
4A
100
AcDbEntity
  8
Ebene 1
 62
   179
420
  1709851
370
    18
100
AcDb2dPolyline
 66
     1
 10
0.0
 20
0.0
 30
0.0
  0
VERTEX
  5
39A
330
399
100
AcDbEntity
  8
Ebene 1
 62
   179
420
  1709851
370
    18
100
AcDbVertex
100
AcDb2dVertex
 10
119.8879448485002
 20
-125.4619370888602
 30
0.0
  0
VERTEX
  5
39B
330
399
100
AcDbEntity
  8
Ebene 1
 62
   179
420
  1709851
370
    18
100
AcDbVertex
100
AcDb2dVertex
 10
120.7561089107832
 20
-125.4619370888602
 30
0.0
  0
VERTEX
  5
39C
330
399
100
AcDbEntity
  8
Ebene 1
 62
   179
420
  1709851
370
    18
100
AcDbVertex
100
AcDb2dVertex
 10
121.1795111459204
 20
-124.7212415595315
 30
0.0
  0
VERTEX
  5
39D
330
399
100
AcDbEntity
  8
Ebene 1
 62
   179
420
  1709851
370
    18
100
AcDbVertex
100
AcDb2dVertex
 10
120.8828884246404
 20
-124.2130899754572
 30
0.0
  0
SEQEND
  5
39E
330
399
100
AcDbEntity
  8
Ebene 1
370
    18
  0
POLYLINE
  5
39F
330
4A
100
AcDbEntity
  8
Ebene 1
 62
   179
420
  1709851
370
    18
100
AcDb2dPolyline
 66
     1
 10
0.0
 20
0.0
 30
0.0
  0
VERTEX
  5
3A0
330
39F
100
AcDbEntity
  8
Ebene 1
 62
   179
420
  1709851
370
    18
100
AcDbVertex
100
AcDb2dVertex
 10
129.412944846119
 20
-124.7212415595315
 30
0.0
  0
VERTEX
  5
3A1
330
39F
100
AcDbEntity
  8
Ebene 1
 62
   179
420
  1709851
370
    18
100
AcDbVertex
100
AcDb2dVertex
 10
129.8573621637162
 20
-124.7212415595315
 30
0.0
  0
SEQEND
  5
3A2
330
39F
100
AcDbEntity
  8
Ebene 1
370
    18
  0
POLYLINE
  5
3A3
330
4A
100
AcDbEntity
  8
Ebene 1
 62
   179
420
  1709851
370
    18
100
AcDb2dPolyline
 66
     1
 10
0.0
 20
0.0
 30
0.0
  0
VERTEX
  5
3A4
330
3A3
100
AcDbEntity
  8
Ebene 1
 62
   179
420
  1709851
370
    18
100
AcDbVertex
100
AcDb2dVertex
 10
126.8305012703757
 20
-124.7212415595315
 30
0.0
  0
VERTEX
  5
3A5
330
3A3
100
AcDbEntity
  8
Ebene 1
 62
   179
420
  1709851
370
    18
100
AcDbVertex
100
AcDb2dVertex
 10
127.2542480150614
 20
-124.7212415595315
 30
0.0
  0
SEQEND
  5
3A6
330
3A3
100
AcDbEntity
  8
Ebene 1
370
    18
  0
POLYLINE
  5
3A7
330
4A
100
AcDbEntity
  8
Ebene 1
 62
   179
420
  1709851
370
    18
100
AcDb2dPolyline
 66
     1
 10
0.0
 20
0.0
 30
0.0
  0
VERTEX
  5
3A8
330
3A7
100
AcDbEntity
  8
Ebene 1
 62
   179
420
  1709851
370
    18
100
AcDbVertex
100
AcDb2dVertex
 10
124.2273871217209
 20
-124.7212415595315
 30
0.0
  0
VERTEX
  5
3A9
330
3A7
100
AcDbEntity
  8
Ebene 1
 62
   179
420
  1709851
370
    18
100
AcDbVertex
100
AcDb2dVertex
 10
124.6504448473096
 20
-124.7212415595315
 30
0.0
  0
SEQEND
  5
3AA
330
3A7
100
AcDbEntity
  8
Ebene 1
370
    18
  0
POLYLINE
  5
3AB
330
4A
100
AcDbEntity
  8
Ebene 1
 62
   179
420
  1709851
370
    18
100
AcDb2dPolyline
 66
     1
 10
0.0
 20
0.0
 30
0.0
  0
VERTEX
  5
3AC
330
3AB
100
AcDbEntity
  8
Ebene 1
 62
   179
420
  1709851
370
    18
100
AcDbVertex
100
AcDb2dVertex
 10
121.6235839539691
 20
-124.7212415595315
 30
0.0
  0
VERTEX
  5
3AD
330
3AB
100
AcDbEntity
  8
Ebene 1
 62
   179
420
  1709851
370
    18
100
AcDbVertex
100
AcDb2dVertex
 10
122.0473306986548
 20
-124.7212415595315
 30
0.0
  0
SEQEND
  5
3AE
330
3AB
100
AcDbEntity
  8
Ebene 1
370
    18
  0
POLYLINE
  5
3AF
330
4A
100
AcDbEntity
  8
Ebene 1
 62
   179
420
  1709851
370
    18
100
AcDb2dPolyline
 66
     1
 10
0.0
 20
0.0
 30
0.0
  0
VERTEX
  5
3B0
330
3AF
100
AcDbEntity
  8
Ebene 1
 62
   179
420
  1709851
370
    18
100
AcDbVertex
100
AcDb2dVertex
 10
119.0204698053143
 20
-124.7212415595315
 30
0.0
  0
VERTEX
  5
3B1
330
3AF
100
AcDbEntity
  8
Ebene 1
 62
   179
420
  1709851
370
    18
100
AcDbVertex
100
AcDb2dVertex
 10
119.4648871229116
 20
-124.7212415595315
 30
0.0
  0
SEQEND
  5
3B2
330
3AF
100
AcDbEntity
  8
Ebene 1
370
    18
  0
POLYLINE
  5
3B3
330
4A
100
AcDbEntity
  8
Ebene 1
 62
   179
420
  1709851
370
    18
100
AcDb2dPolyline
 66
     1
 10
0.0
 20
0.0
 30
0.0
  0
VERTEX
  5
3B4
330
3B3
100
AcDbEntity
  8
Ebene 1
 62
   179
420
  1709851
370
    18
100
AcDbVertex
100
AcDb2dVertex
 10
128.9898871205303
 20
-124.7212415595315
 30
0.0
  0
VERTEX
  5
3B5
330
3B3
100
AcDbEntity
  8
Ebene 1
 62
   179
420
  1709851
370
    18
100
AcDbVertex
100
AcDb2dVertex
 10
129.412944846119
 20
-124.7212415595315
 30
0.0
  0
SEQEND
  5
3B6
330
3B3
100
AcDbEntity
  8
Ebene 1
370
    18
  0
POLYLINE
  5
3B7
330
4A
100
AcDbEntity
  8
Ebene 1
 62
   179
420
  1709851
370
    18
100
AcDb2dPolyline
 66
     1
 10
0.0
 20
0.0
 30
0.0
  0
VERTEX
  5
3B8
330
3B7
100
AcDbEntity
  8
Ebene 1
 62
   179
420
  1709851
370
    18
100
AcDbVertex
100
AcDb2dVertex
 10
126.3860839527785
 20
-124.7212415595315
 30
0.0
  0
VERTEX
  5
3B9
330
3B7
100
AcDbEntity
  8
Ebene 1
 62
   179
420
  1709851
370
    18
100
AcDbVertex
100
AcDb2dVertex
 10
126.8098306974642
 20
-124.7212415595315
 30
0.0
  0
SEQEND
  5
3BA
330
3B7
100
AcDbEntity
  8
Ebene 1
370
    18
  0
POLYLINE
  5
3BB
330
4A
100
AcDbEntity
  8
Ebene 1
 62
   179
420
  1709851
370
    18
100
AcDb2dPolyline
 66
     1
 10
0.0
 20
0.0
 30
0.0
  0
VERTEX
  5
3BC
330
3BB
100
AcDbEntity
  8
Ebene 1
 62
   179
420
  1709851
370
    18
100
AcDbVertex
100
AcDb2dVertex
 10
123.7829698041237
 20
-124.7212415595315
 30
0.0
  0
VERTEX
  5
3BD
330
3BB
100
AcDbEntity
  8
Ebene 1
 62
   179
420
  1709851
370
    18
100
AcDbVertex
100
AcDb2dVertex
 10
124.2060275297124
 20
-124.7212415595315
 30
0.0
  0
SEQEND
  5
3BE
330
3BB
100
AcDbEntity
  8
Ebene 1
370
    18
  0
POLYLINE
  5
3BF
330
4A
100
AcDbEntity
  8
Ebene 1
 62
   179
420
  1709851
370
    18
100
AcDb2dPolyline
 66
     1
 10
0.0
 20
0.0
 30
0.0
  0
VERTEX
  5
3C0
330
3BF
100
AcDbEntity
  8
Ebene 1
 62
   179
420
  1709851
370
    18
100
AcDbVertex
100
AcDb2dVertex
 10
121.1795111459204
 20
-124.7212415595315
 30
0.0
  0
VERTEX
  5
3C1
330
3BF
100
AcDbEntity
  8
Ebene 1
 62
   179
420
  1709851
370
    18
100
AcDbVertex
100
AcDb2dVertex
 10
121.6235839539691
 20
-124.7212415595315
 30
0.0
  0
SEQEND
  5
3C2
330
3BF
100
AcDbEntity
  8
Ebene 1
370
    18
  0
POLYLINE
  5
3C3
330
4A
100
AcDbEntity
  8
Ebene 1
 62
   179
420
  1709851
370
    18
100
AcDb2dPolyline
 66
     1
 10
0.0
 20
0.0
 30
0.0
  0
VERTEX
  5
3C4
330
3C3
100
AcDbEntity
  8
Ebene 1
 62
   179
420
  1709851
370
    18
100
AcDbVertex
100
AcDb2dVertex
 10
130.281108908402
 20
-125.4619370888602
 30
0.0
  0
VERTEX
  5
3C5
330
3C3
100
AcDbEntity
  8
Ebene 1
 62
   179
420
  1709851
370
    18
100
AcDbVertex
100
AcDb2dVertex
 10
129.8573621637162
 20
-126.2026326181889
 30
0.0
  0
SEQEND
  5
3C6
330
3C3
100
AcDbEntity
  8
Ebene 1
370
    18
  0
POLYLINE
  5
3C7
330
4A
100
AcDbEntity
  8
Ebene 1
 62
   179
420
  1709851
370
    18
100
AcDb2dPolyline
 66
     1
 10
0.0
 20
0.0
 30
0.0
  0
VERTEX
  5
3C8
330
3C7
100
AcDbEntity
  8
Ebene 1
 62
   179
420
  1709851
370
    18
100
AcDbVertex
100
AcDb2dVertex
 10
127.6776502501987
 20
-125.4619370888602
 30
0.0
  0
VERTEX
  5
3C9
330
3C7
100
AcDbEntity
  8
Ebene 1
 62
   179
420
  1709851
370
    18
100
AcDbVertex
100
AcDb2dVertex
 10
127.2542480150614
 20
-126.2026326181889
 30
0.0
  0
SEQEND
  5
3CA
330
3C7
100
AcDbEntity
  8
Ebene 1
370
    18
  0
POLYLINE
  5
3CB
330
4A
100
AcDbEntity
  8
Ebene 1
 62
   179
420
  1709851
370
    18
100
AcDb2dPolyline
 66
     1
 10
0.0
 20
0.0
 30
0.0
  0
VERTEX
  5
3CC
330
3CB
100
AcDbEntity
  8
Ebene 1
 62
   179
420
  1709851
370
    18
100
AcDbVertex
100
AcDb2dVertex
 10
125.0738470824468
 20
-125.4619370888602
 30
0.0
  0
VERTEX
  5
3CD
330
3CB
100
AcDbEntity
  8
Ebene 1
 62
   179
420
  1709851
370
    18
100
AcDbVertex
100
AcDb2dVertex
 10
124.6504448473096
 20
-126.2026326181889
 30
0.0
  0
SEQEND
  5
3CE
330
3CB
100
AcDbEntity
  8
Ebene 1
370
    18
  0
POLYLINE
  5
3CF
330
4A
100
AcDbEntity
  8
Ebene 1
 62
   179
420
  1709851
370
    18
100
AcDb2dPolyline
 66
     1
 10
0.0
 20
0.0
 30
0.0
  0
VERTEX
  5
3D0
330
3CF
100
AcDbEntity
  8
Ebene 1
 62
   179
420
  1709851
370
    18
100
AcDbVertex
100
AcDb2dVertex
 10
122.4703884242435
 20
-125.4619370888602
 30
0.0
  0
VERTEX
  5
3D1
330
3CF
100
AcDbEntity
  8
Ebene 1
 62
   179
420
  1709851
370
    18
100
AcDbVertex
100
AcDb2dVertex
 10
122.0473306986548
 20
-126.2026326181889
 30
0.0
  0
SEQEND
  5
3D2
330
3CF
100
AcDbEntity
  8
Ebene 1
370
    18
  0
POLYLINE
  5
3D3
330
4A
100
AcDbEntity
  8
Ebene 1
 62
   179
420
  1709851
370
    18
100
AcDb2dPolyline
 66
     1
 10
0.0
 20
0.0
 30
0.0
  0
VERTEX
  5
3D4
330
3D3
100
AcDbEntity
  8
Ebene 1
 62
   179
420
  1709851
370
    18
100
AcDbVertex
100
AcDb2dVertex
 10
119.8879448485002
 20
-125.4619370888602
 30
0.0
  0
VERTEX
  5
3D5
330
3D3
100
AcDbEntity
  8
Ebene 1
 62
   179
420
  1709851
370
    18
100
AcDbVertex
100
AcDb2dVertex
 10
119.443527530903
 20
-126.2026326181889
 30
0.0
  0
SEQEND
  5
3D6
330
3D3
100
AcDbEntity
  8
Ebene 1
370
    18
  0
POLYLINE
  5
3D7
330
4A
100
AcDbEntity
  8
Ebene 1
 62
   179
420
  1709851
370
    18
100
AcDb2dPolyline
 66
     1
 10
0.0
 20
0.0
 30
0.0
  0
VERTEX
  5
3D8
330
3D7
100
AcDbEntity
  8
Ebene 1
 62
   179
420
  1709851
370
    18
100
AcDbVertex
100
AcDb2dVertex
 10
128.5454698029331
 20
-125.4619370888602
 30
0.0
  0
VERTEX
  5
3D9
330
3D7
100
AcDbEntity
  8
Ebene 1
 62
   179
420
  1709851
370
    18
100
AcDbVertex
100
AcDb2dVertex
 10
128.9898871205303
 20
-126.2026326181889
 30
0.0
  0
SEQEND
  5
3DA
330
3D7
100
AcDbEntity
  8
Ebene 1
370
    18
  0
POLYLINE
  5
3DB
330
4A
100
AcDbEntity
  8
Ebene 1
 62
   179
420
  1709851
370
    18
100
AcDb2dPolyline
 66
     1
 10
0.0
 20
0.0
 30
0.0
  0
VERTEX
  5
3DC
330
3DB
100
AcDbEntity
  8
Ebene 1
 62
   179
420
  1709851
370
    18
100
AcDbVertex
100
AcDb2dVertex
 10
125.9420111447298
 20
-125.4619370888602
 30
0.0
  0
VERTEX
  5
3DD
330
3DB
100
AcDbEntity
  8
Ebene 1
 62
   179
420
  1709851
370
    18
100
AcDbVertex
100
AcDb2dVertex
 10
126.3860839527785
 20
-126.2026326181889
 30
0.0
  0
SEQEND
  5
3DE
330
3DB
100
AcDbEntity
  8
Ebene 1
370
    18
  0
POLYLINE
  5
3DF
330
4A
100
AcDbEntity
  8
Ebene 1
 62
   179
420
  1709851
370
    18
100
AcDb2dPolyline
 66
     1
 10
0.0
 20
0.0
 30
0.0
  0
VERTEX
  5
3E0
330
3DF
100
AcDbEntity
  8
Ebene 1
 62
   179
420
  1709851
370
    18
100
AcDbVertex
100
AcDb2dVertex
 10
123.338207976978
 20
-125.4619370888602
 30
0.0
  0
VERTEX
  5
3E1
330
3DF
100
AcDbEntity
  8
Ebene 1
 62
   179
420
  1709851
370
    18
100
AcDbVertex
100
AcDb2dVertex
 10
123.7829698041237
 20
-126.2026326181889
 30
0.0
  0
SEQEND
  5
3E2
330
3DF
100
AcDbEntity
  8
Ebene 1
370
    18
  0
POLYLINE
  5
3E3
330
4A
100
AcDbEntity
  8
Ebene 1
 62
   179
420
  1709851
370
    18
100
AcDb2dPolyline
 66
     1
 10
0.0
 20
0.0
 30
0.0
  0
VERTEX
  5
3E4
330
3E3
100
AcDbEntity
  8
Ebene 1
 62
   179
420
  1709851
370
    18
100
AcDbVertex
100
AcDb2dVertex
 10
120.7561089107832
 20
-125.4619370888602
 30
0.0
  0
VERTEX
  5
3E5
330
3E3
100
AcDbEntity
  8
Ebene 1
 62
   179
420
  1709851
370
    18
100
AcDbVertex
100
AcDb2dVertex
 10
121.1791666363719
 20
-126.2026326181889
 30
0.0
  0
SEQEND
  5
3E6
330
3E3
100
AcDbEntity
  8
Ebene 1
370
    18
  0
POLYLINE
  5
3E7
330
4A
100
AcDbEntity
  8
Ebene 1
 62
   179
420
  1709851
370
    18
100
AcDb2dPolyline
 66
     1
 10
0.0
 20
0.0
 30
0.0
  0
VERTEX
  5
3E8
330
3E7
100
AcDbEntity
  8
Ebene 1
 62
   179
420
  1709851
370
    18
100
AcDbVertex
100
AcDb2dVertex
 10
130.1329698025362
 20
-124.2130899754572
 30
0.0
  0
VERTEX
  5
3E9
330
3E7
100
AcDbEntity
  8
Ebene 1
 62
   179
420
  1709851
370
    18
100
AcDbVertex
100
AcDb2dVertex
 10
129.8573621637162
 20
-124.7212415595315
 30
0.0
  0
VERTEX
  5
3EA
330
3E7
100
AcDbEntity
  8
Ebene 1
 62
   179
420
  1709851
370
    18
100
AcDbVertex
100
AcDb2dVertex
 10
130.281108908402
 20
-125.4619370888602
 30
0.0
  0
SEQEND
  5
3EB
330
3E7
100
AcDbEntity
  8
Ebene 1
370
    18
  0
POLYLINE
  5
3EC
330
4A
100
AcDbEntity
  8
Ebene 1
 62
   179
420
  1709851
370
    18
100
AcDb2dPolyline
 66
     1
 10
0.0
 20
0.0
 30
0.0
  0
VERTEX
  5
3ED
330
3EC
100
AcDbEntity
  8
Ebene 1
 62
   179
420
  1709851
370
    18
100
AcDbVertex
100
AcDb2dVertex
 10
127.5291666347844
 20
-124.2130899754572
 30
0.0
  0
VERTEX
  5
3EE
330
3EC
100
AcDbEntity
  8
Ebene 1
 62
   179
420
  1709851
370
    18
100
AcDbVertex
100
AcDb2dVertex
 10
127.2542480150614
 20
-124.7212415595315
 30
0.0
  0
VERTEX
  5
3EF
330
3EC
100
AcDbEntity
  8
Ebene 1
 62
   179
420
  1709851
370
    18
100
AcDbVertex
100
AcDb2dVertex
 10
127.6776502501987
 20
-125.4619370888602
 30
0.0
  0
SEQEND
  5
3F0
330
3EC
100
AcDbEntity
  8
Ebene 1
370
    18
  0
POLYLINE
  5
3F1
330
4A
100
AcDbEntity
  8
Ebene 1
 62
   179
420
  1709851
370
    18
100
AcDb2dPolyline
 66
     1
 10
0.0
 20
0.0
 30
0.0
  0
VERTEX
  5
3F2
330
3F1
100
AcDbEntity
  8
Ebene 1
 62
   179
420
  1709851
370
    18
100
AcDbVertex
100
AcDb2dVertex
 10
124.9467230590411
 20
-124.2130899754572
 30
0.0
  0
VERTEX
  5
3F3
330
3F1
100
AcDbEntity
  8
Ebene 1
 62
   179
420
  1709851
370
    18
100
AcDbVertex
100
AcDb2dVertex
 10
124.6504448473096
 20
-124.7212415595315
 30
0.0
  0
VERTEX
  5
3F4
330
3F1
100
AcDbEntity
  8
Ebene 1
 62
   179
420
  1709851
370
    18
100
AcDbVertex
100
AcDb2dVertex
 10
125.0738470824468
 20
-125.4619370888602
 30
0.0
  0
SEQEND
  5
3F5
330
3F1
100
AcDbEntity
  8
Ebene 1
370
    18
  0
POLYLINE
  5
3F6
330
4A
100
AcDbEntity
  8
Ebene 1
 62
   179
420
  1709851
370
    18
100
AcDb2dPolyline
 66
     1
 10
0.0
 20
0.0
 30
0.0
  0
VERTEX
  5
3F7
330
3F6
100
AcDbEntity
  8
Ebene 1
 62
   179
420
  1709851
370
    18
100
AcDbVertex
100
AcDb2dVertex
 10
122.3436089103863
 20
-124.2130899754572
 30
0.0
  0
VERTEX
  5
3F8
330
3F6
100
AcDbEntity
  8
Ebene 1
 62
   179
420
  1709851
370
    18
100
AcDbVertex
100
AcDb2dVertex
 10
122.0469861891063
 20
-124.7212415595315
 30
0.0
  0
VERTEX
  5
3F9
330
3F6
100
AcDbEntity
  8
Ebene 1
 62
   179
420
  1709851
370
    18
100
AcDbVertex
100
AcDb2dVertex
 10
122.4703884242435
 20
-125.4619370888602
 30
0.0
  0
SEQEND
  5
3FA
330
3F6
100
AcDbEntity
  8
Ebene 1
370
    18
  0
POLYLINE
  5
3FB
330
4A
100
AcDbEntity
  8
Ebene 1
 62
   179
420
  1709851
370
    18
100
AcDb2dPolyline
 66
     1
 10
0.0
 20
0.0
 30
0.0
  0
VERTEX
  5
3FC
330
3FB
100
AcDbEntity
  8
Ebene 1
 62
   179
420
  1709851
370
    18
100
AcDbVertex
100
AcDb2dVertex
 10
119.740150252183
 20
-124.2130899754572
 30
0.0
  0
VERTEX
  5
3FD
330
3FB
100
AcDbEntity
  8
Ebene 1
 62
   179
420
  1709851
370
    18
100
AcDbVertex
100
AcDb2dVertex
 10
119.443527530903
 20
-124.7212415595315
 30
0.0
  0
VERTEX
  5
3FE
330
3FB
100
AcDbEntity
  8
Ebene 1
 62
   179
420
  1709851
370
    18
100
AcDbVertex
100
AcDb2dVertex
 10
119.8879448485002
 20
-125.4619370888602
 30
0.0
  0
SEQEND
  5
3FF
330
3FB
100
AcDbEntity
  8
Ebene 1
370
    18
  0
POLYLINE
  5
400
330
4A
100
AcDbEntity
  8
Ebene 1
370
     0
100
AcDb2dPolyline
 66
     1
 10
0.0
 20
0.0
 30
0.0
  0
VERTEX
  5
401
330
400
100
AcDbEntity
  8
Ebene 1
370
     0
100
AcDbVertex
100
AcDb2dVertex
 10
58.20833331878125
 20
-233.1475259833798
 30
0.0
  0
VERTEX
  5
402
330
400
100
AcDbEntity
  8
Ebene 1
370
     0
100
AcDbVertex
100
AcDb2dVertex
 10
166.3171521936638
 20
-233.1475259833798
 30
0.0
  0
VERTEX
  5
403
330
400
100
AcDbEntity
  8
Ebene 1
370
     0
100
AcDbVertex
100
AcDb2dVertex
 10
166.3171521936638
 20
-67.46530488764756
 30
0.0
  0
VERTEX
  5
404
330
400
100
AcDbEntity
  8
Ebene 1
370
     0
100
AcDbVertex
100
AcDb2dVertex
 10
58.20833331878125
 20
-67.46530488764756
 30
0.0
  0
VERTEX
  5
405
330
400
100
AcDbEntity
  8
Ebene 1
370
     0
100
AcDbVertex
100
AcDb2dVertex
 10
58.20833331878125
 20
-233.1475259833798
 30
0.0
  0
SEQEND
  5
406
330
400
100
AcDbEntity
  8
Ebene 1
370
     0
  0
ENDBLK
  5
4D
330
4A
100
AcDbEntity
  8
0
100
AcDbBlockEnd
  0
BLOCK
  5
46B
330
469
100
AcDbEntity
  8
0
100
AcDbBlockBegin
  2
block 3
 70
     0
 71
     0
 10
0.0
 20
0.0
 30
0.0
  3
block 3
  1

  0
POLYLINE
  5
46D
330
469
100
AcDbEntity
  8
Ebene 1
 62
   179
420
  1709851
370
    18
100
AcDb2dPolyline
 66
     1
 10
0.0
 20
0.0
 30
0.0
  0
VERTEX
  5
46E
330
46D
100
AcDbEntity
  8
Ebene 1
 62
   179
420
  1709851
370
    18
100
AcDbVertex
100
AcDb2dVertex
 10
119.0204698053143
 20
-113.5239922133725
 30
0.0
  0
VERTEX
  5
46F
330
46D
100
AcDbEntity
  8
Ebene 1
 62
   179
420
  1709851
370
    18
100
AcDbVertex
100
AcDb2dVertex
 10
120.7561089107832
 20
-113.5239922133725
 30
0.0
  0
VERTEX
  5
470
330
46D
100
AcDbEntity
  8
Ebene 1
 62
   179
420
  1709851
370
    18
100
AcDbVertex
100
AcDb2dVertex
 10
120.7561089107832
 20
-112.9314357899095
 30
0.0
  0
SEQEND
  5
471
330
46D
100
AcDbEntity
  8
Ebene 1
370
    18
  0
POLYLINE
  5
472
330
469
100
AcDbEntity
  8
Ebene 1
 62
   179
420
  1709851
370
    18
100
AcDb2dPolyline
 66
     1
 10
0.0
 20
0.0
 30
0.0
  0
VERTEX
  5
473
330
472
100
AcDbEntity
  8
Ebene 1
 62
   179
420
  1709851
370
    18
100
AcDbVertex
100
AcDb2dVertex
 10
119.0204698053143
 20
-113.5239922133725
 30
0.0
  0
VERTEX
  5
474
330
472
100
AcDbEntity
  8
Ebene 1
 62
   179
420
  1709851
370
    18
100
AcDbVertex
100
AcDb2dVertex
 10
115.1254448496909
 20
-117.4186726594474
 30
0.0
  0
SEQEND
  5
475
330
472
100
AcDbEntity
  8
Ebene 1
370
    18
  0
POLYLINE
  5
476
330
469
100
AcDbEntity
  8
Ebene 1
 62
   179
420
  1709851
370
    18
100
AcDb2dPolyline
 66
     1
 10
0.0
 20
0.0
 30
0.0
  0
VERTEX
  5
477
330
476
100
AcDbEntity
  8
Ebene 1
 62
   179
420
  1709851
370
    18
100
AcDbVertex
100
AcDb2dVertex
 10
118.7662217585029
 20
-112.9314357899095
 30
0.0
  0
VERTEX
  5
478
330
476
100
AcDbEntity
  8
Ebene 1
 62
   179
420
  1709851
370
    18
100
AcDbVertex
100
AcDb2dVertex
 10
114.5328884262279
 20
-117.1647691221845
 30
0.0
  0
SEQEND
  5
479
330
476
100
AcDbEntity
  8
Ebene 1
370
    18
  0
POLYLINE
  5
47A
330
469
100
AcDbEntity
  8
Ebene 1
 62
   179
420
  1709851
370
    18
100
AcDb2dPolyline
 66
     1
 10
0.0
 20
0.0
 30
0.0
  0
VERTEX
  5
47B
330
47A
100
AcDbEntity
  8
Ebene 1
 62
   179
420
  1709851
370
    18
100
AcDbVertex
100
AcDb2dVertex
 10
118.7662217585029
 20
-112.9314357899095
 30
0.0
  0
VERTEX
  5
47C
330
47A
100
AcDbEntity
  8
Ebene 1
 62
   179
420
  1709851
370
    18
100
AcDbVertex
100
AcDb2dVertex
 10
120.7561089107832
 20
-112.9314357899095
 30
0.0
  0
SEQEND
  5
47D
330
47A
100
AcDbEntity
  8
Ebene 1
370
    18
  0
POLYLINE
  5
47E
330
469
100
AcDbEntity
  8
Ebene 1
 62
   179
420
  1709851
370
    18
100
AcDb2dPolyline
 66
     1
 10
0.0
 20
0.0
 30
0.0
  0
VERTEX
  5
47F
330
47E
100
AcDbEntity
  8
Ebene 1
 62
   179
420
  1709851
370
    18
100
AcDbVertex
100
AcDb2dVertex
 10
118.0255262291742
 20
-118.8580335531848
 30
0.0
  0
VERTEX
  5
480
330
47E
100
AcDbEntity
  8
Ebene 1
 62
   179
420
  1709851
370
    18
100
AcDbVertex
100
AcDb2dVertex
 10
118.0255262291742
 20
-116.4027140008472
 30
0.0
  0
SEQEND
  5
481
330
47E
100
AcDbEntity
  8
Ebene 1
370
    18
  0
POLYLINE
  5
482
330
469
100
AcDbEntity
  8
Ebene 1
 62
   179
420
  1709851
370
    18
100
AcDb2dPolyline
 66
     1
 10
0.0
 20
0.0
 30
0.0
  0
VERTEX
  5
483
330
482
100
AcDbEntity
  8
Ebene 1
 62
   179
420
  1709851
370
    18
100
AcDbVertex
100
AcDb2dVertex
 10
118.0255262291742
 20
-116.4027140008472
 30
0.0
  0
VERTEX
  5
484
330
482
100
AcDbEntity
  8
Ebene 1
 62
   179
420
  1709851
370
    18
100
AcDbVertex
100
AcDb2dVertex
 10
118.6180826526372
 20
-116.4027140008472
 30
0.0
  0
SEQEND
  5
485
330
482
100
AcDbEntity
  8
Ebene 1
370
    18
  0
POLYLINE
  5
486
330
469
100
AcDbEntity
  8
Ebene 1
 62
   179
420
  1709851
370
    18
100
AcDb2dPolyline
 66
     1
 10
0.0
 20
0.0
 30
0.0
  0
VERTEX
  5
487
330
486
100
AcDbEntity
  8
Ebene 1
 62
   179
420
  1709851
370
    18
100
AcDbVertex
100
AcDb2dVertex
 10
118.6180826526372
 20
-119.4082153021792
 30
0.0
  0
VERTEX
  5
488
330
486
100
AcDbEntity
  8
Ebene 1
 62
   179
420
  1709851
370
    18
100
AcDbVertex
100
AcDb2dVertex
 10
118.6180826526372
 20
-116.4027140008472
 30
0.0
  0
SEQEND
  5
489
330
486
100
AcDbEntity
  8
Ebene 1
370
    18
  0
POLYLINE
  5
48A
330
469
100
AcDbEntity
  8
Ebene 1
 62
   179
420
  1709851
370
    18
100
AcDb2dPolyline
 66
     1
 10
0.0
 20
0.0
 30
0.0
  0
VERTEX
  5
48B
330
48A
100
AcDbEntity
  8
Ebene 1
 62
   179
420
  1709851
370
    18
100
AcDbVertex
100
AcDb2dVertex
 10
98.21329885782515
 20
-127.748102452872
 30
0.0
  0
VERTEX
  5
48C
330
48A
100
AcDbEntity
  8
Ebene 1
 62
   179
420
  1709851
370
    18
100
AcDbVertex
100
AcDb2dVertex
 10
99.75859643773397
 20
-126.2029771277375
 30
0.0
  0
SEQEND
  5
48D
330
48A
100
AcDbEntity
  8
Ebene 1
370
    18
  0
POLYLINE
  5
48E
330
469
100
AcDbEntity
  8
Ebene 1
 62
   179
420
  1709851
370
    18
100
AcDb2dPolyline
 66
     1
 10
0.0
 20
0.0
 30
0.0
  0
VERTEX
  5
48F
330
48E
100
AcDbEntity
  8
Ebene 1
 62
   179
420
  1709851
370
    18
100
AcDbVertex
100
AcDb2dVertex
 10
98.21329885782515
 20
-141.9084784258944
 30
0.0
  0
VERTEX
  5
490
330
48E
100
AcDbEntity
  8
Ebene 1
 62
   179
420
  1709851
370
    18
100
AcDbVertex
100
AcDb2dVertex
 10
113.8979573282963
 20
-126.2029771277375
 30
0.0
  0
SEQEND
  5
491
330
48E
100
AcDbEntity
  8
Ebene 1
370
    18
  0
POLYLINE
  5
492
330
469
100
AcDbEntity
  8
Ebene 1
 62
   179
420
  1709851
370
    18
100
AcDb2dPolyline
 66
     1
 10
0.0
 20
0.0
 30
0.0
  0
VERTEX
  5
493
330
492
100
AcDbEntity
  8
Ebene 1
 62
   179
420
  1709851
370
    18
100
AcDbVertex
100
AcDb2dVertex
 10
98.21329885782515
 20
-156.0476670616825
 30
0.0
  0
VERTEX
  5
494
330
492
100
AcDbEntity
  8
Ebene 1
 62
   179
420
  1709851
370
    18
100
AcDbVertex
100
AcDb2dVertex
 10
128.0369737093102
 20
-126.2029771277375
 30
0.0
  0
SEQEND
  5
495
330
492
100
AcDbEntity
  8
Ebene 1
370
    18
  0
POLYLINE
  5
496
330
469
100
AcDbEntity
  8
Ebene 1
 62
   179
420
  1709851
370
    18
100
AcDb2dPolyline
 66
     1
 10
0.0
 20
0.0
 30
0.0
  0
VERTEX
  5
497
330
496
100
AcDbEntity
  8
Ebene 1
 62
   179
420
  1709851
370
    18
100
AcDbVertex
100
AcDb2dVertex
 10
98.21329885782515
 20
-170.1870279522449
 30
0.0
  0
VERTEX
  5
498
330
496
100
AcDbEntity
  8
Ebene 1
 62
   179
420
  1709851
370
    18
100
AcDbVertex
100
AcDb2dVertex
 10
142.1763345998726
 20
-126.2029771277375
 30
0.0
  0
SEQEND
  5
499
330
496
100
AcDbEntity
  8
Ebene 1
370
    18
  0
POLYLINE
  5
49A
330
469
100
AcDbEntity
  8
Ebene 1
 62
   179
420
  1709851
370
    18
100
AcDb2dPolyline
 66
     1
 10
0.0
 20
0.0
 30
0.0
  0
VERTEX
  5
49B
330
49A
100
AcDbEntity
  8
Ebene 1
 62
   179
420
  1709851
370
    18
100
AcDbVertex
100
AcDb2dVertex
 10
98.21329885782515
 20
-184.3263888428073
 30
0.0
  0
VERTEX
  5
49C
330
49A
100
AcDbEntity
  8
Ebene 1
 62
   179
420
  1709851
370
    18
100
AcDbVertex
100
AcDb2dVertex
 10
156.3370550824435
 20
-126.2029771277375
 30
0.0
  0
SEQEND
  5
49D
330
49A
100
AcDbEntity
  8
Ebene 1
370
    18
  0
POLYLINE
  5
49E
330
469
100
AcDbEntity
  8
Ebene 1
 62
   179
420
  1709851
370
    18
100
AcDb2dPolyline
 66
     1
 10
0.0
 20
0.0
 30
0.0
  0
VERTEX
  5
49F
330
49E
100
AcDbEntity
  8
Ebene 1
 62
   179
420
  1709851
370
    18
100
AcDbVertex
100
AcDb2dVertex
 10
98.21329885782515
 20
-198.4657497333697
 30
0.0
  0
VERTEX
  5
4A0
330
49E
100
AcDbEntity
  8
Ebene 1
 62
   179
420
  1709851
370
    18
100
AcDbVertex
100
AcDb2dVertex
 10
158.2208332937781
 20
-138.4582152974167
 30
0.0
  0
SEQEND
  5
4A1
330
49E
100
AcDbEntity
  8
Ebene 1
370
    18
  0
POLYLINE
  5
4A2
330
469
100
AcDbEntity
  8
Ebene 1
 62
   179
420
  1709851
370
    18
100
AcDb2dPolyline
 66
     1
 10
0.0
 20
0.0
 30
0.0
  0
VERTEX
  5
4A3
330
4A2
100
AcDbEntity
  8
Ebene 1
 62
   179
420
  1709851
370
    18
100
AcDbVertex
100
AcDb2dVertex
 10
98.21329885782515
 20
-212.6051106239321
 30
0.0
  0
VERTEX
  5
4A4
330
4A2
100
AcDbEntity
  8
Ebene 1
 62
   179
420
  1709851
370
    18
100
AcDbVertex
100
AcDb2dVertex
 10
158.2208332937781
 20
-152.6191080347619
 30
0.0
  0
SEQEND
  5
4A5
330
4A2
100
AcDbEntity
  8
Ebene 1
370
    18
  0
POLYLINE
  5
4A6
330
469
100
AcDbEntity
  8
Ebene 1
 62
   179
420
  1709851
370
    18
100
AcDb2dPolyline
 66
     1
 10
0.0
 20
0.0
 30
0.0
  0
VERTEX
  5
4A7
330
4A6
100
AcDbEntity
  8
Ebene 1
 62
   179
420
  1709851
370
    18
100
AcDbVertex
100
AcDb2dVertex
 10
98.21329885782515
 20
-226.7444715144944
 30
0.0
  0
VERTEX
  5
4A8
330
4A6
100
AcDbEntity
  8
Ebene 1
 62
   179
420
  1709851
370
    18
100
AcDbVertex
100
AcDb2dVertex
 10
158.2208332937781
 20
-166.7584689253243
 30
0.0
  0
SEQEND
  5
4A9
330
4A6
100
AcDbEntity
  8
Ebene 1
370
    18
  0
POLYLINE
  5
4AA
330
469
100
AcDbEntity
  8
Ebene 1
 62
   179
420
  1709851
370
    18
100
AcDb2dPolyline
 66
     1
 10
0.0
 20
0.0
 30
0.0
  0
VERTEX
  5
4AB
330
4AA
100
AcDbEntity
  8
Ebene 1
 62
   179
420
  1709851
370
    18
100
AcDbVertex
100
AcDb2dVertex
 10
106.2143608675436
 20
-232.9043022421212
 30
0.0
  0
VERTEX
  5
4AC
330
4AA
100
AcDbEntity
  8
Ebene 1
 62
   179
420
  1709851
370
    18
100
AcDbVertex
100
AcDb2dVertex
 10
158.2208332937781
 20
-180.8971407967896
 30
0.0
  0
SEQEND
  5
4AD
330
4AA
100
AcDbEntity
  8
Ebene 1
370
    18
  0
POLYLINE
  5
4AE
330
469
100
AcDbEntity
  8
Ebene 1
 62
   179
420
  1709851
370
    18
100
AcDb2dPolyline
 66
     1
 10
0.0
 20
0.0
 30
0.0
  0
VERTEX
  5
4AF
330
4AE
100
AcDbEntity
  8
Ebene 1
 62
   179
420
  1709851
370
    18
100
AcDbVertex
100
AcDb2dVertex
 10
120.353721758106
 20
-232.9043022421212
 30
0.0
  0
VERTEX
  5
4B0
330
4AE
100
AcDbEntity
  8
Ebene 1
 62
   179
420
  1709851
370
    18
100
AcDbVertex
100
AcDb2dVertex
 10
158.2208332937781
 20
-195.036501687352
 30
0.0
  0
SEQEND
  5
4B1
330
4AE
100
AcDbEntity
  8
Ebene 1
370
    18
  0
POLYLINE
  5
4B2
330
469
100
AcDbEntity
  8
Ebene 1
 62
   179
420
  1709851
370
    18
100
AcDb2dPolyline
 66
     1
 10
0.0
 20
0.0
 30
0.0
  0
VERTEX
  5
4B3
330
4B2
100
AcDbEntity
  8
Ebene 1
 62
   179
420
  1709851
370
    18
100
AcDbVertex
100
AcDb2dVertex
 10
134.4930826486684
 20
-232.9043022421212
 30
0.0
  0
VERTEX
  5
4B4
330
4B2
100
AcDbEntity
  8
Ebene 1
 62
   179
420
  1709851
370
    18
100
AcDbVertex
100
AcDb2dVertex
 10
158.2208332937781
 20
-209.1758625779144
 30
0.0
  0
SEQEND
  5
4B5
330
4B2
100
AcDbEntity
  8
Ebene 1
370
    18
  0
POLYLINE
  5
4B6
330
469
100
AcDbEntity
  8
Ebene 1
 62
   179
420
  1709851
370
    18
100
AcDb2dPolyline
 66
     1
 10
0.0
 20
0.0
 30
0.0
  0
VERTEX
  5
4B7
330
4B6
100
AcDbEntity
  8
Ebene 1
 62
   179
420
  1709851
370
    18
100
AcDbVertex
100
AcDb2dVertex
 10
148.6324435392308
 20
-232.9043022421212
 30
0.0
  0
VERTEX
  5
4B8
330
4B6
100
AcDbEntity
  8
Ebene 1
 62
   179
420
  1709851
370
    18
100
AcDbVertex
100
AcDb2dVertex
 10
158.2208332937781
 20
-223.3152234684768
 30
0.0
  0
SEQEND
  5
4B9
330
4B6
100
AcDbEntity
  8
Ebene 1
370
    18
  0
POLYLINE
  5
4BA
330
469
100
AcDbEntity
  8
Ebene 1
 62
   179
420
  1709851
370
    18
100
AcDb2dPolyline
 66
     1
 10
0.0
 20
0.0
 30
0.0
  0
VERTEX
  5
4BB
330
4BA
100
AcDbEntity
  8
Ebene 1
 62
   179
420
  1709851
370
    18
100
AcDbVertex
100
AcDb2dVertex
 10
98.21329885782515
 20
-134.8387979806132
 30
0.0
  0
VERTEX
  5
4BC
330
4BA
100
AcDbEntity
  8
Ebene 1
 62
   179
420
  1709851
370
    18
100
AcDbVertex
100
AcDb2dVertex
 10
106.8282768830152
 20
-126.2029771277375
 30
0.0
  0
SEQEND
  5
4BD
330
4BA
100
AcDbEntity
  8
Ebene 1
370
    18
  0
POLYLINE
  5
4BE
330
469
100
AcDbEntity
  8
Ebene 1
 62
   179
420
  1709851
370
    18
100
AcDb2dPolyline
 66
     1
 10
0.0
 20
0.0
 30
0.0
  0
VERTEX
  5
4BF
330
4BE
100
AcDbEntity
  8
Ebene 1
 62
   179
420
  1709851
370
    18
100
AcDbVertex
100
AcDb2dVertex
 10
98.21329885782515
 20
-148.9783311259499
 30
0.0
  0
VERTEX
  5
4C0
330
4BE
100
AcDbEntity
  8
Ebene 1
 62
   179
420
  1709851
370
    18
100
AcDbVertex
100
AcDb2dVertex
 10
120.9676377735775
 20
-126.2029771277375
 30
0.0
  0
SEQEND
  5
4C1
330
4BE
100
AcDbEntity
  8
Ebene 1
370
    18
  0
POLYLINE
  5
4C2
330
469
100
AcDbEntity
  8
Ebene 1
 62
   179
420
  1709851
370
    18
100
AcDb2dPolyline
 66
     1
 10
0.0
 20
0.0
 30
0.0
  0
VERTEX
  5
4C3
330
4C2
100
AcDbEntity
  8
Ebene 1
 62
   179
420
  1709851
370
    18
100
AcDbVertex
100
AcDb2dVertex
 10
98.21329885782515
 20
-163.1176920165123
 30
0.0
  0
VERTEX
  5
4C4
330
4C2
100
AcDbEntity
  8
Ebene 1
 62
   179
420
  1709851
370
    18
100
AcDbVertex
100
AcDb2dVertex
 10
135.1069986641399
 20
-126.2029771277375
 30
0.0
  0
SEQEND
  5
4C5
330
4C2
100
AcDbEntity
  8
Ebene 1
370
    18
  0
POLYLINE
  5
4C6
330
469
100
AcDbEntity
  8
Ebene 1
 62
   179
420
  1709851
370
    18
100
AcDb2dPolyline
 66
     1
 10
0.0
 20
0.0
 30
0.0
  0
VERTEX
  5
4C7
330
4C6
100
AcDbEntity
  8
Ebene 1
 62
   179
420
  1709851
370
    18
100
AcDbVertex
100
AcDb2dVertex
 10
98.21329885782515
 20
-177.2570529070746
 30
0.0
  0
VERTEX
  5
4C8
330
4C6
100
AcDbEntity
  8
Ebene 1
 62
   179
420
  1709851
370
    18
100
AcDbVertex
100
AcDb2dVertex
 10
149.2463595547023
 20
-126.2029771277375
 30
0.0
  0
SEQEND
  5
4C9
330
4C6
100
AcDbEntity
  8
Ebene 1
370
    18
  0
POLYLINE
  5
4CA
330
469
100
AcDbEntity
  8
Ebene 1
 62
   179
420
  1709851
370
    18
100
AcDb2dPolyline
 66
     1
 10
0.0
 20
0.0
 30
0.0
  0
VERTEX
  5
4CB
330
4CA
100
AcDbEntity
  8
Ebene 1
 62
   179
420
  1709851
370
    18
100
AcDbVertex
100
AcDb2dVertex
 10
98.21329885782515
 20
-191.396413797637
 30
0.0
  0
VERTEX
  5
4CC
330
4CA
100
AcDbEntity
  8
Ebene 1
 62
   179
420
  1709851
370
    18
100
AcDbVertex
100
AcDb2dVertex
 10
158.2208332937781
 20
-131.3885348521355
 30
0.0
  0
SEQEND
  5
4CD
330
4CA
100
AcDbEntity
  8
Ebene 1
370
    18
  0
POLYLINE
  5
4CE
330
469
100
AcDbEntity
  8
Ebene 1
 62
   179
420
  1709851
370
    18
100
AcDb2dPolyline
 66
     1
 10
0.0
 20
0.0
 30
0.0
  0
VERTEX
  5
4CF
330
4CE
100
AcDbEntity
  8
Ebene 1
 62
   179
420
  1709851
370
    18
100
AcDbVertex
100
AcDb2dVertex
 10
98.21329885782515
 20
-205.5357746881994
 30
0.0
  0
VERTEX
  5
4D0
330
4CE
100
AcDbEntity
  8
Ebene 1
 62
   179
420
  1709851
370
    18
100
AcDbVertex
100
AcDb2dVertex
 10
158.2208332937781
 20
-145.5278957426979
 30
0.0
  0
SEQEND
  5
4D1
330
4CE
100
AcDbEntity
  8
Ebene 1
370
    18
  0
POLYLINE
  5
4D2
330
469
100
AcDbEntity
  8
Ebene 1
 62
   179
420
  1709851
370
    18
100
AcDb2dPolyline
 66
     1
 10
0.0
 20
0.0
 30
0.0
  0
VERTEX
  5
4D3
330
4D2
100
AcDbEntity
  8
Ebene 1
 62
   179
420
  1709851
370
    18
100
AcDbVertex
100
AcDb2dVertex
 10
98.21329885782515
 20
-219.6751355787618
 30
0.0
  0
VERTEX
  5
4D4
330
4D2
100
AcDbEntity
  8
Ebene 1
 62
   179
420
  1709851
370
    18
100
AcDbVertex
100
AcDb2dVertex
 10
158.2208332937781
 20
-159.6884439704946
 30
0.0
  0
SEQEND
  5
4D5
330
4D2
100
AcDbEntity
  8
Ebene 1
370
    18
  0
POLYLINE
  5
4D6
330
469
100
AcDbEntity
  8
Ebene 1
 62
   179
420
  1709851
370
    18
100
AcDb2dPolyline
 66
     1
 10
0.0
 20
0.0
 30
0.0
  0
VERTEX
  5
4D7
330
4D6
100
AcDbEntity
  8
Ebene 1
 62
   179
420
  1709851
370
    18
100
AcDbVertex
100
AcDb2dVertex
 10
99.14468042226244
 20
-232.9043022421212
 30
0.0
  0
VERTEX
  5
4D8
330
4D6
100
AcDbEntity
  8
Ebene 1
 62
   179
420
  1709851
370
    18
100
AcDbVertex
100
AcDb2dVertex
 10
158.2208332937781
 20
-173.8278048610569
 30
0.0
  0
SEQEND
  5
4D9
330
4D6
100
AcDbEntity
  8
Ebene 1
370
    18
  0
POLYLINE
  5
4DA
330
469
100
AcDbEntity
  8
Ebene 1
 62
   179
420
  1709851
370
    18
100
AcDb2dPolyline
 66
     1
 10
0.0
 20
0.0
 30
0.0
  0
VERTEX
  5
4DB
330
4DA
100
AcDbEntity
  8
Ebene 1
 62
   179
420
  1709851
370
    18
100
AcDbVertex
100
AcDb2dVertex
 10
113.2840413128248
 20
-232.9043022421212
 30
0.0
  0
VERTEX
  5
4DC
330
4DA
100
AcDbEntity
  8
Ebene 1
 62
   179
420
  1709851
370
    18
100
AcDbVertex
100
AcDb2dVertex
 10
158.2208332937781
 20
-187.9671657516193
 30
0.0
  0
SEQEND
  5
4DD
330
4DA
100
AcDbEntity
  8
Ebene 1
370
    18
  0
POLYLINE
  5
4DE
330
469
100
AcDbEntity
  8
Ebene 1
 62
   179
420
  1709851
370
    18
100
AcDb2dPolyline
 66
     1
 10
0.0
 20
0.0
 30
0.0
  0
VERTEX
  5
4DF
330
4DE
100
AcDbEntity
  8
Ebene 1
 62
   179
420
  1709851
370
    18
100
AcDbVertex
100
AcDb2dVertex
 10
127.4234022033872
 20
-232.9043022421212
 30
0.0
  0
VERTEX
  5
4E0
330
4DE
100
AcDbEntity
  8
Ebene 1
 62
   179
420
  1709851
370
    18
100
AcDbVertex
100
AcDb2dVertex
 10
158.2208332937781
 20
-202.1065266421817
 30
0.0
  0
SEQEND
  5
4E1
330
4DE
100
AcDbEntity
  8
Ebene 1
370
    18
  0
POLYLINE
  5
4E2
330
469
100
AcDbEntity
  8
Ebene 1
 62
   179
420
  1709851
370
    18
100
AcDb2dPolyline
 66
     1
 10
0.0
 20
0.0
 30
0.0
  0
VERTEX
  5
4E3
330
4E2
100
AcDbEntity
  8
Ebene 1
 62
   179
420
  1709851
370
    18
100
AcDbVertex
100
AcDb2dVertex
 10
141.5627630939496
 20
-232.9043022421212
 30
0.0
  0
VERTEX
  5
4E4
330
4E2
100
AcDbEntity
  8
Ebene 1
 62
   179
420
  1709851
370
    18
100
AcDbVertex
100
AcDb2dVertex
 10
158.2208332937781
 20
-216.245198513647
 30
0.0
  0
SEQEND
  5
4E5
330
4E2
100
AcDbEntity
  8
Ebene 1
370
    18
  0
POLYLINE
  5
4E6
330
469
100
AcDbEntity
  8
Ebene 1
 62
   179
420
  1709851
370
    18
100
AcDb2dPolyline
 66
     1
 10
0.0
 20
0.0
 30
0.0
  0
VERTEX
  5
4E7
330
4E6
100
AcDbEntity
  8
Ebene 1
 62
   179
420
  1709851
370
    18
100
AcDbVertex
100
AcDb2dVertex
 10
155.702123984512
 20
-232.9043022421212
 30
0.0
  0
VERTEX
  5
4E8
330
4E6
100
AcDbEntity
  8
Ebene 1
 62
   179
420
  1709851
370
    18
100
AcDbVertex
100
AcDb2dVertex
 10
158.2208332937781
 20
-230.3845594042094
 30
0.0
  0
SEQEND
  5
4E9
330
4E6
100
AcDbEntity
  8
Ebene 1
370
    18
  0
POLYLINE
  5
4EA
330
469
100
AcDbEntity
  8
Ebene 1
370
     0
100
AcDb2dPolyline
 66
     1
 10
0.0
 20
0.0
 30
0.0
  0
VERTEX
  5
4EB
330
4EA
100
AcDbEntity
  8
Ebene 1
370
     0
100
AcDbVertex
100
AcDb2dVertex
 10
58.20833331878125
 20
-233.1475259833798
 30
0.0
  0
VERTEX
  5
4EC
330
4EA
100
AcDbEntity
  8
Ebene 1
370
     0
100
AcDbVertex
100
AcDb2dVertex
 10
166.3171521936638
 20
-233.1475259833798
 30
0.0
  0
VERTEX
  5
4ED
330
4EA
100
AcDbEntity
  8
Ebene 1
370
     0
100
AcDbVertex
100
AcDb2dVertex
 10
166.3171521936638
 20
-67.46530488764756
 30
0.0
  0
VERTEX
  5
4EE
330
4EA
100
AcDbEntity
  8
Ebene 1
370
     0
100
AcDbVertex
100
AcDb2dVertex
 10
58.20833331878125
 20
-67.46530488764756
 30
0.0
  0
VERTEX
  5
4EF
330
4EA
100
AcDbEntity
  8
Ebene 1
370
     0
100
AcDbVertex
100
AcDb2dVertex
 10
58.20833331878125
 20
-233.1475259833798
 30
0.0
  0
SEQEND
  5
4F0
330
4EA
100
AcDbEntity
  8
Ebene 1
370
     0
  0
ENDBLK
  5
46C
330
469
100
AcDbEntity
  8
0
100
AcDbBlockEnd
  0
BLOCK
  5
51B
330
519
100
AcDbEntity
  8
0
100
AcDbBlockBegin
  2
block 4
 70
     0
 71
     0
 10
0.0
 20
0.0
 30
0.0
  3
block 4
  1

  0
POLYLINE
  5
51D
330
519
100
AcDbEntity
  8
Ebene 1
 62
   179
420
  1709851
370
    25
100
AcDb2dPolyline
 66
     1
 10
0.0
 20
0.0
 30
0.0
  0
VERTEX
  5
51E
330
51D
100
AcDbEntity
  8
Ebene 1
 62
   179
420
  1709851
370
    25
100
AcDbVertex
100
AcDb2dVertex
 10
131.0218044377307
 20
-120.212645097985
 30
0.0
  0
VERTEX
  5
51F
330
51D
100
AcDbEntity
  8
Ebene 1
 62
   179
420
  1709851
370
    25
100
AcDbVertex
100
AcDb2dVertex
 10
166.2003634567138
 20
-120.212645097985
 30
0.0
  0
SEQEND
  5
520
330
51D
100
AcDbEntity
  8
Ebene 1
370
    25
  0
POLYLINE
  5
521
330
519
100
AcDbEntity
  8
Ebene 1
 62
   179
420
  1709851
370
    25
100
AcDb2dPolyline
 66
     1
 10
0.0
 20
0.0
 30
0.0
  0
VERTEX
  5
522
330
521
100
AcDbEntity
  8
Ebene 1
 62
   179
420
  1709851
370
    25
100
AcDbVertex
100
AcDb2dVertex
 10
131.0218044377307
 20
-107.4702704266915
 30
0.0
  0
VERTEX
  5
523
330
521
100
AcDbEntity
  8
Ebene 1
 62
   179
420
  1709851
370
    25
100
AcDbVertex
100
AcDb2dVertex
 10
131.0218044377307
 20
-126.2026326181889
 30
0.0
  0
SEQEND
  5
524
330
521
100
AcDbEntity
  8
Ebene 1
370
    25
  0
POLYLINE
  5
525
330
519
100
AcDbEntity
  8
Ebene 1
 62
   179
420
  1709851
370
    25
100
AcDb2dPolyline
 66
     1
 10
0.0
 20
0.0
 30
0.0
  0
VERTEX
  5
526
330
525
100
AcDbEntity
  8
Ebene 1
 62
   179
420
  1709851
370
    25
100
AcDbVertex
100
AcDb2dVertex
 10
119.0204698053143
 20
-107.4702704266915
 30
0.0
  0
VERTEX
  5
527
330
525
100
AcDbEntity
  8
Ebene 1
 62
   179
420
  1709851
370
    25
100
AcDbVertex
100
AcDb2dVertex
 10
119.0204698053143
 20
-112.9314357899095
 30
0.0
  0
SEQEND
  5
528
330
525
100
AcDbEntity
  8
Ebene 1
370
    25
  0
POLYLINE
  5
529
330
519
100
AcDbEntity
  8
Ebene 1
370
     0
100
AcDb2dPolyline
 66
     1
 10
0.0
 20
0.0
 30
0.0
  0
VERTEX
  5
52A
330
529
100
AcDbEntity
  8
Ebene 1
370
     0
100
AcDbVertex
100
AcDb2dVertex
 10
58.20833331878125
 20
-233.1475259833798
 30
0.0
  0
VERTEX
  5
52B
330
529
100
AcDbEntity
  8
Ebene 1
370
     0
100
AcDbVertex
100
AcDb2dVertex
 10
166.3171521936638
 20
-233.1475259833798
 30
0.0
  0
VERTEX
  5
52C
330
529
100
AcDbEntity
  8
Ebene 1
370
     0
100
AcDbVertex
100
AcDb2dVertex
 10
166.3171521936638
 20
-67.46530488764756
 30
0.0
  0
VERTEX
  5
52D
330
529
100
AcDbEntity
  8
Ebene 1
370
     0
100
AcDbVertex
100
AcDb2dVertex
 10
58.20833331878125
 20
-67.46530488764756
 30
0.0
  0
VERTEX
  5
52E
330
529
100
AcDbEntity
  8
Ebene 1
370
     0
100
AcDbVertex
100
AcDb2dVertex
 10
58.20833331878125
 20
-233.1475259833798
 30
0.0
  0
SEQEND
  5
52F
330
529
100
AcDbEntity
  8
Ebene 1
370
     0
  0
ENDBLK
  5
51C
330
519
100
AcDbEntity
  8
0
100
AcDbBlockEnd
  0
BLOCK
  5
536
330
534
100
AcDbEntity
  8
0
100
AcDbBlockBegin
  2
block 5
 70
     0
 71
     0
 10
0.0
 20
0.0
 30
0.0
  3
block 5
  1

  0
POLYLINE
  5
538
330
534
100
AcDbEntity
  8
Ebene 1
 62
   179
420
  1709851
370
    25
100
AcDb2dPolyline
 66
     1
 10
0.0
 20
0.0
 30
0.0
  0
VERTEX
  5
539
330
538
100
AcDbEntity
  8
Ebene 1
 62
   179
420
  1709851
370
    25
100
AcDbVertex
100
AcDb2dVertex
 10
119.0204698053143
 20
-124.2130899754572
 30
0.0
  0
VERTEX
  5
53A
330
538
100
AcDbEntity
  8
Ebene 1
 62
   179
420
  1709851
370
    25
100
AcDbVertex
100
AcDb2dVertex
 10
166.2007079662623
 20
-124.2130899754572
 30
0.0
  0
VERTEX
  5
53B
330
538
100
AcDbEntity
  8
Ebene 1
 62
   179
420
  1709851
370
    25
100
AcDbVertex
100
AcDb2dVertex
 10
166.2007079662623
 20
-120.212645097985
 30
0.0
  0
SEQEND
  5
53C
330
538
100
AcDbEntity
  8
Ebene 1
370
    25
  0
POLYLINE
  5
53D
330
534
100
AcDbEntity
  8
Ebene 1
 62
   179
420
  1709851
370
    25
100
AcDb2dPolyline
 66
     1
 10
0.0
 20
0.0
 30
0.0
  0
VERTEX
  5
53E
330
53D
100
AcDbEntity
  8
Ebene 1
 62
   179
420
  1709851
370
    25
100
AcDbVertex
100
AcDb2dVertex
 10
166.2007079662623
 20
-124.2130899754572
 30
0.0
  0
VERTEX
  5
53F
330
53D
100
AcDbEntity
  8
Ebene 1
 62
   179
420
  1709851
370
    25
100
AcDbVertex
100
AcDb2dVertex
 10
166.2007079662623
 20
-123.218146399317
 30
0.0
  0
SEQEND
  5
540
330
53D
100
AcDbEntity
  8
Ebene 1
370
    25
  0
POLYLINE
  5
541
330
534
100
AcDbEntity
  8
Ebene 1
 62
   179
420
  1709851
370
    18
100
AcDb2dPolyline
 66
     1
 10
0.0
 20
0.0
 30
0.0
  0
VERTEX
  5
542
330
541
100
AcDbEntity
  8
Ebene 1
 62
   179
420
  1709851
370
    18
100
AcDbVertex
100
AcDb2dVertex
 10
87.3128444877204
 20
-122.1387979837882
 30
0.0
  0
VERTEX
  5
543
330
541
100
AcDbEntity
  8
Ebene 1
 62
   179
420
  1709851
370
    18
100
AcDbVertex
100
AcDb2dVertex
 10
86.23297930786885
 20
-126.2026326181889
 30
0.0
  0
VERTEX
  5
544
330
541
100
AcDbEntity
  8
Ebene 1
 62
   179
420
  1709851
370
    18
100
AcDbVertex
100
AcDb2dVertex
 10
85.21719290404293
 20
-122.3293117641225
 30
0.0
  0
SEQEND
  5
545
330
541
100
AcDbEntity
  8
Ebene 1
370
    18
  0
POLYLINE
  5
546
330
534
100
AcDbEntity
  8
Ebene 1
 62
   179
420
  1709851
370
    18
100
AcDb2dPolyline
 66
     1
 10
0.0
 20
0.0
 30
0.0
  0
VERTEX
  5
547
330
546
100
AcDbEntity
  8
Ebene 1
 62
   179
420
  1709851
370
    18
100
AcDbVertex
100
AcDb2dVertex
 10
85.21719290404293
 20
-122.3293117641225
 30
0.0
  0
VERTEX
  5
548
330
546
100
AcDbEntity
  8
Ebene 1
 62
   179
420
  1709851
370
    18
100
AcDbVertex
100
AcDb2dVertex
 10
84.18004690820847
 20
-126.2026326181889
 30
0.0
  0
VERTEX
  5
549
330
546
100
AcDbEntity
  8
Ebene 1
 62
   179
420
  1709851
370
    18
100
AcDbVertex
100
AcDb2dVertex
 10
83.18493107729405
 20
-122.5198255444569
 30
0.0
  0
SEQEND
  5
54A
330
546
100
AcDbEntity
  8
Ebene 1
370
    18
  0
POLYLINE
  5
54B
330
534
100
AcDbEntity
  8
Ebene 1
 62
   179
420
  1709851
370
    18
100
AcDb2dPolyline
 66
     1
 10
0.0
 20
0.0
 30
0.0
  0
VERTEX
  5
54C
330
54B
100
AcDbEntity
  8
Ebene 1
 62
   179
420
  1709851
370
    18
100
AcDbVertex
100
AcDb2dVertex
 10
98.21329885782515
 20
-126.2026326181889
 30
0.0
  0
VERTEX
  5
54D
330
54B
100
AcDbEntity
  8
Ebene 1
 62
   179
420
  1709851
370
    18
100
AcDbVertex
100
AcDb2dVertex
 10
96.90123424226775
 20
-121.3133531055224
 30
0.0
  0
VERTEX
  5
54E
330
54B
100
AcDbEntity
  8
Ebene 1
 62
   179
420
  1709851
370
    18
100
AcDbVertex
100
AcDb2dVertex
 10
95.58865286238756
 20
-126.2026326181889
 30
0.0
  0
VERTEX
  5
54F
330
54B
100
AcDbEntity
  8
Ebene 1
 62
   179
420
  1709851
370
    18
100
AcDbVertex
100
AcDb2dVertex
 10
94.3398057489845
 20
-121.5248819683167
 30
0.0
  0
VERTEX
  5
550
330
54B
100
AcDbEntity
  8
Ebene 1
 62
   179
420
  1709851
370
    18
100
AcDbVertex
100
AcDb2dVertex
 10
93.09095863558143
 20
-126.2026326181889
 30
0.0
  0
VERTEX
  5
551
330
54B
100
AcDbEntity
  8
Ebene 1
 62
   179
420
  1709851
370
    18
100
AcDbVertex
100
AcDb2dVertex
 10
91.88448619664693
 20
-121.736410831111
 30
0.0
  0
VERTEX
  5
552
330
54B
100
AcDbEntity
  8
Ebene 1
 62
   179
420
  1709851
370
    18
100
AcDbVertex
100
AcDb2dVertex
 10
90.699373349721
 20
-126.2026326181889
 30
0.0
  0
VERTEX
  5
553
330
54B
100
AcDbEntity
  8
Ebene 1
 62
   179
420
  1709851
370
    18
100
AcDbVertex
100
AcDb2dVertex
 10
89.55611841294083
 20
-121.9482842034539
 30
0.0
  0
VERTEX
  5
554
330
54B
100
AcDbEntity
  8
Ebene 1
 62
   179
420
  1709851
370
    18
100
AcDbVertex
100
AcDb2dVertex
 10
88.41338024048346
 20
-126.2026326181889
 30
0.0
  0
VERTEX
  5
555
330
54B
100
AcDbEntity
  8
Ebene 1
 62
   179
420
  1709851
370
    18
100
AcDbVertex
100
AcDb2dVertex
 10
87.3128444877204
 20
-122.1387979837882
 30
0.0
  0
SEQEND
  5
556
330
54B
100
AcDbEntity
  8
Ebene 1
370
    18
  0
POLYLINE
  5
557
330
534
100
AcDbEntity
  8
Ebene 1
 62
   179
420
  1709851
370
    18
100
AcDb2dPolyline
 66
     1
 10
0.0
 20
0.0
 30
0.0
  0
VERTEX
  5
558
330
557
100
AcDbEntity
  8
Ebene 1
 62
   179
420
  1709851
370
    18
100
AcDbVertex
100
AcDb2dVertex
 10
83.22730575176263
 20
-126.2026326181889
 30
0.0
  0
VERTEX
  5
559
330
557
100
AcDbEntity
  8
Ebene 1
 62
   179
420
  1709851
370
    18
100
AcDbVertex
100
AcDb2dVertex
 10
83.22730575176263
 20
-122.4984659524483
 30
0.0
  0
SEQEND
  5
55A
330
557
100
AcDbEntity
  8
Ebene 1
370
    18
  0
POLYLINE
  5
55B
330
534
100
AcDbEntity
  8
Ebene 1
 62
   179
420
  1709851
370
    18
100
AcDb2dPolyline
 66
     1
 10
0.0
 20
0.0
 30
0.0
  0
VERTEX
  5
55C
330
55B
100
AcDbEntity
  8
Ebene 1
 62
   179
420
  1709851
370
    18
100
AcDbVertex
100
AcDb2dVertex
 10
86.82588024088034
 20
-126.2026326181889
 30
0.0
  0
VERTEX
  5
55D
330
55B
100
AcDbEntity
  8
Ebene 1
 62
   179
420
  1709851
370
    18
100
AcDbVertex
100
AcDb2dVertex
 10
98.21329885782515
 20
-126.2026326181889
 30
0.0
  0
SEQEND
  5
55E
330
55B
100
AcDbEntity
  8
Ebene 1
370
    18
  0
POLYLINE
  5
55F
330
534
100
AcDbEntity
  8
Ebene 1
 62
   179
420
  1709851
370
    18
100
AcDb2dPolyline
 66
     1
 10
0.0
 20
0.0
 30
0.0
  0
VERTEX
  5
560
330
55F
100
AcDbEntity
  8
Ebene 1
 62
   179
420
  1709851
370
    18
100
AcDbVertex
100
AcDb2dVertex
 10
119.0204698053143
 20
-119.3658406277106
 30
0.0
  0
VERTEX
  5
561
330
55F
100
AcDbEntity
  8
Ebene 1
 62
   179
420
  1709851
370
    18
100
AcDbVertex
100
AcDb2dVertex
 10
76.55984020438434
 20
-123.0913668854598
 30
0.0
  0
SEQEND
  5
562
330
55F
100
AcDbEntity
  8
Ebene 1
370
    18
  0
POLYLINE
  5
563
330
534
100
AcDbEntity
  8
Ebene 1
 62
   179
420
  1709851
370
    18
100
AcDb2dPolyline
 66
     1
 10
0.0
 20
0.0
 30
0.0
  0
VERTEX
  5
564
330
563
100
AcDbEntity
  8
Ebene 1
 62
   179
420
  1709851
370
    18
100
AcDbVertex
100
AcDb2dVertex
 10
78.67650687052185
 20
-67.54988198181044
 30
0.0
  0
VERTEX
  5
565
330
563
100
AcDbEntity
  8
Ebene 1
 62
   179
420
  1709851
370
    18
100
AcDbVertex
100
AcDb2dVertex
 10
78.67650687052185
 20
-122.307952172114
 30
0.0
  0
SEQEND
  5
566
330
563
100
AcDbEntity
  8
Ebene 1
370
    18
  0
POLYLINE
  5
567
330
534
100
AcDbEntity
  8
Ebene 1
 62
   179
420
  1709851
370
    18
100
AcDb2dPolyline
 66
     1
 10
0.0
 20
0.0
 30
0.0
  0
VERTEX
  5
568
330
567
100
AcDbEntity
  8
Ebene 1
 62
   179
420
  1709851
370
    18
100
AcDbVertex
100
AcDb2dVertex
 10
79.22703312906478
 20
-131.6004082244784
 30
0.0
  0
VERTEX
  5
569
330
567
100
AcDbEntity
  8
Ebene 1
 62
   179
420
  1709851
370
    18
100
AcDbVertex
100
AcDb2dVertex
 10
78.8034586391533
 20
-131.1770059893412
 30
0.0
  0
SEQEND
  5
56A
330
567
100
AcDbEntity
  8
Ebene 1
370
    18
  0
POLYLINE
  5
56B
330
534
100
AcDbEntity
  8
Ebene 1
 62
   179
420
  1709851
370
    18
100
AcDb2dPolyline
 66
     1
 10
0.0
 20
0.0
 30
0.0
  0
VERTEX
  5
56C
330
56B
100
AcDbEntity
  8
Ebene 1
 62
   179
420
  1709851
370
    18
100
AcDbVertex
100
AcDb2dVertex
 10
76.55984020438434
 20
-123.0913668854598
 30
0.0
  0
VERTEX
  5
56D
330
56B
100
AcDbEntity
  8
Ebene 1
 62
   179
420
  1709851
370
    18
100
AcDbVertex
100
AcDb2dVertex
 10
76.55984020438434
 20
-133.3994370868758
 30
0.0
  0
SEQEND
  5
56E
330
56B
100
AcDbEntity
  8
Ebene 1
370
    18
  0
POLYLINE
  5
56F
330
534
100
AcDbEntity
  8
Ebene 1
 62
   179
420
  1709851
370
    18
100
AcDb2dPolyline
 66
     1
 10
0.0
 20
0.0
 30
0.0
  0
VERTEX
  5
570
330
56F
100
AcDbEntity
  8
Ebene 1
 62
   179
420
  1709851
370
    18
100
AcDbVertex
100
AcDb2dVertex
 10
76.55984020438434
 20
-133.3994370868758
 30
0.0
  0
VERTEX
  5
571
330
56F
100
AcDbEntity
  8
Ebene 1
 62
   179
420
  1709851
370
    18
100
AcDbVertex
100
AcDb2dVertex
 10
78.8034586391533
 20
-131.1770059893412
 30
0.0
  0
SEQEND
  5
572
330
56F
100
AcDbEntity
  8
Ebene 1
370
    18
  0
POLYLINE
  5
573
330
534
100
AcDbEntity
  8
Ebene 1
 62
   179
420
  1709851
370
    18
100
AcDb2dPolyline
 66
     1
 10
0.0
 20
0.0
 30
0.0
  0
VERTEX
  5
574
330
573
100
AcDbEntity
  8
Ebene 1
 62
   179
420
  1709851
370
    18
100
AcDbVertex
100
AcDb2dVertex
 10
118.0251817196256
 20
-118.8580335531848
 30
0.0
  0
VERTEX
  5
575
330
573
100
AcDbEntity
  8
Ebene 1
 62
   179
420
  1709851
370
    18
100
AcDbVertex
100
AcDb2dVertex
 10
75.96711152614712
 20
-122.5408406269169
 30
0.0
  0
VERTEX
  5
576
330
573
100
AcDbEntity
  8
Ebene 1
 62
   179
420
  1709851
370
    18
100
AcDbVertex
100
AcDb2dVertex
 10
75.96711152614712
 20
-134.8598130630733
 30
0.0
  0
VERTEX
  5
577
330
573
100
AcDbEntity
  8
Ebene 1
 62
   179
420
  1709851
370
    18
100
AcDbVertex
100
AcDb2dVertex
 10
79.22703312906478
 20
-131.6004082244784
 30
0.0
  0
SEQEND
  5
578
330
573
100
AcDbEntity
  8
Ebene 1
370
    18
  0
POLYLINE
  5
579
330
534
100
AcDbEntity
  8
Ebene 1
 62
   179
420
  1709851
370
    18
100
AcDb2dPolyline
 66
     1
 10
0.0
 20
0.0
 30
0.0
  0
VERTEX
  5
57A
330
579
100
AcDbEntity
  8
Ebene 1
 62
   179
420
  1709851
370
    18
100
AcDbVertex
100
AcDb2dVertex
 10
127.2118733405929
 20
-96.46353486086676
 30
0.0
  0
VERTEX
  5
57B
330
579
100
AcDbEntity
  8
Ebene 1
 62
   179
420
  1709851
370
    18
100
AcDbVertex
100
AcDb2dVertex
 10
127.2118733405929
 20
-68.46007620901345
 30
0.0
  0
SEQEND
  5
57C
330
579
100
AcDbEntity
  8
Ebene 1
370
    18
  0
POLYLINE
  5
57D
330
534
100
AcDbEntity
  8
Ebene 1
 62
   179
420
  1709851
370
    18
100
AcDb2dPolyline
 66
     1
 10
0.0
 20
0.0
 30
0.0
  0
VERTEX
  5
57E
330
57D
100
AcDbEntity
  8
Ebene 1
 62
   179
420
  1709851
370
    18
100
AcDbVertex
100
AcDb2dVertex
 10
128.820388422656
 20
-96.46353486086676
 30
0.0
  0
VERTEX
  5
57F
330
57D
100
AcDbEntity
  8
Ebene 1
 62
   179
420
  1709851
370
    18
100
AcDbVertex
100
AcDb2dVertex
 10
128.820388422656
 20
-68.46007620901345
 30
0.0
  0
SEQEND
  5
580
330
57D
100
AcDbEntity
  8
Ebene 1
370
    18
  0
POLYLINE
  5
581
330
534
100
AcDbEntity
  8
Ebene 1
 62
   179
420
  1709851
370
    18
100
AcDb2dPolyline
 66
     1
 10
0.0
 20
0.0
 30
0.0
  0
VERTEX
  5
582
330
581
100
AcDbEntity
  8
Ebene 1
 62
   179
420
  1709851
370
    18
100
AcDbVertex
100
AcDb2dVertex
 10
118.9780951308458
 20
-119.3658406277106
 30
0.0
  0
VERTEX
  5
583
330
581
100
AcDbEntity
  8
Ebene 1
 62
   179
420
  1709851
370
    18
100
AcDbVertex
100
AcDb2dVertex
 10
117.8136528568313
 20
-126.2026326181889
 30
0.0
  0
SEQEND
  5
584
330
581
100
AcDbEntity
  8
Ebene 1
370
    18
  0
POLYLINE
  5
585
330
534
100
AcDbEntity
  8
Ebene 1
 62
   179
420
  1709851
370
    18
100
AcDb2dPolyline
 66
     1
 10
0.0
 20
0.0
 30
0.0
  0
VERTEX
  5
586
330
585
100
AcDbEntity
  8
Ebene 1
 62
   179
420
  1709851
370
    18
100
AcDbVertex
100
AcDb2dVertex
 10
117.8139973663798
 20
-126.2026326181889
 30
0.0
  0
VERTEX
  5
587
330
585
100
AcDbEntity
  8
Ebene 1
 62
   179
420
  1709851
370
    18
100
AcDbVertex
100
AcDb2dVertex
 10
116.4166666375625
 20
-119.5987290825135
 30
0.0
  0
VERTEX
  5
588
330
585
100
AcDbEntity
  8
Ebene 1
 62
   179
420
  1709851
370
    18
100
AcDbVertex
100
AcDb2dVertex
 10
115.0193359087452
 20
-126.2026326181889
 30
0.0
  0
VERTEX
  5
589
330
585
100
AcDbEntity
  8
Ebene 1
 62
   179
420
  1709851
370
    18
100
AcDbVertex
100
AcDb2dVertex
 10
113.6226941990249
 20
-119.8526326197764
 30
0.0
  0
VERTEX
  5
58A
330
585
100
AcDbEntity
  8
Ebene 1
 62
   179
420
  1709851
370
    18
100
AcDbVertex
100
AcDb2dVertex
 10
112.2253634702076
 20
-126.2026326181889
 30
0.0
  0
VERTEX
  5
58B
330
585
100
AcDbEntity
  8
Ebene 1
 62
   179
420
  1709851
370
    18
100
AcDbVertex
100
AcDb2dVertex
 10
110.8077066780272
 20
-120.0855210745793
 30
0.0
  0
VERTEX
  5
58C
330
585
100
AcDbEntity
  8
Ebene 1
 62
   179
420
  1709851
370
    18
100
AcDbVertex
100
AcDb2dVertex
 10
109.4107204587584
 20
-126.2026326181889
 30
0.0
  0
VERTEX
  5
58D
330
585
100
AcDbEntity
  8
Ebene 1
 62
   179
420
  1709851
370
    18
100
AcDbVertex
100
AcDb2dVertex
 10
108.0137342394896
 20
-120.3394246118422
 30
0.0
  0
VERTEX
  5
58E
330
585
100
AcDbEntity
  8
Ebene 1
 62
   179
420
  1709851
370
    18
100
AcDbVertex
100
AcDb2dVertex
 10
106.6167480202208
 20
-126.2026326181889
 30
0.0
  0
VERTEX
  5
58F
330
585
100
AcDbEntity
  8
Ebene 1
 62
   179
420
  1709851
370
    18
100
AcDbVertex
100
AcDb2dVertex
 10
105.219761800952
 20
-120.5723130666451
 30
0.0
  0
VERTEX
  5
590
330
585
100
AcDbEntity
  8
Ebene 1
 62
   179
420
  1709851
370
    18
100
AcDbVertex
100
AcDb2dVertex
 10
103.8227755816832
 20
-126.2026326181889
 30
0.0
  0
VERTEX
  5
591
330
585
100
AcDbEntity
  8
Ebene 1
 62
   179
420
  1709851
370
    18
100
AcDbVertex
100
AcDb2dVertex
 10
102.4254448528659
 20
-120.8265611134566
 30
0.0
  0
VERTEX
  5
592
330
585
100
AcDbEntity
  8
Ebene 1
 62
   179
420
  1709851
370
    18
100
AcDbVertex
100
AcDb2dVertex
 10
101.0072712963628
 20
-126.2026326181889
 30
0.0
  0
VERTEX
  5
593
330
585
100
AcDbEntity
  8
Ebene 1
 62
   179
420
  1709851
370
    18
100
AcDbVertex
100
AcDb2dVertex
 10
99.61028507709396
 20
-121.0804646507195
 30
0.0
  0
VERTEX
  5
594
330
585
100
AcDbEntity
  8
Ebene 1
 62
   179
420
  1709851
370
    18
100
AcDbVertex
100
AcDb2dVertex
 10
98.21329885782515
 20
-126.2026326181889
 30
0.0
  0
SEQEND
  5
595
330
585
100
AcDbEntity
  8
Ebene 1
370
    18
  0
POLYLINE
  5
596
330
534
100
AcDbEntity
  8
Ebene 1
 62
   179
420
  1709851
370
    18
100
AcDb2dPolyline
 66
     1
 10
0.0
 20
0.0
 30
0.0
  0
VERTEX
  5
597
330
596
100
AcDbEntity
  8
Ebene 1
 62
   179
420
  1709851
370
    18
100
AcDbVertex
100
AcDb2dVertex
 10
161.7561902807415
 20
-68.46007620901345
 30
0.0
  0
VERTEX
  5
598
330
596
100
AcDbEntity
  8
Ebene 1
 62
   179
420
  1709851
370
    18
100
AcDbVertex
100
AcDb2dVertex
 10
162.2216226807988
 20
-68.46007620901345
 30
0.0
  0
SEQEND
  5
599
330
596
100
AcDbEntity
  8
Ebene 1
370
    18
  0
POLYLINE
  5
59A
330
534
100
AcDbEntity
  8
Ebene 1
 62
   179
420
  1709851
370
    18
100
AcDb2dPolyline
 66
     1
 10
0.0
 20
0.0
 30
0.0
  0
VERTEX
  5
59B
330
59A
100
AcDbEntity
  8
Ebene 1
 62
   179
420
  1709851
370
    18
100
AcDbVertex
100
AcDb2dVertex
 10
159.7663031284612
 20
-68.46007620901345
 30
0.0
  0
VERTEX
  5
59C
330
59A
100
AcDbEntity
  8
Ebene 1
 62
   179
420
  1709851
370
    18
100
AcDbVertex
100
AcDb2dVertex
 10
160.7605576855043
 20
-68.46007620901345
 30
0.0
  0
SEQEND
  5
59D
330
59A
100
AcDbEntity
  8
Ebene 1
370
    18
  0
POLYLINE
  5
59E
330
534
100
AcDbEntity
  8
Ebene 1
 62
   179
420
  1709851
370
    18
100
AcDb2dPolyline
 66
     1
 10
0.0
 20
0.0
 30
0.0
  0
VERTEX
  5
59F
330
59E
100
AcDbEntity
  8
Ebene 1
 62
   179
420
  1709851
370
    18
100
AcDbVertex
100
AcDb2dVertex
 10
151.7647243544199
 20
-68.46007620901345
 30
0.0
  0
VERTEX
  5
5A0
330
59E
100
AcDbEntity
  8
Ebene 1
 62
   179
420
  1709851
370
    18
100
AcDbVertex
100
AcDb2dVertex
 10
158.7710150427725
 20
-68.46007620901345
 30
0.0
  0
SEQEND
  5
5A1
330
59E
100
AcDbEntity
  8
Ebene 1
370
    18
  0
POLYLINE
  5
5A2
330
534
100
AcDbEntity
  8
Ebene 1
 62
   179
420
  1709851
370
    18
100
AcDb2dPolyline
 66
     1
 10
0.0
 20
0.0
 30
0.0
  0
VERTEX
  5
5A3
330
5A2
100
AcDbEntity
  8
Ebene 1
 62
   179
420
  1709851
370
    18
100
AcDbVertex
100
AcDb2dVertex
 10
149.7541666292281
 20
-68.46007620901345
 30
0.0
  0
VERTEX
  5
5A4
330
5A2
100
AcDbEntity
  8
Ebene 1
 62
   179
420
  1709851
370
    18
100
AcDbVertex
100
AcDb2dVertex
 10
150.7704697973768
 20
-68.46007620901345
 30
0.0
  0
SEQEND
  5
5A5
330
5A2
100
AcDbEntity
  8
Ebene 1
370
    18
  0
POLYLINE
  5
5A6
330
534
100
AcDbEntity
  8
Ebene 1
 62
   179
420
  1709851
370
    18
100
AcDb2dPolyline
 66
     1
 10
0.0
 20
0.0
 30
0.0
  0
VERTEX
  5
5A7
330
5A6
100
AcDbEntity
  8
Ebene 1
 62
   179
420
  1709851
370
    18
100
AcDbVertex
100
AcDb2dVertex
 10
141.7746364662925
 20
-68.46007620901345
 30
0.0
  0
VERTEX
  5
5A8
330
5A6
100
AcDbEntity
  8
Ebene 1
 62
   179
420
  1709851
370
    18
100
AcDbVertex
100
AcDb2dVertex
 10
148.7595675626365
 20
-68.46007620901345
 30
0.0
  0
SEQEND
  5
5A9
330
5A6
100
AcDbEntity
  8
Ebene 1
370
    18
  0
POLYLINE
  5
5AA
330
534
100
AcDbEntity
  8
Ebene 1
 62
   179
420
  1709851
370
    18
100
AcDb2dPolyline
 66
     1
 10
0.0
 20
0.0
 30
0.0
  0
VERTEX
  5
5AB
330
5AA
100
AcDbEntity
  8
Ebene 1
 62
   179
420
  1709851
370
    18
100
AcDbVertex
100
AcDb2dVertex
 10
139.7637342315521
 20
-68.46007620901345
 30
0.0
  0
VERTEX
  5
5AC
330
5AA
100
AcDbEntity
  8
Ebene 1
 62
   179
420
  1709851
370
    18
100
AcDbVertex
100
AcDb2dVertex
 10
140.7583332981438
 20
-68.46007620901345
 30
0.0
  0
SEQEND
  5
5AD
330
5AA
100
AcDbEntity
  8
Ebene 1
370
    18
  0
POLYLINE
  5
5AE
330
534
100
AcDbEntity
  8
Ebene 1
 62
   179
420
  1709851
370
    18
100
AcDb2dPolyline
 66
     1
 10
0.0
 20
0.0
 30
0.0
  0
VERTEX
  5
5AF
330
5AE
100
AcDbEntity
  8
Ebene 1
 62
   179
420
  1709851
370
    18
100
AcDbVertex
100
AcDb2dVertex
 10
131.7624999670594
 20
-68.46007620901345
 30
0.0
  0
VERTEX
  5
5B0
330
5AE
100
AcDbEntity
  8
Ebene 1
 62
   179
420
  1709851
370
    18
100
AcDbVertex
100
AcDb2dVertex
 10
138.7684461458635
 20
-68.46007620901345
 30
0.0
  0
SEQEND
  5
5B1
330
5AE
100
AcDbEntity
  8
Ebene 1
370
    18
  0
POLYLINE
  5
5B2
330
534
100
AcDbEntity
  8
Ebene 1
 62
   179
420
  1709851
370
    18
100
AcDb2dPolyline
 66
     1
 10
0.0
 20
0.0
 30
0.0
  0
VERTEX
  5
5B3
330
5B2
100
AcDbEntity
  8
Ebene 1
 62
   179
420
  1709851
370
    18
100
AcDbVertex
100
AcDb2dVertex
 10
129.7726128147791
 20
-68.46007620901345
 30
0.0
  0
VERTEX
  5
5B4
330
5B2
100
AcDbEntity
  8
Ebene 1
 62
   179
420
  1709851
370
    18
100
AcDbVertex
100
AcDb2dVertex
 10
130.7679009004678
 20
-68.46007620901345
 30
0.0
  0
SEQEND
  5
5B5
330
5B2
100
AcDbEntity
  8
Ebene 1
370
    18
  0
POLYLINE
  5
5B6
330
534
100
AcDbEntity
  8
Ebene 1
 62
   179
420
  1709851
370
    18
100
AcDb2dPolyline
 66
     1
 10
0.0
 20
0.0
 30
0.0
  0
VERTEX
  5
5B7
330
5B6
100
AcDbEntity
  8
Ebene 1
 62
   179
420
  1709851
370
    18
100
AcDbVertex
100
AcDb2dVertex
 10
121.7720675693834
 20
-68.46007620901345
 30
0.0
  0
VERTEX
  5
5B8
330
5B6
100
AcDbEntity
  8
Ebene 1
 62
   179
420
  1709851
370
    18
100
AcDbVertex
100
AcDb2dVertex
 10
128.7569986657274
 20
-68.46007620901345
 30
0.0
  0
SEQEND
  5
5B9
330
5B6
100
AcDbEntity
  8
Ebene 1
370
    18
  0
POLYLINE
  5
5BA
330
534
100
AcDbEntity
  8
Ebene 1
 62
   179
420
  1709851
370
    18
100
AcDb2dPolyline
 66
     1
 10
0.0
 20
0.0
 30
0.0
  0
VERTEX
  5
5BB
330
5BA
100
AcDbEntity
  8
Ebene 1
 62
   179
420
  1709851
370
    18
100
AcDbVertex
100
AcDb2dVertex
 10
119.7611653346431
 20
-68.46007620901345
 30
0.0
  0
VERTEX
  5
5BC
330
5BA
100
AcDbEntity
  8
Ebene 1
 62
   179
420
  1709851
370
    18
100
AcDbVertex
100
AcDb2dVertex
 10
120.7561089107832
 20
-68.46007620901345
 30
0.0
  0
SEQEND
  5
5BD
330
5BA
100
AcDbEntity
  8
Ebene 1
370
    18
  0
POLYLINE
  5
5BE
330
534
100
AcDbEntity
  8
Ebene 1
 62
   179
420
  1709851
370
    18
100
AcDb2dPolyline
 66
     1
 10
0.0
 20
0.0
 30
0.0
  0
VERTEX
  5
5BF
330
5BE
100
AcDbEntity
  8
Ebene 1
 62
   179
420
  1709851
370
    18
100
AcDbVertex
100
AcDb2dVertex
 10
111.7602755796988
 20
-68.46007620901345
 30
0.0
  0
VERTEX
  5
5C0
330
5BE
100
AcDbEntity
  8
Ebene 1
 62
   179
420
  1709851
370
    18
100
AcDbVertex
100
AcDb2dVertex
 10
118.7662217585029
 20
-68.46007620901345
 30
0.0
  0
SEQEND
  5
5C1
330
5BE
100
AcDbEntity
  8
Ebene 1
370
    18
  0
POLYLINE
  5
5C2
330
534
100
AcDbEntity
  8
Ebene 1
 62
   179
420
  1709851
370
    18
100
AcDb2dPolyline
 66
     1
 10
0.0
 20
0.0
 30
0.0
  0
VERTEX
  5
5C3
330
5C2
100
AcDbEntity
  8
Ebene 1
 62
   179
420
  1709851
370
    18
100
AcDbVertex
100
AcDb2dVertex
 10
109.7703884274185
 20
-68.46007620901345
 30
0.0
  0
VERTEX
  5
5C4
330
5C2
100
AcDbEntity
  8
Ebene 1
 62
   179
420
  1709851
370
    18
100
AcDbVertex
100
AcDb2dVertex
 10
110.7653320035587
 20
-68.46007620901345
 30
0.0
  0
SEQEND
  5
5C5
330
5C2
100
AcDbEntity
  8
Ebene 1
370
    18
  0
POLYLINE
  5
5C6
330
534
100
AcDbEntity
  8
Ebene 1
 62
   179
420
  1709851
370
    18
100
AcDb2dPolyline
 66
     1
 10
0.0
 20
0.0
 30
0.0
  0
VERTEX
  5
5C7
330
5C6
100
AcDbEntity
  8
Ebene 1
 62
   179
420
  1709851
370
    18
100
AcDbVertex
100
AcDb2dVertex
 10
101.7693264177
 20
-68.46007620901345
 30
0.0
  0
VERTEX
  5
5C8
330
5C6
100
AcDbEntity
  8
Ebene 1
 62
   179
420
  1709851
370
    18
100
AcDbVertex
100
AcDb2dVertex
 10
108.7757893608269
 20
-68.46007620901345
 30
0.0
  0
SEQEND
  5
5C9
330
5C6
100
AcDbEntity
  8
Ebene 1
370
    18
  0
POLYLINE
  5
5CA
330
534
100
AcDbEntity
  8
Ebene 1
 62
   179
420
  1709851
370
    18
100
AcDb2dPolyline
 66
     1
 10
0.0
 20
0.0
 30
0.0
  0
VERTEX
  5
5CB
330
5CA
100
AcDbEntity
  8
Ebene 1
 62
   179
420
  1709851
370
    18
100
AcDbVertex
100
AcDb2dVertex
 10
99.7584241829597
 20
-68.46007620901345
 30
0.0
  0
VERTEX
  5
5CC
330
5CA
100
AcDbEntity
  8
Ebene 1
 62
   179
420
  1709851
370
    18
100
AcDbVertex
100
AcDb2dVertex
 10
100.7743828415599
 20
-68.46007620901345
 30
0.0
  0
SEQEND
  5
5CD
330
5CA
100
AcDbEntity
  8
Ebene 1
370
    18
  0
POLYLINE
  5
5CE
330
534
100
AcDbEntity
  8
Ebene 1
 62
   179
420
  1709851
370
    18
100
AcDb2dPolyline
 66
     1
 10
0.0
 20
0.0
 30
0.0
  0
VERTEX
  5
5CF
330
5CE
100
AcDbEntity
  8
Ebene 1
 62
   179
420
  1709851
370
    18
100
AcDbVertex
100
AcDb2dVertex
 10
91.77889402002403
 20
-68.46007620901345
 30
0.0
  0
VERTEX
  5
5D0
330
5CE
100
AcDbEntity
  8
Ebene 1
 62
   179
420
  1709851
370
    18
100
AcDbVertex
100
AcDb2dVertex
 10
98.76365286159381
 20
-68.46007620901345
 30
0.0
  0
SEQEND
  5
5D1
330
5CE
100
AcDbEntity
  8
Ebene 1
370
    18
  0
POLYLINE
  5
5D2
330
534
100
AcDbEntity
  8
Ebene 1
 62
   179
420
  1709851
370
    18
100
AcDb2dPolyline
 66
     1
 10
0.0
 20
0.0
 30
0.0
  0
VERTEX
  5
5D3
330
5D2
100
AcDbEntity
  8
Ebene 1
 62
   179
420
  1709851
370
    18
100
AcDbVertex
100
AcDb2dVertex
 10
89.76781953050944
 20
-68.46007620901345
 30
0.0
  0
VERTEX
  5
5D4
330
5D2
100
AcDbEntity
  8
Ebene 1
 62
   179
420
  1709851
370
    18
100
AcDbVertex
100
AcDb2dVertex
 10
90.76259085187533
 20
-68.46007620901345
 30
0.0
  0
SEQEND
  5
5D5
330
5D2
100
AcDbEntity
  8
Ebene 1
370
    18
  0
POLYLINE
  5
5D6
330
534
100
AcDbEntity
  8
Ebene 1
 62
   179
420
  1709851
370
    18
100
AcDb2dPolyline
 66
     1
 10
0.0
 20
0.0
 30
0.0
  0
VERTEX
  5
5D7
330
5D6
100
AcDbEntity
  8
Ebene 1
 62
   179
420
  1709851
370
    18
100
AcDbVertex
100
AcDb2dVertex
 10
81.76675752079095
 20
-68.46007620901345
 30
0.0
  0
VERTEX
  5
5D8
330
5D6
100
AcDbEntity
  8
Ebene 1
 62
   179
420
  1709851
370
    18
100
AcDbVertex
100
AcDb2dVertex
 10
88.77322046391781
 20
-68.46007620901345
 30
0.0
  0
SEQEND
  5
5D9
330
5D6
100
AcDbEntity
  8
Ebene 1
370
    18
  0
POLYLINE
  5
5DA
330
534
100
AcDbEntity
  8
Ebene 1
 62
   179
420
  1709851
370
    18
100
AcDb2dPolyline
 66
     1
 10
0.0
 20
0.0
 30
0.0
  0
VERTEX
  5
5DB
330
5DA
100
AcDbEntity
  8
Ebene 1
 62
   179
420
  1709851
370
    18
100
AcDbVertex
100
AcDb2dVertex
 10
79.77738713283344
 20
-68.46007620901345
 30
0.0
  0
VERTEX
  5
5DC
330
5DA
100
AcDbEntity
  8
Ebene 1
 62
   179
420
  1709851
370
    18
100
AcDbVertex
100
AcDb2dVertex
 10
80.77198619942506
 20
-68.46007620901345
 30
0.0
  0
SEQEND
  5
5DD
330
5DA
100
AcDbEntity
  8
Ebene 1
370
    18
  0
POLYLINE
  5
5DE
330
534
100
AcDbEntity
  8
Ebene 1
 62
   179
420
  1709851
370
    18
100
AcDb2dPolyline
 66
     1
 10
0.0
 20
0.0
 30
0.0
  0
VERTEX
  5
5DF
330
5DE
100
AcDbEntity
  8
Ebene 1
 62
   179
420
  1709851
370
    18
100
AcDbVertex
100
AcDb2dVertex
 10
71.77615286834069
 20
-68.46007620901345
 30
0.0
  0
VERTEX
  5
5E0
330
5DE
100
AcDbEntity
  8
Ebene 1
 62
   179
420
  1709851
370
    18
100
AcDbVertex
100
AcDb2dVertex
 10
78.76108396468473
 20
-68.46007620901345
 30
0.0
  0
SEQEND
  5
5E1
330
5DE
100
AcDbEntity
  8
Ebene 1
370
    18
  0
POLYLINE
  5
5E2
330
534
100
AcDbEntity
  8
Ebene 1
 62
   179
420
  1709851
370
    18
100
AcDb2dPolyline
 66
     1
 10
0.0
 20
0.0
 30
0.0
  0
VERTEX
  5
5E3
330
5E2
100
AcDbEntity
  8
Ebene 1
 62
   179
420
  1709851
370
    18
100
AcDbVertex
100
AcDb2dVertex
 10
69.76525063360036
 20
-68.46007620901345
 30
0.0
  0
VERTEX
  5
5E4
330
5E2
100
AcDbEntity
  8
Ebene 1
 62
   179
420
  1709851
370
    18
100
AcDbVertex
100
AcDb2dVertex
 10
70.76036646451477
 20
-68.46007620901345
 30
0.0
  0
SEQEND
  5
5E5
330
5E2
100
AcDbEntity
  8
Ebene 1
370
    18
  0
POLYLINE
  5
5E6
330
534
100
AcDbEntity
  8
Ebene 1
 62
   179
420
  1709851
370
    18
100
AcDb2dPolyline
 66
     1
 10
0.0
 20
0.0
 30
0.0
  0
VERTEX
  5
5E7
330
5E6
100
AcDbEntity
  8
Ebene 1
 62
   179
420
  1709851
370
    18
100
AcDbVertex
100
AcDb2dVertex
 10
64.21968043099369
 20
-68.46007620901345
 30
0.0
  0
VERTEX
  5
5E8
330
5E6
100
AcDbEntity
  8
Ebene 1
 62
   179
420
  1709851
370
    18
100
AcDbVertex
100
AcDb2dVertex
 10
68.77047931223447
 20
-68.46007620901345
 30
0.0
  0
SEQEND
  5
5E9
330
5E6
100
AcDbEntity
  8
Ebene 1
370
    18
  0
POLYLINE
  5
5EA
330
534
100
AcDbEntity
  8
Ebene 1
 62
   179
420
  1709851
370
    18
100
AcDb2dPolyline
 66
     1
 10
0.0
 20
0.0
 30
0.0
  0
VERTEX
  5
5EB
330
5EA
100
AcDbEntity
  8
Ebene 1
 62
   179
420
  1709851
370
    18
100
AcDbVertex
100
AcDb2dVertex
 10
115.1257893592394
 20
-117.4186726594474
 30
0.0
  0
VERTEX
  5
5EC
330
5EA
100
AcDbEntity
  8
Ebene 1
 62
   179
420
  1709851
370
    18
100
AcDbVertex
100
AcDb2dVertex
 10
115.1257893592394
 20
-118.5193806669847
 30
0.0
  0
VERTEX
  5
5ED
330
5EA
100
AcDbEntity
  8
Ebene 1
 62
   179
420
  1709851
370
    18
100
AcDbVertex
100
AcDb2dVertex
 10
114.5328884262279
 20
-118.5614108319048
 30
0.0
  0
SEQEND
  5
5EE
330
5EA
100
AcDbEntity
  8
Ebene 1
370
    18
  0
POLYLINE
  5
5EF
330
534
100
AcDbEntity
  8
Ebene 1
 62
   179
420
  1709851
370
    18
100
AcDb2dPolyline
 66
     1
 10
0.0
 20
0.0
 30
0.0
  0
VERTEX
  5
5F0
330
5EF
100
AcDbEntity
  8
Ebene 1
 62
   179
420
  1709851
370
    18
100
AcDbVertex
100
AcDb2dVertex
 10
114.5328884262279
 20
-117.164424612636
 30
0.0
  0
VERTEX
  5
5F1
330
5EF
100
AcDbEntity
  8
Ebene 1
 62
   179
420
  1709851
370
    18
100
AcDbVertex
100
AcDb2dVertex
 10
114.5328884262279
 20
-118.5614108319048
 30
0.0
  0
SEQEND
  5
5F2
330
5EF
100
AcDbEntity
  8
Ebene 1
370
    18
  0
POLYLINE
  5
5F3
330
534
100
AcDbEntity
  8
Ebene 1
 62
   179
420
  1709851
370
    18
100
AcDb2dPolyline
 66
     1
 10
0.0
 20
0.0
 30
0.0
  0
VERTEX
  5
5F4
330
5F3
100
AcDbEntity
  8
Ebene 1
 62
   179
420
  1709851
370
    18
100
AcDbVertex
100
AcDb2dVertex
 10
158.2208332937781
 20
-124.2130899754572
 30
0.0
  0
VERTEX
  5
5F5
330
5F3
100
AcDbEntity
  8
Ebene 1
 62
   179
420
  1709851
370
    18
100
AcDbVertex
100
AcDb2dVertex
 10
158.2208332937781
 20
-126.2026326181889
 30
0.0
  0
SEQEND
  5
5F6
330
5F3
100
AcDbEntity
  8
Ebene 1
370
    18
  0
POLYLINE
  5
5F7
330
534
100
AcDbEntity
  8
Ebene 1
370
     0
100
AcDb2dPolyline
 66
     1
 10
0.0
 20
0.0
 30
0.0
  0
VERTEX
  5
5F8
330
5F7
100
AcDbEntity
  8
Ebene 1
370
     0
100
AcDbVertex
100
AcDb2dVertex
 10
58.20833331878125
 20
-233.1475259833798
 30
0.0
  0
VERTEX
  5
5F9
330
5F7
100
AcDbEntity
  8
Ebene 1
370
     0
100
AcDbVertex
100
AcDb2dVertex
 10
166.3171521936638
 20
-233.1475259833798
 30
0.0
  0
VERTEX
  5
5FA
330
5F7
100
AcDbEntity
  8
Ebene 1
370
     0
100
AcDbVertex
100
AcDb2dVertex
 10
166.3171521936638
 20
-67.46530488764756
 30
0.0
  0
VERTEX
  5
5FB
330
5F7
100
AcDbEntity
  8
Ebene 1
370
     0
100
AcDbVertex
100
AcDb2dVertex
 10
58.20833331878125
 20
-67.46530488764756
 30
0.0
  0
VERTEX
  5
5FC
330
5F7
100
AcDbEntity
  8
Ebene 1
370
     0
100
AcDbVertex
100
AcDb2dVertex
 10
58.20833331878125
 20
-233.1475259833798
 30
0.0
  0
SEQEND
  5
5FD
330
5F7
100
AcDbEntity
  8
Ebene 1
370
     0
  0
ENDBLK
  5
537
330
534
100
AcDbEntity
  8
0
100
AcDbBlockEnd
  0
BLOCK
  5
604
330
602
100
AcDbEntity
  8
0
100
AcDbBlockBegin
  2
block 6
 70
     0
 71
     0
 10
0.0
 20
0.0
 30
0.0
  3
block 6
  1

  0
POLYLINE
  5
606
330
602
100
AcDbEntity
  8
Ebene 1
 62
   179
420
  1709851
370
    18
100
AcDb2dPolyline
 66
     1
 10
0.0
 20
0.0
 30
0.0
  0
VERTEX
  5
607
330
606
100
AcDbEntity
  8
Ebene 1
 62
   179
420
  1709851
370
    18
100
AcDbVertex
100
AcDb2dVertex
 10
67.41586776743424
 20
-192.0730305509401
 30
0.0
  0
VERTEX
  5
608
330
606
100
AcDbEntity
  8
Ebene 1
 62
   179
420
  1709851
370
    18
100
AcDbVertex
100
AcDb2dVertex
 10
89.85256887944658
 20
-192.0730305509401
 30
0.0
  0
SEQEND
  5
609
330
606
100
AcDbEntity
  8
Ebene 1
370
    18
  0
SPLINE
  5
60A
330
602
100
AcDbEntity
  8
Ebene 1
 62
   179
420
  1709851
370
    18
100
AcDbSpline
210
0.0
220
0.0
230
1.0
 70
     8
 71
     3
 72
    23
 73
    19
 74
     0
 42
0.0000000001
 43
0.0000000001
 40
0.0
 40
0.0
 40
0.0
 40
0.0
 40
1.0
 40
1.0
 40
1.0
 40
2.0
 40
2.0
 40
2.0
 40
3.0
 40
3.0
 40
3.0
 40
4.0
 40
4.0
 40
4.0
 40
5.0
 40
5.0
 40
5.0
 40
6.0
 40
6.0
 40
6.0
 40
6.0
 10
65.72260333643393
 20
-181.6171657532068
 30
0.0
 10
65.72260333643393
 20
-181.6171657532068
 30
0.0
 10
65.72260333643393
 20
-181.5958061611983
 30
0.0
 10
65.72260333643393
 20
-181.5958061611983
 30
0.0
 10
65.70141599919965
 20
-179.6486381929351
 30
0.0
 10
64.11391599959653
 20
-178.0611381933319
 30
0.0
 10
62.16657577655905
 20
-178.0611381933319
 30
0.0
 10
60.1980482162873
 20
-178.0611381933319
 30
0.0
 10
58.61054821668417
 20
-179.6486381929351
 30
0.0
 10
58.61054821668417
 20
-181.6171657532068
 30
0.0
 10
58.61054821668417
 20
-183.56433372147
 30
0.0
 10
60.1980482162873
 20
-185.1731933130817
 30
0.0
 10
62.16657577655905
 20
-185.1731933130817
 30
0.0
 10
64.11391599959653
 20
-185.1731933130817
 30
0.0
 10
65.72260333643393
 20
-183.56433372147
 30
0.0
 10
65.72260333643393
 20
-181.6171657532068
 30
0.0
 10
65.72260333643393
 20
-181.6171657532068
 30
0.0
 10
65.72260333643393
 20
-181.5958061611983
 30
0.0
 10
65.72260333643393
 20
-181.5958061611983
 30
0.0
  0
POLYLINE
  5
60B
330
602
100
AcDbEntity
  8
Ebene 1
 62
   179
420
  1709851
370
    18
100
AcDb2dPolyline
 66
     1
 10
0.0
 20
0.0
 30
0.0
  0
VERTEX
  5
60C
330
60B
100
AcDbEntity
  8
Ebene 1
 62
   179
420
  1709851
370
    18
100
AcDbVertex
100
AcDb2dVertex
 10
67.58519421053425
 20
-181.6171657532068
 30
0.0
  0
VERTEX
  5
60D
330
60B
100
AcDbEntity
  8
Ebene 1
 62
   179
420
  1709851
370
    18
100
AcDbVertex
100
AcDb2dVertex
 10
93.49317353348435
 20
-181.6171657532068
 30
0.0
  0
SEQEND
  5
60E
330
60B
100
AcDbEntity
  8
Ebene 1
370
    18
  0
POLYLINE
  5
60F
330
602
100
AcDbEntity
  8
Ebene 1
 62
   179
420
  1709851
370
    18
100
AcDb2dPolyline
 66
     1
 10
0.0
 20
0.0
 30
0.0
  0
VERTEX
  5
610
330
60F
100
AcDbEntity
  8
Ebene 1
 62
   179
420
  1709851
370
    18
100
AcDbVertex
100
AcDb2dVertex
 10
67.41586776743424
 20
-171.0758625874394
 30
0.0
  0
VERTEX
  5
611
330
60F
100
AcDbEntity
  8
Ebene 1
 62
   179
420
  1709851
370
    18
100
AcDbVertex
100
AcDb2dVertex
 10
111.4846679408788
 20
-171.0758625874394
 30
0.0
  0
SEQEND
  5
612
330
60F
100
AcDbEntity
  8
Ebene 1
370
    18
  0
SPLINE
  5
613
330
602
100
AcDbEntity
  8
Ebene 1
 62
   179
420
  1709851
370
    18
100
AcDbSpline
210
0.0
220
0.0
230
1.0
 70
     8
 71
     3
 72
    23
 73
    19
 74
     0
 42
0.0000000001
 43
0.0000000001
 40
0.0
 40
0.0
 40
0.0
 40
0.0
 40
1.0
 40
1.0
 40
1.0
 40
2.0
 40
2.0
 40
2.0
 40
3.0
 40
3.0
 40
3.0
 40
4.0
 40
4.0
 40
4.0
 40
5.0
 40
5.0
 40
5.0
 40
6.0
 40
6.0
 40
6.0
 40
6.0
 10
65.57429197579393
 20
-171.0758625874394
 30
0.0
 10
65.57429197579393
 20
-171.0758625874394
 30
0.0
 10
65.5532768933339
 20
-170.8856933166536
 30
0.0
 10
65.5532768933339
 20
-170.8856933166536
 30
0.0
 10
65.44734020716247
 20
-168.9805555133104
 30
0.0
 10
63.90221488202792
 20
-167.5198350275645
 30
0.0
 10
62.01843667069331
 20
-167.5198350275645
 30
0.0
 10
60.04990911042155
 20
-167.5198350275645
 30
0.0
 10
58.46240911081843
 20
-169.1073350271676
 30
0.0
 10
58.46240911081843
 20
-171.0758625874394
 30
0.0
 10
58.46240911081843
 20
-173.0230305557026
 30
0.0
 10
60.04990911042155
 20
-174.6318901473143
 30
0.0
 10
62.01843667069331
 20
-174.6318901473143
 30
0.0
 10
63.96577689373078
 20
-174.6318901473143
 30
0.0
 10
65.57429197579393
 20
-173.0230305557026
 30
0.0
 10
65.57429197579393
 20
-171.0758625874394
 30
0.0
 10
65.57429197579393
 20
-170.9911132385022
 30
0.0
 10
65.5532768933339
 20
-170.9277234815736
 30
0.0
 10
65.5532768933339
 20
-170.8856933166536
 30
0.0
  0
POLYLINE
  5
614
330
602
100
AcDbEntity
  8
Ebene 1
 62
   179
420
  1709851
370
    18
100
AcDb2dPolyline
 66
     1
 10
0.0
 20
0.0
 30
0.0
  0
VERTEX
  5
615
330
614
100
AcDbEntity
  8
Ebene 1
 62
   179
420
  1709851
370
    18
100
AcDbVertex
100
AcDb2dVertex
 10
87.86285398194055
 20
-202.5295843677704
 30
0.0
  0
VERTEX
  5
616
330
614
100
AcDbEntity
  8
Ebene 1
 62
   179
420
  1709851
370
    18
100
AcDbVertex
100
AcDb2dVertex
 10
67.2465413243342
 20
-202.5295843677704
 30
0.0
  0
SEQEND
  5
617
330
614
100
AcDbEntity
  8
Ebene 1
370
    18
  0
POLYLINE
  5
618
330
602
100
AcDbEntity
  8
Ebene 1
 62
   179
420
  1709851
370
    18
100
AcDb2dPolyline
 66
     1
 10
0.0
 20
0.0
 30
0.0
  0
VERTEX
  5
619
330
618
100
AcDbEntity
  8
Ebene 1
 62
   179
420
  1709851
370
    18
100
AcDbVertex
100
AcDb2dVertex
 10
67.2465413243342
 20
-211.6315266398005
 30
0.0
  0
VERTEX
  5
61A
330
618
100
AcDbEntity
  8
Ebene 1
 62
   179
420
  1709851
370
    18
100
AcDbVertex
100
AcDb2dVertex
 10
84.85718042583431
 20
-211.6315266398005
 30
0.0
  0
SEQEND
  5
61B
330
618
100
AcDbEntity
  8
Ebene 1
370
    18
  0
SPLINE
  5
61C
330
602
100
AcDbEntity
  8
Ebene 1
 62
   179
420
  1709851
370
    18
100
AcDbSpline
210
0.0
220
0.0
230
1.0
 70
     8
 71
     3
 72
    23
 73
    19
 74
     0
 42
0.0000000001
 43
0.0000000001
 40
0.0
 40
0.0
 40
0.0
 40
0.0
 40
1.0
 40
1.0
 40
1.0
 40
2.0
 40
2.0
 40
2.0
 40
3.0
 40
3.0
 40
3.0
 40
4.0
 40
4.0
 40
4.0
 40
5.0
 40
5.0
 40
5.0
 40
6.0
 40
6.0
 40
6.0
 40
6.0
 10
65.40496553269391
 20
-211.6315266398005
 30
0.0
 10
65.40496553269391
 20
-211.6315266398005
 30
0.0
 10
65.38395045023388
 20
-211.4406683499176
 30
0.0
 10
65.38395045023388
 20
-211.4406683499176
 30
0.0
 10
65.27801376406245
 20
-209.5355305465744
 30
0.0
 10
63.73288843892789
 20
-208.0754990799256
 30
0.0
 10
61.84911022759328
 20
-208.0754990799256
 30
0.0
 10
59.88058266732153
 20
-208.0754990799256
 30
0.0
 10
58.2930826677184
 20
-209.6629990795287
 30
0.0
 10
58.2930826677184
 20
-211.6315266398005
 30
0.0
 10
58.2930826677184
 20
-213.5786946080637
 30
0.0
 10
59.88058266732153
 20
-215.1875541996753
 30
0.0
 10
61.84911022759328
 20
-215.1875541996753
 30
0.0
 10
63.79645045063075
 20
-215.1875541996753
 30
0.0
 10
65.40496553269391
 20
-213.5786946080637
 30
0.0
 10
65.40496553269391
 20
-211.6315266398005
 30
0.0
 10
65.40496553269391
 20
-211.5467772908633
 30
0.0
 10
65.38395045023388
 20
-211.4833875339347
 30
0.0
 10
65.38395045023388
 20
-211.4406683499176
 30
0.0
  0
SPLINE
  5
61D
330
602
100
AcDbEntity
  8
Ebene 1
 62
   179
420
  1709851
370
    18
100
AcDbSpline
210
0.0
220
0.0
230
1.0
 70
     8
 71
     3
 72
    23
 73
    19
 74
     0
 42
0.0000000001
 43
0.0000000001
 40
0.0
 40
0.0
 40
0.0
 40
0.0
 40
1.0
 40
1.0
 40
1.0
 40
2.0
 40
2.0
 40
2.0
 40
3.0
 40
3.0
 40
3.0
 40
4.0
 40
4.0
 40
4.0
 40
5.0
 40
5.0
 40
5.0
 40
6.0
 40
6.0
 40
6.0
 40
6.0
 10
65.40496553269391
 20
-202.4661946108418
 30
0.0
 10
65.40496553269391
 20
-202.4661946108418
 30
0.0
 10
65.40496553269391
 20
-202.4448350188332
 30
0.0
 10
65.40496553269391
 20
-202.4448350188332
 30
0.0
 10
65.38395045023388
 20
-200.49766705057
 30
0.0
 10
63.79645045063075
 20
-198.9101670509669
 30
0.0
 10
61.84911022759328
 20
-198.9101670509669
 30
0.0
 10
59.88058266732153
 20
-198.9101670509669
 30
0.0
 10
58.2930826677184
 20
-200.49766705057
 30
0.0
 10
58.2930826677184
 20
-202.4661946108418
 30
0.0
 10
58.2930826677184
 20
-204.413362579105
 30
0.0
 10
59.88058266732153
 20
-206.0222221707167
 30
0.0
 10
61.84911022759328
 20
-206.0222221707167
 30
0.0
 10
63.79645045063075
 20
-206.0222221707167
 30
0.0
 10
65.40496553269391
 20
-204.413362579105
 30
0.0
 10
65.40496553269391
 20
-202.4661946108418
 30
0.0
 10
65.40496553269391
 20
-202.4661946108418
 30
0.0
 10
65.40496553269391
 20
-202.4448350188332
 30
0.0
 10
65.40496553269391
 20
-202.4448350188332
 30
0.0
  0
SPLINE
  5
61E
330
602
100
AcDbEntity
  8
Ebene 1
 62
   179
420
  1709851
370
    18
100
AcDbSpline
210
0.0
220
0.0
230
1.0
 70
     8
 71
     3
 72
    23
 73
    19
 74
     0
 42
0.0000000001
 43
0.0000000001
 40
0.0
 40
0.0
 40
0.0
 40
0.0
 40
1.0
 40
1.0
 40
1.0
 40
2.0
 40
2.0
 40
2.0
 40
3.0
 40
3.0
 40
3.0
 40
4.0
 40
4.0
 40
4.0
 40
5.0
 40
5.0
 40
5.0
 40
6.0
 40
6.0
 40
6.0
 40
6.0
 10
65.57429197579393
 20
-192.0730305509401
 30
0.0
 10
65.57429197579393
 20
-192.0730305509401
 30
0.0
 10
65.57429197579393
 20
-192.0523599780286
 30
0.0
 10
65.57429197579393
 20
-192.0523599780286
 30
0.0
 10
65.5532768933339
 20
-190.1051920097654
 30
0.0
 10
63.96577689373078
 20
-188.5176920101622
 30
0.0
 10
62.01843667069331
 20
-188.5176920101622
 30
0.0
 10
60.04990911042155
 20
-188.5176920101622
 30
0.0
 10
58.46240911081843
 20
-190.1051920097654
 30
0.0
 10
58.46240911081843
 20
-192.0730305509401
 30
0.0
 10
58.46240911081843
 20
-194.0208875383003
 30
0.0
 10
60.04990911042155
 20
-195.629058110815
 30
0.0
 10
62.01843667069331
 20
-195.629058110815
 30
0.0
 10
63.96577689373078
 20
-195.629058110815
 30
0.0
 10
65.57429197579393
 20
-194.0208875383003
 30
0.0
 10
65.57429197579393
 20
-192.0730305509401
 30
0.0
 10
65.57429197579393
 20
-192.0730305509401
 30
0.0
 10
65.57429197579393
 20
-192.0523599780286
 30
0.0
 10
65.57429197579393
 20
-192.0523599780286
 30
0.0
  0
POLYLINE
  5
61F
330
602
100
AcDbEntity
  8
Ebene 1
 62
   179
420
  1709851
370
    50
100
AcDb2dPolyline
 66
     1
 10
0.0
 20
0.0
 30
0.0
  0
VERTEX
  5
620
330
61F
100
AcDbEntity
  8
Ebene 1
 62
   179
420
  1709851
370
    50
100
AcDbVertex
100
AcDb2dVertex
 10
158.2208332937781
 20
-126.2026326181889
 30
0.0
  0
VERTEX
  5
621
330
61F
100
AcDbEntity
  8
Ebene 1
 62
   179
420
  1709851
370
    50
100
AcDbVertex
100
AcDb2dVertex
 10
158.2208332937781
 20
-232.9036132230241
 30
0.0
  0
SEQEND
  5
622
330
61F
100
AcDbEntity
  8
Ebene 1
370
    50
  0
POLYLINE
  5
623
330
602
100
AcDbEntity
  8
Ebene 1
 62
   179
420
  1709851
370
    50
100
AcDb2dPolyline
 66
     1
 10
0.0
 20
0.0
 30
0.0
  0
VERTEX
  5
624
330
623
100
AcDbEntity
  8
Ebene 1
 62
   179
420
  1709851
370
    50
100
AcDbVertex
100
AcDb2dVertex
 10
98.21347111259942
 20
-126.2026326181889
 30
0.0
  0
VERTEX
  5
625
330
623
100
AcDbEntity
  8
Ebene 1
 62
   179
420
  1709851
370
    50
100
AcDbVertex
100
AcDb2dVertex
 10
98.21347111259942
 20
-232.9036132230241
 30
0.0
  0
SEQEND
  5
626
330
623
100
AcDbEntity
  8
Ebene 1
370
    50
  0
POLYLINE
  5
627
330
602
100
AcDbEntity
  8
Ebene 1
 62
   179
420
  1709851
370
    18
100
AcDb2dPolyline
 66
     1
 10
0.0
 20
0.0
 30
0.0
  0
VERTEX
  5
628
330
627
100
AcDbEntity
  8
Ebene 1
 62
   179
420
  1709851
370
    18
100
AcDbVertex
100
AcDb2dVertex
 10
161.7555012616445
 20
-232.9043022421212
 30
0.0
  0
VERTEX
  5
629
330
627
100
AcDbEntity
  8
Ebene 1
 62
   179
420
  1709851
370
    18
100
AcDbVertex
100
AcDb2dVertex
 10
162.2219671903473
 20
-232.9043022421212
 30
0.0
  0
SEQEND
  5
62A
330
627
100
AcDbEntity
  8
Ebene 1
370
    18
  0
POLYLINE
  5
62B
330
602
100
AcDbEntity
  8
Ebene 1
 62
   179
420
  1709851
370
    18
100
AcDb2dPolyline
 66
     1
 10
0.0
 20
0.0
 30
0.0
  0
VERTEX
  5
62C
330
62B
100
AcDbEntity
  8
Ebene 1
 62
   179
420
  1709851
370
    18
100
AcDbVertex
100
AcDb2dVertex
 10
159.7659586189127
 20
-232.9043022421212
 30
0.0
  0
VERTEX
  5
62D
330
62B
100
AcDbEntity
  8
Ebene 1
 62
   179
420
  1709851
370
    18
100
AcDbVertex
100
AcDb2dVertex
 10
160.7609021950528
 20
-232.9043022421212
 30
0.0
  0
SEQEND
  5
62E
330
62B
100
AcDbEntity
  8
Ebene 1
370
    18
  0
POLYLINE
  5
62F
330
602
100
AcDbEntity
  8
Ebene 1
 62
   179
420
  1709851
370
    18
100
AcDb2dPolyline
 66
     1
 10
0.0
 20
0.0
 30
0.0
  0
VERTEX
  5
630
330
62F
100
AcDbEntity
  8
Ebene 1
 62
   179
420
  1709851
370
    18
100
AcDbVertex
100
AcDb2dVertex
 10
151.7650688639685
 20
-232.9043022421212
 30
0.0
  0
VERTEX
  5
631
330
62F
100
AcDbEntity
  8
Ebene 1
 62
   179
420
  1709851
370
    18
100
AcDbVertex
100
AcDb2dVertex
 10
158.7713595523211
 20
-232.9043022421212
 30
0.0
  0
SEQEND
  5
632
330
62F
100
AcDbEntity
  8
Ebene 1
370
    18
  0
POLYLINE
  5
633
330
602
100
AcDbEntity
  8
Ebene 1
 62
   179
420
  1709851
370
    18
100
AcDb2dPolyline
 66
     1
 10
0.0
 20
0.0
 30
0.0
  0
VERTEX
  5
634
330
633
100
AcDbEntity
  8
Ebene 1
 62
   179
420
  1709851
370
    18
100
AcDbVertex
100
AcDb2dVertex
 10
149.7545111387766
 20
-232.9043022421212
 30
0.0
  0
VERTEX
  5
635
330
633
100
AcDbEntity
  8
Ebene 1
 62
   179
420
  1709851
370
    18
100
AcDbVertex
100
AcDb2dVertex
 10
150.7704697973768
 20
-232.9043022421212
 30
0.0
  0
SEQEND
  5
636
330
633
100
AcDbEntity
  8
Ebene 1
370
    18
  0
POLYLINE
  5
637
330
602
100
AcDbEntity
  8
Ebene 1
 62
   179
420
  1709851
370
    18
100
AcDb2dPolyline
 66
     1
 10
0.0
 20
0.0
 30
0.0
  0
VERTEX
  5
638
330
637
100
AcDbEntity
  8
Ebene 1
 62
   179
420
  1709851
370
    18
100
AcDbVertex
100
AcDb2dVertex
 10
141.7532768742839
 20
-232.9043022421212
 30
0.0
  0
VERTEX
  5
639
330
637
100
AcDbEntity
  8
Ebene 1
 62
   179
420
  1709851
370
    18
100
AcDbVertex
100
AcDb2dVertex
 10
148.759223053088
 20
-232.9043022421212
 30
0.0
  0
SEQEND
  5
63A
330
637
100
AcDbEntity
  8
Ebene 1
370
    18
  0
POLYLINE
  5
63B
330
602
100
AcDbEntity
  8
Ebene 1
 62
   179
420
  1709851
370
    18
100
AcDb2dPolyline
 66
     1
 10
0.0
 20
0.0
 30
0.0
  0
VERTEX
  5
63C
330
63B
100
AcDbEntity
  8
Ebene 1
 62
   179
420
  1709851
370
    18
100
AcDbVertex
100
AcDb2dVertex
 10
139.7633897220036
 20
-232.9043022421212
 30
0.0
  0
VERTEX
  5
63D
330
63B
100
AcDbEntity
  8
Ebene 1
 62
   179
420
  1709851
370
    18
100
AcDbVertex
100
AcDb2dVertex
 10
140.7583332981438
 20
-232.9043022421212
 30
0.0
  0
SEQEND
  5
63E
330
63B
100
AcDbEntity
  8
Ebene 1
370
    18
  0
POLYLINE
  5
63F
330
602
100
AcDbEntity
  8
Ebene 1
 62
   179
420
  1709851
370
    18
100
AcDb2dPolyline
 66
     1
 10
0.0
 20
0.0
 30
0.0
  0
VERTEX
  5
640
330
63F
100
AcDbEntity
  8
Ebene 1
 62
   179
420
  1709851
370
    18
100
AcDbVertex
100
AcDb2dVertex
 10
131.7628444766079
 20
-232.9043022421212
 30
0.0
  0
VERTEX
  5
641
330
63F
100
AcDbEntity
  8
Ebene 1
 62
   179
420
  1709851
370
    18
100
AcDbVertex
100
AcDb2dVertex
 10
138.7684461458635
 20
-232.9043022421212
 30
0.0
  0
SEQEND
  5
642
330
63F
100
AcDbEntity
  8
Ebene 1
370
    18
  0
POLYLINE
  5
643
330
602
100
AcDbEntity
  8
Ebene 1
 62
   179
420
  1709851
370
    18
100
AcDb2dPolyline
 66
     1
 10
0.0
 20
0.0
 30
0.0
  0
VERTEX
  5
644
330
643
100
AcDbEntity
  8
Ebene 1
 62
   179
420
  1709851
370
    18
100
AcDbVertex
100
AcDb2dVertex
 10
129.7726128147791
 20
-232.9043022421212
 30
0.0
  0
VERTEX
  5
645
330
643
100
AcDbEntity
  8
Ebene 1
 62
   179
420
  1709851
370
    18
100
AcDbVertex
100
AcDb2dVertex
 10
130.7675563909192
 20
-232.9043022421212
 30
0.0
  0
SEQEND
  5
646
330
643
100
AcDbEntity
  8
Ebene 1
370
    18
  0
POLYLINE
  5
647
330
602
100
AcDbEntity
  8
Ebene 1
 62
   179
420
  1709851
370
    18
100
AcDb2dPolyline
 66
     1
 10
0.0
 20
0.0
 30
0.0
  0
VERTEX
  5
648
330
647
100
AcDbEntity
  8
Ebene 1
 62
   179
420
  1709851
370
    18
100
AcDbVertex
100
AcDb2dVertex
 10
121.7717230598349
 20
-232.9043022421212
 30
0.0
  0
VERTEX
  5
649
330
647
100
AcDbEntity
  8
Ebene 1
 62
   179
420
  1709851
370
    18
100
AcDbVertex
100
AcDb2dVertex
 10
128.7569986657274
 20
-232.9043022421212
 30
0.0
  0
SEQEND
  5
64A
330
647
100
AcDbEntity
  8
Ebene 1
370
    18
  0
POLYLINE
  5
64B
330
602
100
AcDbEntity
  8
Ebene 1
 62
   179
420
  1709851
370
    18
100
AcDb2dPolyline
 66
     1
 10
0.0
 20
0.0
 30
0.0
  0
VERTEX
  5
64C
330
64B
100
AcDbEntity
  8
Ebene 1
 62
   179
420
  1709851
370
    18
100
AcDbVertex
100
AcDb2dVertex
 10
119.7611653346431
 20
-232.9043022421212
 30
0.0
  0
VERTEX
  5
64D
330
64B
100
AcDbEntity
  8
Ebene 1
 62
   179
420
  1709851
370
    18
100
AcDbVertex
100
AcDb2dVertex
 10
120.7561089107832
 20
-232.9043022421212
 30
0.0
  0
SEQEND
  5
64E
330
64B
100
AcDbEntity
  8
Ebene 1
370
    18
  0
POLYLINE
  5
64F
330
602
100
AcDbEntity
  8
Ebene 1
 62
   179
420
  1709851
370
    18
100
AcDb2dPolyline
 66
     1
 10
0.0
 20
0.0
 30
0.0
  0
VERTEX
  5
650
330
64F
100
AcDbEntity
  8
Ebene 1
 62
   179
420
  1709851
370
    18
100
AcDbVertex
100
AcDb2dVertex
 10
111.7602755796988
 20
-232.9043022421212
 30
0.0
  0
VERTEX
  5
651
330
64F
100
AcDbEntity
  8
Ebene 1
 62
   179
420
  1709851
370
    18
100
AcDbVertex
100
AcDb2dVertex
 10
118.7662217585029
 20
-232.9043022421212
 30
0.0
  0
SEQEND
  5
652
330
64F
100
AcDbEntity
  8
Ebene 1
370
    18
  0
POLYLINE
  5
653
330
602
100
AcDbEntity
  8
Ebene 1
 62
   179
420
  1709851
370
    18
100
AcDb2dPolyline
 66
     1
 10
0.0
 20
0.0
 30
0.0
  0
VERTEX
  5
654
330
653
100
AcDbEntity
  8
Ebene 1
 62
   179
420
  1709851
370
    18
100
AcDbVertex
100
AcDb2dVertex
 10
109.7703884274185
 20
-232.9043022421212
 30
0.0
  0
VERTEX
  5
655
330
653
100
AcDbEntity
  8
Ebene 1
 62
   179
420
  1709851
370
    18
100
AcDbVertex
100
AcDb2dVertex
 10
110.7653320035587
 20
-232.9043022421212
 30
0.0
  0
SEQEND
  5
656
330
653
100
AcDbEntity
  8
Ebene 1
370
    18
  0
POLYLINE
  5
657
330
602
100
AcDbEntity
  8
Ebene 1
 62
   179
420
  1709851
370
    18
100
AcDb2dPolyline
 66
     1
 10
0.0
 20
0.0
 30
0.0
  0
VERTEX
  5
658
330
657
100
AcDbEntity
  8
Ebene 1
 62
   179
420
  1709851
370
    18
100
AcDbVertex
100
AcDb2dVertex
 10
101.7693264177
 20
-232.9043022421212
 30
0.0
  0
VERTEX
  5
659
330
657
100
AcDbEntity
  8
Ebene 1
 62
   179
420
  1709851
370
    18
100
AcDbVertex
100
AcDb2dVertex
 10
108.7754448512784
 20
-232.9043022421212
 30
0.0
  0
SEQEND
  5
65A
330
657
100
AcDbEntity
  8
Ebene 1
370
    18
  0
POLYLINE
  5
65B
330
602
100
AcDbEntity
  8
Ebene 1
 62
   179
420
  1709851
370
    18
100
AcDb2dPolyline
 66
     1
 10
0.0
 20
0.0
 30
0.0
  0
VERTEX
  5
65C
330
65B
100
AcDbEntity
  8
Ebene 1
 62
   179
420
  1709851
370
    18
100
AcDbVertex
100
AcDb2dVertex
 10
99.75859643773397
 20
-232.9043022421212
 30
0.0
  0
VERTEX
  5
65D
330
65B
100
AcDbEntity
  8
Ebene 1
 62
   179
420
  1709851
370
    18
100
AcDbVertex
100
AcDb2dVertex
 10
100.7745550963341
 20
-232.9043022421212
 30
0.0
  0
SEQEND
  5
65E
330
65B
100
AcDbEntity
  8
Ebene 1
370
    18
  0
POLYLINE
  5
65F
330
602
100
AcDbEntity
  8
Ebene 1
 62
   179
420
  1709851
370
    18
100
AcDb2dPolyline
 66
     1
 10
0.0
 20
0.0
 30
0.0
  0
VERTEX
  5
660
330
65F
100
AcDbEntity
  8
Ebene 1
 62
   179
420
  1709851
370
    18
100
AcDbVertex
100
AcDb2dVertex
 10
91.75753442801548
 20
-232.9043022421212
 30
0.0
  0
VERTEX
  5
661
330
65F
100
AcDbEntity
  8
Ebene 1
 62
   179
420
  1709851
370
    18
100
AcDbVertex
100
AcDb2dVertex
 10
98.76365286159381
 20
-232.9043022421212
 30
0.0
  0
SEQEND
  5
662
330
65F
100
AcDbEntity
  8
Ebene 1
370
    18
  0
POLYLINE
  5
663
330
602
100
AcDbEntity
  8
Ebene 1
 62
   179
420
  1709851
370
    18
100
AcDb2dPolyline
 66
     1
 10
0.0
 20
0.0
 30
0.0
  0
VERTEX
  5
664
330
663
100
AcDbEntity
  8
Ebene 1
 62
   179
420
  1709851
370
    18
100
AcDbVertex
100
AcDb2dVertex
 10
89.76781953050944
 20
-232.9043022421212
 30
0.0
  0
VERTEX
  5
665
330
663
100
AcDbEntity
  8
Ebene 1
 62
   179
420
  1709851
370
    18
100
AcDbVertex
100
AcDb2dVertex
 10
90.76276310664959
 20
-232.9043022421212
 30
0.0
  0
SEQEND
  5
666
330
663
100
AcDbEntity
  8
Ebene 1
370
    18
  0
POLYLINE
  5
667
330
602
100
AcDbEntity
  8
Ebene 1
 62
   179
420
  1709851
370
    18
100
AcDb2dPolyline
 66
     1
 10
0.0
 20
0.0
 30
0.0
  0
VERTEX
  5
668
330
667
100
AcDbEntity
  8
Ebene 1
 62
   179
420
  1709851
370
    18
100
AcDbVertex
100
AcDb2dVertex
 10
81.76692977556522
 20
-232.9043022421212
 30
0.0
  0
VERTEX
  5
669
330
667
100
AcDbEntity
  8
Ebene 1
 62
   179
420
  1709851
370
    18
100
AcDbVertex
100
AcDb2dVertex
 10
88.77304820914355
 20
-232.9043022421212
 30
0.0
  0
SEQEND
  5
66A
330
667
100
AcDbEntity
  8
Ebene 1
370
    18
  0
POLYLINE
  5
66B
330
602
100
AcDbEntity
  8
Ebene 1
 62
   179
420
  1709851
370
    18
100
AcDb2dPolyline
 66
     1
 10
0.0
 20
0.0
 30
0.0
  0
VERTEX
  5
66C
330
66B
100
AcDbEntity
  8
Ebene 1
 62
   179
420
  1709851
370
    18
100
AcDbVertex
100
AcDb2dVertex
 10
79.77721487805917
 20
-232.9043022421212
 30
0.0
  0
VERTEX
  5
66D
330
66B
100
AcDbEntity
  8
Ebene 1
 62
   179
420
  1709851
370
    18
100
AcDbVertex
100
AcDb2dVertex
 10
80.77198619942506
 20
-232.9043022421212
 30
0.0
  0
SEQEND
  5
66E
330
66B
100
AcDbEntity
  8
Ebene 1
370
    18
  0
POLYLINE
  5
66F
330
602
100
AcDbEntity
  8
Ebene 1
 62
   179
420
  1709851
370
    18
100
AcDb2dPolyline
 66
     1
 10
0.0
 20
0.0
 30
0.0
  0
VERTEX
  5
670
330
66F
100
AcDbEntity
  8
Ebene 1
 62
   179
420
  1709851
370
    18
100
AcDbVertex
100
AcDb2dVertex
 10
71.77615286834069
 20
-232.9043022421212
 30
0.0
  0
VERTEX
  5
671
330
66F
100
AcDbEntity
  8
Ebene 1
 62
   179
420
  1709851
370
    18
100
AcDbVertex
100
AcDb2dVertex
 10
78.761256219459
 20
-232.9043022421212
 30
0.0
  0
SEQEND
  5
672
330
66F
100
AcDbEntity
  8
Ebene 1
370
    18
  0
POLYLINE
  5
673
330
602
100
AcDbEntity
  8
Ebene 1
 62
   179
420
  1709851
370
    18
100
AcDb2dPolyline
 66
     1
 10
0.0
 20
0.0
 30
0.0
  0
VERTEX
  5
674
330
673
100
AcDbEntity
  8
Ebene 1
 62
   179
420
  1709851
370
    18
100
AcDbVertex
100
AcDb2dVertex
 10
69.76542288837462
 20
-232.9043022421212
 30
0.0
  0
VERTEX
  5
675
330
673
100
AcDbEntity
  8
Ebene 1
 62
   179
420
  1709851
370
    18
100
AcDbVertex
100
AcDb2dVertex
 10
70.7601942097405
 20
-232.9043022421212
 30
0.0
  0
SEQEND
  5
676
330
673
100
AcDbEntity
  8
Ebene 1
370
    18
  0
POLYLINE
  5
677
330
602
100
AcDbEntity
  8
Ebene 1
 62
   179
420
  1709851
370
    18
100
AcDb2dPolyline
 66
     1
 10
0.0
 20
0.0
 30
0.0
  0
VERTEX
  5
678
330
677
100
AcDbEntity
  8
Ebene 1
 62
   179
420
  1709851
370
    18
100
AcDbVertex
100
AcDb2dVertex
 10
68.22012530846581
 20
-232.9043022421212
 30
0.0
  0
VERTEX
  5
679
330
677
100
AcDbEntity
  8
Ebene 1
 62
   179
420
  1709851
370
    18
100
AcDbVertex
100
AcDb2dVertex
 10
68.77047931223447
 20
-232.9043022421212
 30
0.0
  0
SEQEND
  5
67A
330
677
100
AcDbEntity
  8
Ebene 1
370
    18
  0
POLYLINE
  5
67B
330
602
100
AcDbEntity
  8
Ebene 1
 62
   179
420
  1709851
370
    25
100
AcDb2dPolyline
 66
     1
 10
0.0
 20
0.0
 30
0.0
  0
VERTEX
  5
67C
330
67B
100
AcDbEntity
  8
Ebene 1
 62
   179
420
  1709851
370
    25
100
AcDbVertex
100
AcDb2dVertex
 10
86.82588024088034
 20
-126.2026326181889
 30
0.0
  0
VERTEX
  5
67D
330
67B
100
AcDbEntity
  8
Ebene 1
 62
   179
420
  1709851
370
    25
100
AcDbVertex
100
AcDb2dVertex
 10
86.82588024088034
 20
-232.9036132230241
 30
0.0
  0
SEQEND
  5
67E
330
67B
100
AcDbEntity
  8
Ebene 1
370
    25
  0
POLYLINE
  5
67F
330
602
100
AcDbEntity
  8
Ebene 1
 62
   179
420
  1709851
370
    18
100
AcDb2dPolyline
 66
     1
 10
0.0
 20
0.0
 30
0.0
  0
VERTEX
  5
680
330
67F
100
AcDbEntity
  8
Ebene 1
 62
   179
420
  1709851
370
    18
100
AcDbVertex
100
AcDb2dVertex
 10
89.81019420497802
 20
-126.2026326181889
 30
0.0
  0
VERTEX
  5
681
330
67F
100
AcDbEntity
  8
Ebene 1
 62
   179
420
  1709851
370
    18
100
AcDbVertex
100
AcDb2dVertex
 10
89.81019420497802
 20
-232.9036132230241
 30
0.0
  0
SEQEND
  5
682
330
67F
100
AcDbEntity
  8
Ebene 1
370
    18
  0
POLYLINE
  5
683
330
602
100
AcDbEntity
  8
Ebene 1
 62
   179
420
  1709851
370
    25
100
AcDb2dPolyline
 66
     1
 10
0.0
 20
0.0
 30
0.0
  0
VERTEX
  5
684
330
683
100
AcDbEntity
  8
Ebene 1
 62
   179
420
  1709851
370
    25
100
AcDbVertex
100
AcDb2dVertex
 10
83.22747800653688
 20
-126.2026326181889
 30
0.0
  0
VERTEX
  5
685
330
683
100
AcDbEntity
  8
Ebene 1
 62
   179
420
  1709851
370
    25
100
AcDbVertex
100
AcDb2dVertex
 10
83.22747800653688
 20
-232.9036132230241
 30
0.0
  0
SEQEND
  5
686
330
683
100
AcDbEntity
  8
Ebene 1
370
    25
  0
POLYLINE
  5
687
330
602
100
AcDbEntity
  8
Ebene 1
 62
   179
420
  1709851
370
    50
100
AcDb2dPolyline
 66
     1
 10
0.0
 20
0.0
 30
0.0
  0
VERTEX
  5
688
330
687
100
AcDbEntity
  8
Ebene 1
 62
   179
420
  1709851
370
    50
100
AcDbVertex
100
AcDb2dVertex
 10
89.85256887944658
 20
-128.1077704215321
 30
0.0
  0
VERTEX
  5
689
330
687
100
AcDbEntity
  8
Ebene 1
 62
   179
420
  1709851
370
    50
100
AcDbVertex
100
AcDb2dVertex
 10
89.85256887944658
 20
-126.2029771277375
 30
0.0
  0
SEQEND
  5
68A
330
687
100
AcDbEntity
  8
Ebene 1
370
    50
  0
POLYLINE
  5
68B
330
602
100
AcDbEntity
  8
Ebene 1
 62
   179
420
  1709851
370
    50
100
AcDb2dPolyline
 66
     1
 10
0.0
 20
0.0
 30
0.0
  0
VERTEX
  5
68C
330
68B
100
AcDbEntity
  8
Ebene 1
 62
   179
420
  1709851
370
    50
100
AcDbVertex
100
AcDb2dVertex
 10
89.85256887944658
 20
-131.092256640404
 30
0.0
  0
VERTEX
  5
68D
330
68B
100
AcDbEntity
  8
Ebene 1
 62
   179
420
  1709851
370
    50
100
AcDbVertex
100
AcDb2dVertex
 10
89.85256887944658
 20
-129.1023694881237
 30
0.0
  0
SEQEND
  5
68E
330
68B
100
AcDbEntity
  8
Ebene 1
370
    50
  0
POLYLINE
  5
68F
330
602
100
AcDbEntity
  8
Ebene 1
 62
   179
420
  1709851
370
    50
100
AcDb2dPolyline
 66
     1
 10
0.0
 20
0.0
 30
0.0
  0
VERTEX
  5
690
330
68F
100
AcDbEntity
  8
Ebene 1
 62
   179
420
  1709851
370
    50
100
AcDbVertex
100
AcDb2dVertex
 10
89.85256887944658
 20
-134.097757941736
 30
0.0
  0
VERTEX
  5
691
330
68F
100
AcDbEntity
  8
Ebene 1
 62
   179
420
  1709851
370
    50
100
AcDbVertex
100
AcDb2dVertex
 10
89.85256887944658
 20
-132.1082152990042
 30
0.0
  0
SEQEND
  5
692
330
68F
100
AcDbEntity
  8
Ebene 1
370
    50
  0
POLYLINE
  5
693
330
602
100
AcDbEntity
  8
Ebene 1
 62
   179
420
  1709851
370
    50
100
AcDb2dPolyline
 66
     1
 10
0.0
 20
0.0
 30
0.0
  0
VERTEX
  5
694
330
693
100
AcDbEntity
  8
Ebene 1
 62
   179
420
  1709851
370
    50
100
AcDbVertex
100
AcDb2dVertex
 10
89.85256887944658
 20
-137.1036037526165
 30
0.0
  0
VERTEX
  5
695
330
693
100
AcDbEntity
  8
Ebene 1
 62
   179
420
  1709851
370
    50
100
AcDbVertex
100
AcDb2dVertex
 10
89.85256887944658
 20
-135.0927015178761
 30
0.0
  0
SEQEND
  5
696
330
693
100
AcDbEntity
  8
Ebene 1
370
    50
  0
POLYLINE
  5
697
330
602
100
AcDbEntity
  8
Ebene 1
 62
   179
420
  1709851
370
    50
100
AcDb2dPolyline
 66
     1
 10
0.0
 20
0.0
 30
0.0
  0
VERTEX
  5
698
330
697
100
AcDbEntity
  8
Ebene 1
 62
   179
420
  1709851
370
    50
100
AcDbVertex
100
AcDb2dVertex
 10
89.85256887944658
 20
-140.1091050539484
 30
0.0
  0
VERTEX
  5
699
330
697
100
AcDbEntity
  8
Ebene 1
 62
   179
420
  1709851
370
    50
100
AcDbVertex
100
AcDb2dVertex
 10
89.85256887944658
 20
-138.0982028192081
 30
0.0
  0
SEQEND
  5
69A
330
697
100
AcDbEntity
  8
Ebene 1
370
    50
  0
POLYLINE
  5
69B
330
602
100
AcDbEntity
  8
Ebene 1
 62
   179
420
  1709851
370
    50
100
AcDb2dPolyline
 66
     1
 10
0.0
 20
0.0
 30
0.0
  0
VERTEX
  5
69C
330
69B
100
AcDbEntity
  8
Ebene 1
 62
   179
420
  1709851
370
    50
100
AcDbVertex
100
AcDb2dVertex
 10
89.85256887944658
 20
-143.0935912728204
 30
0.0
  0
VERTEX
  5
69D
330
69B
100
AcDbEntity
  8
Ebene 1
 62
   179
420
  1709851
370
    50
100
AcDbVertex
100
AcDb2dVertex
 10
89.85256887944658
 20
-141.1040486300886
 30
0.0
  0
SEQEND
  5
69E
330
69B
100
AcDbEntity
  8
Ebene 1
370
    50
  0
POLYLINE
  5
69F
330
602
100
AcDbEntity
  8
Ebene 1
 62
   179
420
  1709851
370
    50
100
AcDb2dPolyline
 66
     1
 10
0.0
 20
0.0
 30
0.0
  0
VERTEX
  5
6A0
330
69F
100
AcDbEntity
  8
Ebene 1
 62
   179
420
  1709851
370
    50
100
AcDbVertex
100
AcDb2dVertex
 10
89.85256887944658
 20
-146.0994370837008
 30
0.0
  0
VERTEX
  5
6A1
330
69F
100
AcDbEntity
  8
Ebene 1
 62
   179
420
  1709851
370
    50
100
AcDbVertex
100
AcDb2dVertex
 10
89.85256887944658
 20
-144.1095499314205
 30
0.0
  0
SEQEND
  5
6A2
330
69F
100
AcDbEntity
  8
Ebene 1
370
    50
  0
POLYLINE
  5
6A3
330
602
100
AcDbEntity
  8
Ebene 1
 62
   179
420
  1709851
370
    50
100
AcDb2dPolyline
 66
     1
 10
0.0
 20
0.0
 30
0.0
  0
VERTEX
  5
6A4
330
6A3
100
AcDbEntity
  8
Ebene 1
 62
   179
420
  1709851
370
    50
100
AcDbVertex
100
AcDb2dVertex
 10
89.85256887944658
 20
-149.1051106398071
 30
0.0
  0
VERTEX
  5
6A5
330
6A3
100
AcDbEntity
  8
Ebene 1
 62
   179
420
  1709851
370
    50
100
AcDbVertex
100
AcDb2dVertex
 10
89.85256887944658
 20
-147.0940361502925
 30
0.0
  0
SEQEND
  5
6A6
330
6A3
100
AcDbEntity
  8
Ebene 1
370
    50
  0
POLYLINE
  5
6A7
330
602
100
AcDbEntity
  8
Ebene 1
 62
   179
420
  1709851
370
    50
100
AcDb2dPolyline
 66
     1
 10
0.0
 20
0.0
 30
0.0
  0
VERTEX
  5
6A8
330
6A7
100
AcDbEntity
  8
Ebene 1
 62
   179
420
  1709851
370
    50
100
AcDbVertex
100
AcDb2dVertex
 10
89.85256887944658
 20
-152.0892523491305
 30
0.0
  0
VERTEX
  5
6A9
330
6A7
100
AcDbEntity
  8
Ebene 1
 62
   179
420
  1709851
370
    50
100
AcDbVertex
100
AcDb2dVertex
 10
89.85256887944658
 20
-150.1000542159472
 30
0.0
  0
SEQEND
  5
6AA
330
6A7
100
AcDbEntity
  8
Ebene 1
370
    50
  0
POLYLINE
  5
6AB
330
602
100
AcDbEntity
  8
Ebene 1
 62
   179
420
  1709851
370
    50
100
AcDb2dPolyline
 66
     1
 10
0.0
 20
0.0
 30
0.0
  0
VERTEX
  5
6AC
330
6AB
100
AcDbEntity
  8
Ebene 1
 62
   179
420
  1709851
370
    50
100
AcDbVertex
100
AcDb2dVertex
 10
89.85256887944658
 20
-155.0954426695595
 30
0.0
  0
VERTEX
  5
6AD
330
6AB
100
AcDbEntity
  8
Ebene 1
 62
   179
420
  1709851
370
    50
100
AcDbVertex
100
AcDb2dVertex
 10
89.85256887944658
 20
-153.1055555172792
 30
0.0
  0
SEQEND
  5
6AE
330
6AB
100
AcDbEntity
  8
Ebene 1
370
    50
  0
POLYLINE
  5
6AF
330
602
100
AcDbEntity
  8
Ebene 1
 62
   179
420
  1709851
370
    50
100
AcDb2dPolyline
 66
     1
 10
0.0
 20
0.0
 30
0.0
  0
VERTEX
  5
6B0
330
6AF
100
AcDbEntity
  8
Ebene 1
 62
   179
420
  1709851
370
    50
100
AcDbVertex
100
AcDb2dVertex
 10
89.85256887944658
 20
-158.1009439708914
 30
0.0
  0
VERTEX
  5
6B1
330
6AF
100
AcDbEntity
  8
Ebene 1
 62
   179
420
  1709851
370
    50
100
AcDbVertex
100
AcDb2dVertex
 10
89.85256887944658
 20
-156.0896972266026
 30
0.0
  0
SEQEND
  5
6B2
330
6AF
100
AcDbEntity
  8
Ebene 1
370
    50
  0
POLYLINE
  5
6B3
330
602
100
AcDbEntity
  8
Ebene 1
 62
   179
420
  1709851
370
    50
100
AcDb2dPolyline
 66
     1
 10
0.0
 20
0.0
 30
0.0
  0
VERTEX
  5
6B4
330
6B3
100
AcDbEntity
  8
Ebene 1
 62
   179
420
  1709851
370
    50
100
AcDbVertex
100
AcDb2dVertex
 10
89.85256887944658
 20
-161.1064452722234
 30
0.0
  0
VERTEX
  5
6B5
330
6B3
100
AcDbEntity
  8
Ebene 1
 62
   179
420
  1709851
370
    50
100
AcDbVertex
100
AcDb2dVertex
 10
89.85256887944658
 20
-159.0958875470316
 30
0.0
  0
SEQEND
  5
6B6
330
6B3
100
AcDbEntity
  8
Ebene 1
370
    50
  0
POLYLINE
  5
6B7
330
602
100
AcDbEntity
  8
Ebene 1
 62
   179
420
  1709851
370
    50
100
AcDb2dPolyline
 66
     1
 10
0.0
 20
0.0
 30
0.0
  0
VERTEX
  5
6B8
330
6B7
100
AcDbEntity
  8
Ebene 1
 62
   179
420
  1709851
370
    50
100
AcDbVertex
100
AcDb2dVertex
 10
89.85256887944658
 20
-164.0912760006439
 30
0.0
  0
VERTEX
  5
6B9
330
6B7
100
AcDbEntity
  8
Ebene 1
 62
   179
420
  1709851
370
    50
100
AcDbVertex
100
AcDb2dVertex
 10
89.85256887944658
 20
-162.1013888483635
 30
0.0
  0
SEQEND
  5
6BA
330
6B7
100
AcDbEntity
  8
Ebene 1
370
    50
  0
POLYLINE
  5
6BB
330
602
100
AcDbEntity
  8
Ebene 1
 62
   179
420
  1709851
370
    50
100
AcDb2dPolyline
 66
     1
 10
0.0
 20
0.0
 30
0.0
  0
VERTEX
  5
6BC
330
6BB
100
AcDbEntity
  8
Ebene 1
 62
   179
420
  1709851
370
    50
100
AcDbVertex
100
AcDb2dVertex
 10
89.85256887944658
 20
-167.0967773019758
 30
0.0
  0
VERTEX
  5
6BD
330
6BB
100
AcDbEntity
  8
Ebene 1
 62
   179
420
  1709851
370
    50
100
AcDbVertex
100
AcDb2dVertex
 10
89.85256887944658
 20
-165.1075791687926
 30
0.0
  0
SEQEND
  5
6BE
330
6BB
100
AcDbEntity
  8
Ebene 1
370
    50
  0
POLYLINE
  5
6BF
330
602
100
AcDbEntity
  8
Ebene 1
 62
   179
420
  1709851
370
    50
100
AcDb2dPolyline
 66
     1
 10
0.0
 20
0.0
 30
0.0
  0
VERTEX
  5
6C0
330
6BF
100
AcDbEntity
  8
Ebene 1
 62
   179
420
  1709851
370
    50
100
AcDbVertex
100
AcDb2dVertex
 10
89.85256887944658
 20
-170.1022786033078
 30
0.0
  0
VERTEX
  5
6C1
330
6BF
100
AcDbEntity
  8
Ebene 1
 62
   179
420
  1709851
370
    50
100
AcDbVertex
100
AcDb2dVertex
 10
89.85256887944658
 20
-168.091720878116
 30
0.0
  0
SEQEND
  5
6C2
330
6BF
100
AcDbEntity
  8
Ebene 1
370
    50
  0
POLYLINE
  5
6C3
330
602
100
AcDbEntity
  8
Ebene 1
 62
   179
420
  1709851
370
    50
100
AcDb2dPolyline
 66
     1
 10
0.0
 20
0.0
 30
0.0
  0
VERTEX
  5
6C4
330
6C3
100
AcDbEntity
  8
Ebene 1
 62
   179
420
  1709851
370
    50
100
AcDbVertex
100
AcDb2dVertex
 10
89.85256887944658
 20
-173.0871093317282
 30
0.0
  0
VERTEX
  5
6C5
330
6C3
100
AcDbEntity
  8
Ebene 1
 62
   179
420
  1709851
370
    50
100
AcDbVertex
100
AcDb2dVertex
 10
89.85256887944658
 20
-171.0972221794479
 30
0.0
  0
SEQEND
  5
6C6
330
6C3
100
AcDbEntity
  8
Ebene 1
370
    50
  0
POLYLINE
  5
6C7
330
602
100
AcDbEntity
  8
Ebene 1
 62
   179
420
  1709851
370
    50
100
AcDb2dPolyline
 66
     1
 10
0.0
 20
0.0
 30
0.0
  0
VERTEX
  5
6C8
330
6C7
100
AcDbEntity
  8
Ebene 1
 62
   179
420
  1709851
370
    50
100
AcDbVertex
100
AcDb2dVertex
 10
89.85256887944658
 20
-176.0926106330602
 30
0.0
  0
VERTEX
  5
6C9
330
6C7
100
AcDbEntity
  8
Ebene 1
 62
   179
420
  1709851
370
    50
100
AcDbVertex
100
AcDb2dVertex
 10
89.85256887944658
 20
-174.1034124998769
 30
0.0
  0
SEQEND
  5
6CA
330
6C7
100
AcDbEntity
  8
Ebene 1
370
    50
  0
POLYLINE
  5
6CB
330
602
100
AcDbEntity
  8
Ebene 1
 62
   179
420
  1709851
370
    50
100
AcDb2dPolyline
 66
     1
 10
0.0
 20
0.0
 30
0.0
  0
VERTEX
  5
6CC
330
6CB
100
AcDbEntity
  8
Ebene 1
 62
   179
420
  1709851
370
    50
100
AcDbVertex
100
AcDb2dVertex
 10
89.85256887944658
 20
-179.0981119343921
 30
0.0
  0
VERTEX
  5
6CD
330
6CB
100
AcDbEntity
  8
Ebene 1
 62
   179
420
  1709851
370
    50
100
AcDbVertex
100
AcDb2dVertex
 10
89.85256887944658
 20
-177.0875542092003
 30
0.0
  0
SEQEND
  5
6CE
330
6CB
100
AcDbEntity
  8
Ebene 1
370
    50
  0
POLYLINE
  5
6CF
330
602
100
AcDbEntity
  8
Ebene 1
 62
   179
420
  1709851
370
    50
100
AcDb2dPolyline
 66
     1
 10
0.0
 20
0.0
 30
0.0
  0
VERTEX
  5
6D0
330
6CF
100
AcDbEntity
  8
Ebene 1
 62
   179
420
  1709851
370
    50
100
AcDbVertex
100
AcDb2dVertex
 10
89.85256887944658
 20
-182.1036132357241
 30
0.0
  0
VERTEX
  5
6D1
330
6CF
100
AcDbEntity
  8
Ebene 1
 62
   179
420
  1709851
370
    50
100
AcDbVertex
100
AcDb2dVertex
 10
89.85256887944658
 20
-180.0930555105323
 30
0.0
  0
SEQEND
  5
6D2
330
6CF
100
AcDbEntity
  8
Ebene 1
370
    50
  0
POLYLINE
  5
6D3
330
602
100
AcDbEntity
  8
Ebene 1
 62
   179
420
  1709851
370
    50
100
AcDb2dPolyline
 66
     1
 10
0.0
 20
0.0
 30
0.0
  0
VERTEX
  5
6D4
330
6D3
100
AcDbEntity
  8
Ebene 1
 62
   179
420
  1709851
370
    50
100
AcDbVertex
100
AcDb2dVertex
 10
89.85256887944658
 20
-185.0884439641446
 30
0.0
  0
VERTEX
  5
6D5
330
6D3
100
AcDbEntity
  8
Ebene 1
 62
   179
420
  1709851
370
    50
100
AcDbVertex
100
AcDb2dVertex
 10
89.85256887944658
 20
-183.0985568118643
 30
0.0
  0
SEQEND
  5
6D6
330
6D3
100
AcDbEntity
  8
Ebene 1
370
    50
  0
POLYLINE
  5
6D7
330
602
100
AcDbEntity
  8
Ebene 1
 62
   179
420
  1709851
370
    50
100
AcDb2dPolyline
 66
     1
 10
0.0
 20
0.0
 30
0.0
  0
VERTEX
  5
6D8
330
6D7
100
AcDbEntity
  8
Ebene 1
 62
   179
420
  1709851
370
    50
100
AcDbVertex
100
AcDb2dVertex
 10
89.85256887944658
 20
-188.0939452654765
 30
0.0
  0
VERTEX
  5
6D9
330
6D7
100
AcDbEntity
  8
Ebene 1
 62
   179
420
  1709851
370
    50
100
AcDbVertex
100
AcDb2dVertex
 10
89.85256887944658
 20
-186.1040581131962
 30
0.0
  0
SEQEND
  5
6DA
330
6D7
100
AcDbEntity
  8
Ebene 1
370
    50
  0
POLYLINE
  5
6DB
330
602
100
AcDbEntity
  8
Ebene 1
 62
   179
420
  1709851
370
    50
100
AcDb2dPolyline
 66
     1
 10
0.0
 20
0.0
 30
0.0
  0
VERTEX
  5
6DC
330
6DB
100
AcDbEntity
  8
Ebene 1
 62
   179
420
  1709851
370
    50
100
AcDbVertex
100
AcDb2dVertex
 10
89.85256887944658
 20
-191.0994465668085
 30
0.0
  0
VERTEX
  5
6DD
330
6DB
100
AcDbEntity
  8
Ebene 1
 62
   179
420
  1709851
370
    50
100
AcDbVertex
100
AcDb2dVertex
 10
89.85256887944658
 20
-189.0888888416167
 30
0.0
  0
SEQEND
  5
6DE
330
6DB
100
AcDbEntity
  8
Ebene 1
370
    50
  0
POLYLINE
  5
6DF
330
602
100
AcDbEntity
  8
Ebene 1
 62
   179
420
  1709851
370
    50
100
AcDb2dPolyline
 66
     1
 10
0.0
 20
0.0
 30
0.0
  0
VERTEX
  5
6E0
330
6DF
100
AcDbEntity
  8
Ebene 1
 62
   179
420
  1709851
370
    50
100
AcDbVertex
100
AcDb2dVertex
 10
89.85256887944658
 20
-194.1056368872375
 30
0.0
  0
VERTEX
  5
6E1
330
6DF
100
AcDbEntity
  8
Ebene 1
 62
   179
420
  1709851
370
    50
100
AcDbVertex
100
AcDb2dVertex
 10
89.85256887944658
 20
-192.0943901429486
 30
0.0
  0
SEQEND
  5
6E2
330
6DF
100
AcDbEntity
  8
Ebene 1
370
    50
  0
POLYLINE
  5
6E3
330
602
100
AcDbEntity
  8
Ebene 1
 62
   179
420
  1709851
370
    50
100
AcDb2dPolyline
 66
     1
 10
0.0
 20
0.0
 30
0.0
  0
VERTEX
  5
6E4
330
6E3
100
AcDbEntity
  8
Ebene 1
 62
   179
420
  1709851
370
    50
100
AcDbVertex
100
AcDb2dVertex
 10
89.85256887944658
 20
-197.0897785965609
 30
0.0
  0
VERTEX
  5
6E5
330
6E3
100
AcDbEntity
  8
Ebene 1
 62
   179
420
  1709851
370
    50
100
AcDbVertex
100
AcDb2dVertex
 10
89.85256887944658
 20
-195.0998914442806
 30
0.0
  0
SEQEND
  5
6E6
330
6E3
100
AcDbEntity
  8
Ebene 1
370
    50
  0
POLYLINE
  5
6E7
330
602
100
AcDbEntity
  8
Ebene 1
 62
   179
420
  1709851
370
    50
100
AcDb2dPolyline
 66
     1
 10
0.0
 20
0.0
 30
0.0
  0
VERTEX
  5
6E8
330
6E7
100
AcDbEntity
  8
Ebene 1
 62
   179
420
  1709851
370
    50
100
AcDbVertex
100
AcDb2dVertex
 10
89.85256887944658
 20
-200.0952798978929
 30
0.0
  0
VERTEX
  5
6E9
330
6E7
100
AcDbEntity
  8
Ebene 1
 62
   179
420
  1709851
370
    50
100
AcDbVertex
100
AcDb2dVertex
 10
89.85256887944658
 20
-198.084722172701
 30
0.0
  0
SEQEND
  5
6EA
330
6E7
100
AcDbEntity
  8
Ebene 1
370
    50
  0
POLYLINE
  5
6EB
330
602
100
AcDbEntity
  8
Ebene 1
 62
   179
420
  1709851
370
    50
100
AcDb2dPolyline
 66
     1
 10
0.0
 20
0.0
 30
0.0
  0
VERTEX
  5
6EC
330
6EB
100
AcDbEntity
  8
Ebene 1
 62
   179
420
  1709851
370
    50
100
AcDbVertex
100
AcDb2dVertex
 10
89.85256887944658
 20
-203.1014702183219
 30
0.0
  0
VERTEX
  5
6ED
330
6EB
100
AcDbEntity
  8
Ebene 1
 62
   179
420
  1709851
370
    50
100
AcDbVertex
100
AcDb2dVertex
 10
89.85256887944658
 20
-201.090223474033
 30
0.0
  0
SEQEND
  5
6EE
330
6EB
100
AcDbEntity
  8
Ebene 1
370
    50
  0
POLYLINE
  5
6EF
330
602
100
AcDbEntity
  8
Ebene 1
 62
   179
420
  1709851
370
    50
100
AcDb2dPolyline
 66
     1
 10
0.0
 20
0.0
 30
0.0
  0
VERTEX
  5
6F0
330
6EF
100
AcDbEntity
  8
Ebene 1
 62
   179
420
  1709851
370
    50
100
AcDbVertex
100
AcDb2dVertex
 10
89.85256887944658
 20
-206.0856119276453
 30
0.0
  0
VERTEX
  5
6F1
330
6EF
100
AcDbEntity
  8
Ebene 1
 62
   179
420
  1709851
370
    50
100
AcDbVertex
100
AcDb2dVertex
 10
89.85256887944658
 20
-204.095724775365
 30
0.0
  0
SEQEND
  5
6F2
330
6EF
100
AcDbEntity
  8
Ebene 1
370
    50
  0
POLYLINE
  5
6F3
330
602
100
AcDbEntity
  8
Ebene 1
 62
   179
420
  1709851
370
    50
100
AcDb2dPolyline
 66
     1
 10
0.0
 20
0.0
 30
0.0
  0
VERTEX
  5
6F4
330
6F3
100
AcDbEntity
  8
Ebene 1
 62
   179
420
  1709851
370
    50
100
AcDbVertex
100
AcDb2dVertex
 10
89.85256887944658
 20
-209.0911132289772
 30
0.0
  0
VERTEX
  5
6F5
330
6F3
100
AcDbEntity
  8
Ebene 1
 62
   179
420
  1709851
370
    50
100
AcDbVertex
100
AcDb2dVertex
 10
89.85256887944658
 20
-207.101915095794
 30
0.0
  0
SEQEND
  5
6F6
330
6F3
100
AcDbEntity
  8
Ebene 1
370
    50
  0
POLYLINE
  5
6F7
330
602
100
AcDbEntity
  8
Ebene 1
 62
   179
420
  1709851
370
    50
100
AcDb2dPolyline
 66
     1
 10
0.0
 20
0.0
 30
0.0
  0
VERTEX
  5
6F8
330
6F7
100
AcDbEntity
  8
Ebene 1
 62
   179
420
  1709851
370
    50
100
AcDbVertex
100
AcDb2dVertex
 10
89.85256887944658
 20
-212.0973035494062
 30
0.0
  0
VERTEX
  5
6F9
330
6F7
100
AcDbEntity
  8
Ebene 1
 62
   179
420
  1709851
370
    50
100
AcDbVertex
100
AcDb2dVertex
 10
89.85256887944658
 20
-210.0860568051174
 30
0.0
  0
SEQEND
  5
6FA
330
6F7
100
AcDbEntity
  8
Ebene 1
370
    50
  0
POLYLINE
  5
6FB
330
602
100
AcDbEntity
  8
Ebene 1
 62
   179
420
  1709851
370
    50
100
AcDb2dPolyline
 66
     1
 10
0.0
 20
0.0
 30
0.0
  0
VERTEX
  5
6FC
330
6FB
100
AcDbEntity
  8
Ebene 1
 62
   179
420
  1709851
370
    50
100
AcDbVertex
100
AcDb2dVertex
 10
89.85256887944658
 20
-215.1028048507382
 30
0.0
  0
VERTEX
  5
6FD
330
6FB
100
AcDbEntity
  8
Ebene 1
 62
   179
420
  1709851
370
    50
100
AcDbVertex
100
AcDb2dVertex
 10
89.85256887944658
 20
-213.0915581064494
 30
0.0
  0
SEQEND
  5
6FE
330
6FB
100
AcDbEntity
  8
Ebene 1
370
    50
  0
POLYLINE
  5
6FF
330
602
100
AcDbEntity
  8
Ebene 1
 62
   179
420
  1709851
370
    50
100
AcDb2dPolyline
 66
     1
 10
0.0
 20
0.0
 30
0.0
  0
VERTEX
  5
700
330
6FF
100
AcDbEntity
  8
Ebene 1
 62
   179
420
  1709851
370
    50
100
AcDbVertex
100
AcDb2dVertex
 10
89.85256887944658
 20
-218.0869465600616
 30
0.0
  0
VERTEX
  5
701
330
6FF
100
AcDbEntity
  8
Ebene 1
 62
   179
420
  1709851
370
    50
100
AcDbVertex
100
AcDb2dVertex
 10
89.85256887944658
 20
-216.0977484268784
 30
0.0
  0
SEQEND
  5
702
330
6FF
100
AcDbEntity
  8
Ebene 1
370
    50
  0
POLYLINE
  5
703
330
602
100
AcDbEntity
  8
Ebene 1
 62
   179
420
  1709851
370
    50
100
AcDb2dPolyline
 66
     1
 10
0.0
 20
0.0
 30
0.0
  0
VERTEX
  5
704
330
703
100
AcDbEntity
  8
Ebene 1
 62
   179
420
  1709851
370
    50
100
AcDbVertex
100
AcDb2dVertex
 10
89.85256887944658
 20
-221.0931368804906
 30
0.0
  0
VERTEX
  5
705
330
703
100
AcDbEntity
  8
Ebene 1
 62
   179
420
  1709851
370
    50
100
AcDbVertex
100
AcDb2dVertex
 10
89.85256887944658
 20
-219.1032497282103
 30
0.0
  0
SEQEND
  5
706
330
703
100
AcDbEntity
  8
Ebene 1
370
    50
  0
POLYLINE
  5
707
330
602
100
AcDbEntity
  8
Ebene 1
 62
   179
420
  1709851
370
    50
100
AcDb2dPolyline
 66
     1
 10
0.0
 20
0.0
 30
0.0
  0
VERTEX
  5
708
330
707
100
AcDbEntity
  8
Ebene 1
 62
   179
420
  1709851
370
    50
100
AcDbVertex
100
AcDb2dVertex
 10
89.85256887944658
 20
-224.0986381818226
 30
0.0
  0
VERTEX
  5
709
330
707
100
AcDbEntity
  8
Ebene 1
 62
   179
420
  1709851
370
    50
100
AcDbVertex
100
AcDb2dVertex
 10
89.85256887944658
 20
-222.0873914375337
 30
0.0
  0
SEQEND
  5
70A
330
707
100
AcDbEntity
  8
Ebene 1
370
    50
  0
POLYLINE
  5
70B
330
602
100
AcDbEntity
  8
Ebene 1
 62
   179
420
  1709851
370
    50
100
AcDb2dPolyline
 66
     1
 10
0.0
 20
0.0
 30
0.0
  0
VERTEX
  5
70C
330
70B
100
AcDbEntity
  8
Ebene 1
 62
   179
420
  1709851
370
    50
100
AcDbVertex
100
AcDb2dVertex
 10
89.85256887944658
 20
-227.082779891146
 30
0.0
  0
VERTEX
  5
70D
330
70B
100
AcDbEntity
  8
Ebene 1
 62
   179
420
  1709851
370
    50
100
AcDbVertex
100
AcDb2dVertex
 10
89.85256887944658
 20
-225.0935817579627
 30
0.0
  0
SEQEND
  5
70E
330
70B
100
AcDbEntity
  8
Ebene 1
370
    50
  0
POLYLINE
  5
70F
330
602
100
AcDbEntity
  8
Ebene 1
 62
   179
420
  1709851
370
    50
100
AcDb2dPolyline
 66
     1
 10
0.0
 20
0.0
 30
0.0
  0
VERTEX
  5
710
330
70F
100
AcDbEntity
  8
Ebene 1
 62
   179
420
  1709851
370
    50
100
AcDbVertex
100
AcDb2dVertex
 10
89.85256887944658
 20
-230.088970211575
 30
0.0
  0
VERTEX
  5
711
330
70F
100
AcDbEntity
  8
Ebene 1
 62
   179
420
  1709851
370
    50
100
AcDbVertex
100
AcDb2dVertex
 10
89.85256887944658
 20
-228.0990830592947
 30
0.0
  0
SEQEND
  5
712
330
70F
100
AcDbEntity
  8
Ebene 1
370
    50
  0
POLYLINE
  5
713
330
602
100
AcDbEntity
  8
Ebene 1
 62
   179
420
  1709851
370
    50
100
AcDb2dPolyline
 66
     1
 10
0.0
 20
0.0
 30
0.0
  0
VERTEX
  5
714
330
713
100
AcDbEntity
  8
Ebene 1
 62
   179
420
  1709851
370
    50
100
AcDbVertex
100
AcDb2dVertex
 10
89.85256887944658
 20
-232.9036132230241
 30
0.0
  0
VERTEX
  5
715
330
713
100
AcDbEntity
  8
Ebene 1
 62
   179
420
  1709851
370
    50
100
AcDbVertex
100
AcDb2dVertex
 10
89.85256887944658
 20
-232.9036132230241
 30
0.0
  0
VERTEX
  5
716
330
713
100
AcDbEntity
  8
Ebene 1
 62
   179
420
  1709851
370
    50
100
AcDbVertex
100
AcDb2dVertex
 10
89.85256887944658
 20
-231.0832247686181
 30
0.0
  0
SEQEND
  5
717
330
713
100
AcDbEntity
  8
Ebene 1
370
    50
  0
MTEXT
  5
718
330
602
100
AcDbEntity
  8
Ebene 1
 62
   179
420
  1709851
100
AcDbMText
 10
60.64263778865879
 20
-172.5999728301139
 30
0.0
 40
3.323900430802021
 41
0.0
 71
     7
 72
     1
  1
\fArial|b0|i0|c0|p34;\W1.00063;1
 73
     1
 44
1.0
  0
MTEXT
  5
719
330
602
100
AcDbEntity
  8
Ebene 1
 62
   179
420
  1709851
100
AcDbMText
 10
60.78922660155617
 20
-183.1385199194931
 30
0.0
 40
3.323900430802021
 41
0.0
 71
     7
 72
     1
  1
\fArial|b0|i0|c0|p34;\W1.00063;2
 73
     1
 44
1.0
  0
MTEXT
  5
71A
330
602
100
AcDbEntity
  8
Ebene 1
 62
   179
420
  1709851
100
AcDbMText
 10
60.64263778865879
 20
-193.575092182509
 30
0.0
 40
3.323900430802021
 41
0.0
 71
     7
 72
     1
  1
\fArial|b0|i0|c0|p34;\W1.00063;3
 73
     1
 44
1.0
  0
MTEXT
  5
71B
330
602
100
AcDbEntity
  8
Ebene 1
 62
   179
420
  1709851
100
AcDbMText
 10
60.47141654304187
 20
-203.9668782042166
 30
0.0
 40
3.323900430802021
 41
0.0
 71
     7
 72
     1
  1
\fArial|b0|i0|c0|p34;\W1.00063;4
 73
     1
 44
1.0
  0
MTEXT
  5
71C
330
602
100
AcDbEntity
  8
Ebene 1
 62
   179
420
  1709851
100
AcDbMText
 10
60.47141654304187
 20
-213.1515027678927
 30
0.0
 40
3.323900430802021
 41
0.0
 71
     7
 72
     1
  1
\fArial|b0|i0|c0|p34;\W1.00063;5
 73
     1
 44
1.0
  0
POLYLINE
  5
71D
330
602
100
AcDbEntity
  8
Ebene 1
370
     0
100
AcDb2dPolyline
 66
     1
 10
0.0
 20
0.0
 30
0.0
  0
VERTEX
  5
71E
330
71D
100
AcDbEntity
  8
Ebene 1
370
     0
100
AcDbVertex
100
AcDb2dVertex
 10
58.20833331878125
 20
-233.1475259833798
 30
0.0
  0
VERTEX
  5
71F
330
71D
100
AcDbEntity
  8
Ebene 1
370
     0
100
AcDbVertex
100
AcDb2dVertex
 10
166.3171521936638
 20
-233.1475259833798
 30
0.0
  0
VERTEX
  5
720
330
71D
100
AcDbEntity
  8
Ebene 1
370
     0
100
AcDbVertex
100
AcDb2dVertex
 10
166.3171521936638
 20
-67.46530488764756
 30
0.0
  0
VERTEX
  5
721
330
71D
100
AcDbEntity
  8
Ebene 1
370
     0
100
AcDbVertex
100
AcDb2dVertex
 10
58.20833331878125
 20
-67.46530488764756
 30
0.0
  0
VERTEX
  5
722
330
71D
100
AcDbEntity
  8
Ebene 1
370
     0
100
AcDbVertex
100
AcDb2dVertex
 10
58.20833331878125
 20
-233.1475259833798
 30
0.0
  0
SEQEND
  5
723
330
71D
100
AcDbEntity
  8
Ebene 1
370
     0
  0
ENDBLK
  5
605
330
602
100
AcDbEntity
  8
0
100
AcDbBlockEnd
  0
ENDSEC
  0
SECTION
  2
ENTITIES
  0
POLYLINE
  5
3C
330
1F
100
AcDbEntity
  8
Ebene 1
370
     0
100
AcDb2dPolyline
 66
     1
 10
0.0
 20
0.0
 30
0.0
  0
VERTEX
  5
3D
330
3C
100
AcDbEntity
  8
Ebene 1
370
     0
100
AcDbVertex
100
AcDb2dVertex
 10
83.22730575176263
 20
-232.9036132230241
 30
0.0
  0
VERTEX
  5
3E
330
3C
100
AcDbEntity
  8
Ebene 1
370
     0
100
AcDbVertex
100
AcDb2dVertex
 10
86.82605249565461
 20
-232.9036132230241
 30
0.0
  0
VERTEX
  5
3F
330
3C
100
AcDbEntity
  8
Ebene 1
370
     0
100
AcDbVertex
100
AcDb2dVertex
 10
83.22730575176263
 20
-126.2029771277375
 30
0.0
  0
VERTEX
  5
40
330
3C
100
AcDbEntity
  8
Ebene 1
370
     0
100
AcDbVertex
100
AcDb2dVertex
 10
83.22730575176263
 20
-232.9036132230241
 30
0.0
  0
SEQEND
  5
41
330
3C
100
AcDbEntity
  8
Ebene 1
370
     0
  0
HATCH
  5
42
330
1F
100
AcDbEntity
  8
Ebene 1
 62
   254
420
 14803683
100
AcDbHatch
 10
0.0
 20
0.0
 30
0.0
210
0.0
220
0.0
230
1.0
  2
SOLID
 70
     1
 71
     0
 91
        1
 92
        1
 93
        3
 72
     1
 10
83.22730575176263
 20
-232.9036132230241
 11
86.82605249565461
 21
-232.9036132230241
 72
     1
 10
86.82605249565461
 20
-232.9036132230241
 11
83.22730575176263
 21
-126.2029771277375
 72
     1
 10
83.22730575176263
 20
-126.2029771277375
 11
83.22730575176263
 21
-232.9036132230241
 97
        0
 75
     2
 76
     1
 98
        0
  0
POLYLINE
  5
43
330
1F
100
AcDbEntity
  8
Ebene 1
370
     0
100
AcDb2dPolyline
 66
     1
 10
0.0
 20
0.0
 30
0.0
  0
VERTEX
  5
44
330
43
100
AcDbEntity
  8
Ebene 1
370
     0
100
AcDbVertex
100
AcDb2dVertex
 10
83.22730575176263
 20
-126.2026326181889
 30
0.0
  0
VERTEX
  5
45
330
43
100
AcDbEntity
  8
Ebene 1
370
     0
100
AcDbVertex
100
AcDb2dVertex
 10
86.82605249565461
 20
-232.9036132230241
 30
0.0
  0
VERTEX
  5
46
330
43
100
AcDbEntity
  8
Ebene 1
370
     0
100
AcDbVertex
100
AcDb2dVertex
 10
86.82605249565461
 20
-126.2026326181889
 30
0.0
  0
VERTEX
  5
47
330
43
100
AcDbEntity
  8
Ebene 1
370
     0
100
AcDbVertex
100
AcDb2dVertex
 10
83.22730575176263
 20
-126.2026326181889
 30
0.0
  0
SEQEND
  5
48
330
43
100
AcDbEntity
  8
Ebene 1
370
     0
  0
HATCH
  5
49
330
1F
100
AcDbEntity
  8
Ebene 1
 62
   254
420
 14803683
100
AcDbHatch
 10
0.0
 20
0.0
 30
0.0
210
0.0
220
0.0
230
1.0
  2
SOLID
 70
     1
 71
     0
 91
        1
 92
        1
 93
        3
 72
     1
 10
83.22730575176263
 20
-126.2026326181889
 11
86.82605249565461
 21
-232.9036132230241
 72
     1
 10
86.82605249565461
 20
-232.9036132230241
 11
86.82605249565461
 21
-126.2026326181889
 72
     1
 10
86.82605249565461
 20
-126.2026326181889
 11
83.22730575176263
 21
-126.2026326181889
 97
        0
 75
     2
 76
     1
 98
        0
  0
INSERT
  5
4B
330
1F
100
AcDbEntity
  8
Ebene 1
100
AcDbBlockReference
  2
block 2
 10
0.0
 20
0.0
 30
0.0
  0
POLYLINE
  5
407
330
1F
100
AcDbEntity
  8
Ebene 1
370
     0
100
AcDb2dPolyline
 66
     1
 10
0.0
 20
0.0
 30
0.0
  0
VERTEX
  5
408
330
407
100
AcDbEntity
  8
Ebene 1
370
     0
100
AcDbVertex
100
AcDb2dVertex
 10
114.5328884262279
 20
-117.1647691221845
 30
0.0
  0
VERTEX
  5
409
330
407
100
AcDbEntity
  8
Ebene 1
370
     0
100
AcDbVertex
100
AcDb2dVertex
 10
115.1257893592394
 20
-118.5193806669847
 30
0.0
  0
VERTEX
  5
40A
330
407
100
AcDbEntity
  8
Ebene 1
370
     0
100
AcDbVertex
100
AcDb2dVertex
 10
114.5328884262279
 20
-118.5617553414533
 30
0.0
  0
VERTEX
  5
40B
330
407
100
AcDbEntity
  8
Ebene 1
370
     0
100
AcDbVertex
100
AcDb2dVertex
 10
114.5328884262279
 20
-117.1647691221845
 30
0.0
  0
SEQEND
  5
40C
330
407
100
AcDbEntity
  8
Ebene 1
370
     0
  0
HATCH
  5
40D
330
1F
100
AcDbEntity
  8
Ebene 1
 62
   179
420
  1709851
100
AcDbHatch
 10
0.0
 20
0.0
 30
0.0
210
0.0
220
0.0
230
1.0
  2
SOLID
 70
     1
 71
     0
 91
        1
 92
        1
 93
        3
 72
     1
 10
114.5328884262279
 20
-117.1647691221845
 11
115.1257893592394
 21
-118.5193806669847
 72
     1
 10
115.1257893592394
 20
-118.5193806669847
 11
114.5328884262279
 21
-118.5617553414533
 72
     1
 10
114.5328884262279
 20
-118.5617553414533
 11
114.5328884262279
 21
-117.1647691221845
 97
        0
 75
     2
 76
     1
 98
        0
  0
POLYLINE
  5
40E
330
1F
100
AcDbEntity
  8
Ebene 1
370
     0
100
AcDb2dPolyline
 66
     1
 10
0.0
 20
0.0
 30
0.0
  0
VERTEX
  5
40F
330
40E
100
AcDbEntity
  8
Ebene 1
370
     0
100
AcDbVertex
100
AcDb2dVertex
 10
115.1257893592394
 20
-118.5190361574362
 30
0.0
  0
VERTEX
  5
410
330
40E
100
AcDbEntity
  8
Ebene 1
370
     0
100
AcDbVertex
100
AcDb2dVertex
 10
114.5328884262279
 20
-117.164424612636
 30
0.0
  0
VERTEX
  5
411
330
40E
100
AcDbEntity
  8
Ebene 1
370
     0
100
AcDbVertex
100
AcDb2dVertex
 10
115.1257893592394
 20
-117.4186726594474
 30
0.0
  0
VERTEX
  5
412
330
40E
100
AcDbEntity
  8
Ebene 1
370
     0
100
AcDbVertex
100
AcDb2dVertex
 10
115.1257893592394
 20
-118.5190361574362
 30
0.0
  0
SEQEND
  5
413
330
40E
100
AcDbEntity
  8
Ebene 1
370
     0
  0
HATCH
  5
414
330
1F
100
AcDbEntity
  8
Ebene 1
 62
   179
420
  1709851
100
AcDbHatch
 10
0.0
 20
0.0
 30
0.0
210
0.0
220
0.0
230
1.0
  2
SOLID
 70
     1
 71
     0
 91
        1
 92
        1
 93
        3
 72
     1
 10
115.1257893592394
 20
-118.5190361574362
 11
114.5328884262279
 21
-117.164424612636
 72
     1
 10
114.5328884262279
 20
-117.164424612636
 11
115.1257893592394
 21
-117.4186726594474
 72
     1
 10
115.1257893592394
 20
-117.4186726594474
 11
115.1257893592394
 21
-118.5190361574362
 97
        0
 75
     2
 76
     1
 98
        0
  0
POLYLINE
  5
415
330
1F
100
AcDbEntity
  8
Ebene 1
370
     0
100
AcDb2dPolyline
 66
     1
 10
0.0
 20
0.0
 30
0.0
  0
VERTEX
  5
416
330
415
100
AcDbEntity
  8
Ebene 1
370
     0
100
AcDbVertex
100
AcDb2dVertex
 10
115.1257893592394
 20
-117.4183281498989
 30
0.0
  0
VERTEX
  5
417
330
415
100
AcDbEntity
  8
Ebene 1
370
     0
100
AcDbVertex
100
AcDb2dVertex
 10
114.5328884262279
 20
-117.164424612636
 30
0.0
  0
VERTEX
  5
418
330
415
100
AcDbEntity
  8
Ebene 1
370
     0
100
AcDbVertex
100
AcDb2dVertex
 10
118.7662217585029
 20
-112.931091280361
 30
0.0
  0
VERTEX
  5
419
330
415
100
AcDbEntity
  8
Ebene 1
370
     0
100
AcDbVertex
100
AcDb2dVertex
 10
115.1257893592394
 20
-117.4183281498989
 30
0.0
  0
SEQEND
  5
41A
330
415
100
AcDbEntity
  8
Ebene 1
370
     0
  0
HATCH
  5
41B
330
1F
100
AcDbEntity
  8
Ebene 1
 62
   179
420
  1709851
100
AcDbHatch
 10
0.0
 20
0.0
 30
0.0
210
0.0
220
0.0
230
1.0
  2
SOLID
 70
     1
 71
     0
 91
        1
 92
        1
 93
        3
 72
     1
 10
115.1257893592394
 20
-117.4183281498989
 11
114.5328884262279
 21
-117.164424612636
 72
     1
 10
114.5328884262279
 20
-117.164424612636
 11
118.7662217585029
 21
-112.931091280361
 72
     1
 10
118.7662217585029
 20
-112.931091280361
 11
115.1257893592394
 21
-117.4183281498989
 97
        0
 75
     2
 76
     1
 98
        0
  0
POLYLINE
  5
41C
330
1F
100
AcDbEntity
  8
Ebene 1
370
     0
100
AcDb2dPolyline
 66
     1
 10
0.0
 20
0.0
 30
0.0
  0
VERTEX
  5
41D
330
41C
100
AcDbEntity
  8
Ebene 1
370
     0
100
AcDbVertex
100
AcDb2dVertex
 10
115.1257893592394
 20
-117.4183281498989
 30
0.0
  0
VERTEX
  5
41E
330
41C
100
AcDbEntity
  8
Ebene 1
370
     0
100
AcDbVertex
100
AcDb2dVertex
 10
118.7662217585029
 20
-112.931091280361
 30
0.0
  0
VERTEX
  5
41F
330
41C
100
AcDbEntity
  8
Ebene 1
370
     0
100
AcDbVertex
100
AcDb2dVertex
 10
119.0204698053143
 20
-113.5239922133725
 30
0.0
  0
VERTEX
  5
420
330
41C
100
AcDbEntity
  8
Ebene 1
370
     0
100
AcDbVertex
100
AcDb2dVertex
 10
115.1257893592394
 20
-117.4183281498989
 30
0.0
  0
SEQEND
  5
421
330
41C
100
AcDbEntity
  8
Ebene 1
370
     0
  0
HATCH
  5
422
330
1F
100
AcDbEntity
  8
Ebene 1
 62
   179
420
  1709851
100
AcDbHatch
 10
0.0
 20
0.0
 30
0.0
210
0.0
220
0.0
230
1.0
  2
SOLID
 70
     1
 71
     0
 91
        1
 92
        1
 93
        3
 72
     1
 10
115.1257893592394
 20
-117.4183281498989
 11
118.7662217585029
 21
-112.931091280361
 72
     1
 10
118.7662217585029
 20
-112.931091280361
 11
119.0204698053143
 21
-113.5239922133725
 72
     1
 10
119.0204698053143
 20
-113.5239922133725
 11
115.1257893592394
 21
-117.4183281498989
 97
        0
 75
     2
 76
     1
 98
        0
  0
POLYLINE
  5
423
330
1F
100
AcDbEntity
  8
Ebene 1
370
     0
100
AcDb2dPolyline
 66
     1
 10
0.0
 20
0.0
 30
0.0
  0
VERTEX
  5
424
330
423
100
AcDbEntity
  8
Ebene 1
370
     0
100
AcDbVertex
100
AcDb2dVertex
 10
119.0204698053143
 20
-113.523647703824
 30
0.0
  0
VERTEX
  5
425
330
423
100
AcDbEntity
  8
Ebene 1
370
     0
100
AcDbVertex
100
AcDb2dVertex
 10
118.7662217585029
 20
-112.931091280361
 30
0.0
  0
VERTEX
  5
426
330
423
100
AcDbEntity
  8
Ebene 1
370
     0
100
AcDbVertex
100
AcDb2dVertex
 10
120.7561089107832
 20
-112.931091280361
 30
0.0
  0
VERTEX
  5
427
330
423
100
AcDbEntity
  8
Ebene 1
370
     0
100
AcDbVertex
100
AcDb2dVertex
 10
119.0204698053143
 20
-113.523647703824
 30
0.0
  0
SEQEND
  5
428
330
423
100
AcDbEntity
  8
Ebene 1
370
     0
  0
HATCH
  5
429
330
1F
100
AcDbEntity
  8
Ebene 1
 62
   179
420
  1709851
100
AcDbHatch
 10
0.0
 20
0.0
 30
0.0
210
0.0
220
0.0
230
1.0
  2
SOLID
 70
     1
 71
     0
 91
        1
 92
        1
 93
        3
 72
     1
 10
119.0204698053143
 20
-113.523647703824
 11
118.7662217585029
 21
-112.931091280361
 72
     1
 10
118.7662217585029
 20
-112.931091280361
 11
120.7561089107832
 21
-112.931091280361
 72
     1
 10
120.7561089107832
 20
-112.931091280361
 11
119.0204698053143
 21
-113.523647703824
 97
        0
 75
     2
 76
     1
 98
        0
  0
POLYLINE
  5
42A
330
1F
100
AcDbEntity
  8
Ebene 1
370
     0
100
AcDb2dPolyline
 66
     1
 10
0.0
 20
0.0
 30
0.0
  0
VERTEX
  5
42B
330
42A
100
AcDbEntity
  8
Ebene 1
370
     0
100
AcDbVertex
100
AcDb2dVertex
 10
119.0204698053143
 20
-113.523647703824
 30
0.0
  0
VERTEX
  5
42C
330
42A
100
AcDbEntity
  8
Ebene 1
370
     0
100
AcDbVertex
100
AcDb2dVertex
 10
120.7561089107832
 20
-112.931091280361
 30
0.0
  0
VERTEX
  5
42D
330
42A
100
AcDbEntity
  8
Ebene 1
370
     0
100
AcDbVertex
100
AcDb2dVertex
 10
120.7561089107832
 20
-113.523647703824
 30
0.0
  0
VERTEX
  5
42E
330
42A
100
AcDbEntity
  8
Ebene 1
370
     0
100
AcDbVertex
100
AcDb2dVertex
 10
119.0204698053143
 20
-113.523647703824
 30
0.0
  0
SEQEND
  5
42F
330
42A
100
AcDbEntity
  8
Ebene 1
370
     0
  0
HATCH
  5
430
330
1F
100
AcDbEntity
  8
Ebene 1
 62
   179
420
  1709851
100
AcDbHatch
 10
0.0
 20
0.0
 30
0.0
210
0.0
220
0.0
230
1.0
  2
SOLID
 70
     1
 71
     0
 91
        1
 92
        1
 93
        3
 72
     1
 10
119.0204698053143
 20
-113.523647703824
 11
120.7561089107832
 21
-112.931091280361
 72
     1
 10
120.7561089107832
 20
-112.931091280361
 11
120.7561089107832
 21
-113.523647703824
 72
     1
 10
120.7561089107832
 20
-113.523647703824
 11
119.0204698053143
 21
-113.523647703824
 97
        0
 75
     2
 76
     1
 98
        0
  0
POLYLINE
  5
431
330
1F
100
AcDbEntity
  8
Ebene 1
370
     0
100
AcDb2dPolyline
 66
     1
 10
0.0
 20
0.0
 30
0.0
  0
VERTEX
  5
432
330
431
100
AcDbEntity
  8
Ebene 1
370
     0
100
AcDbVertex
100
AcDb2dVertex
 10
75.96728378092138
 20
-122.5408406269169
 30
0.0
  0
VERTEX
  5
433
330
431
100
AcDbEntity
  8
Ebene 1
370
     0
100
AcDbVertex
100
AcDb2dVertex
 10
76.55984020438434
 20
-123.0910223759113
 30
0.0
  0
VERTEX
  5
434
330
431
100
AcDbEntity
  8
Ebene 1
370
     0
100
AcDbVertex
100
AcDb2dVertex
 10
76.55984020438434
 20
-133.3994370868758
 30
0.0
  0
VERTEX
  5
435
330
431
100
AcDbEntity
  8
Ebene 1
370
     0
100
AcDbVertex
100
AcDb2dVertex
 10
75.96728378092138
 20
-122.5408406269169
 30
0.0
  0
SEQEND
  5
436
330
431
100
AcDbEntity
  8
Ebene 1
370
     0
  0
HATCH
  5
437
330
1F
100
AcDbEntity
  8
Ebene 1
 62
   179
420
  1709851
100
AcDbHatch
 10
0.0
 20
0.0
 30
0.0
210
0.0
220
0.0
230
1.0
  2
SOLID
 70
     1
 71
     0
 91
        1
 92
        1
 93
        3
 72
     1
 10
75.96728378092138
 20
-122.5408406269169
 11
76.55984020438434
 21
-123.0910223759113
 72
     1
 10
76.55984020438434
 20
-123.0910223759113
 11
76.55984020438434
 21
-133.3994370868758
 72
     1
 10
76.55984020438434
 20
-133.3994370868758
 11
75.96728378092138
 21
-122.5408406269169
 97
        0
 75
     2
 76
     1
 98
        0
  0
POLYLINE
  5
438
330
1F
100
AcDbEntity
  8
Ebene 1
370
     0
100
AcDb2dPolyline
 66
     1
 10
0.0
 20
0.0
 30
0.0
  0
VERTEX
  5
439
330
438
100
AcDbEntity
  8
Ebene 1
370
     0
100
AcDbVertex
100
AcDb2dVertex
 10
76.56001245915861
 20
-123.0910223759113
 30
0.0
  0
VERTEX
  5
43A
330
438
100
AcDbEntity
  8
Ebene 1
370
     0
100
AcDbVertex
100
AcDb2dVertex
 10
75.96728378092138
 20
-122.5408406269169
 30
0.0
  0
VERTEX
  5
43B
330
438
100
AcDbEntity
  8
Ebene 1
370
     0
100
AcDbVertex
100
AcDb2dVertex
 10
118.0255262291742
 20
-118.8576890436363
 30
0.0
  0
VERTEX
  5
43C
330
438
100
AcDbEntity
  8
Ebene 1
370
     0
100
AcDbVertex
100
AcDb2dVertex
 10
76.56001245915861
 20
-123.0910223759113
 30
0.0
  0
SEQEND
  5
43D
330
438
100
AcDbEntity
  8
Ebene 1
370
     0
  0
HATCH
  5
43E
330
1F
100
AcDbEntity
  8
Ebene 1
 62
   179
420
  1709851
100
AcDbHatch
 10
0.0
 20
0.0
 30
0.0
210
0.0
220
0.0
230
1.0
  2
SOLID
 70
     1
 71
     0
 91
        1
 92
        1
 93
        3
 72
     1
 10
76.56001245915861
 20
-123.0910223759113
 11
75.96728378092138
 21
-122.5408406269169
 72
     1
 10
75.96728378092138
 20
-122.5408406269169
 11
118.0255262291742
 21
-118.8576890436363
 72
     1
 10
118.0255262291742
 20
-118.8576890436363
 11
76.56001245915861
 21
-123.0910223759113
 97
        0
 75
     2
 76
     1
 98
        0
  0
POLYLINE
  5
43F
330
1F
100
AcDbEntity
  8
Ebene 1
370
     0
100
AcDb2dPolyline
 66
     1
 10
0.0
 20
0.0
 30
0.0
  0
VERTEX
  5
440
330
43F
100
AcDbEntity
  8
Ebene 1
370
     0
100
AcDbVertex
100
AcDb2dVertex
 10
76.56001245915861
 20
-123.0910223759113
 30
0.0
  0
VERTEX
  5
441
330
43F
100
AcDbEntity
  8
Ebene 1
370
     0
100
AcDbVertex
100
AcDb2dVertex
 10
118.0255262291742
 20
-118.8576890436363
 30
0.0
  0
VERTEX
  5
442
330
43F
100
AcDbEntity
  8
Ebene 1
370
     0
100
AcDbVertex
100
AcDb2dVertex
 10
118.6180826526372
 20
-119.4082153021792
 30
0.0
  0
VERTEX
  5
443
330
43F
100
AcDbEntity
  8
Ebene 1
370
     0
100
AcDbVertex
100
AcDb2dVertex
 10
76.56001245915861
 20
-123.0910223759113
 30
0.0
  0
SEQEND
  5
444
330
43F
100
AcDbEntity
  8
Ebene 1
370
     0
  0
HATCH
  5
445
330
1F
100
AcDbEntity
  8
Ebene 1
 62
   179
420
  1709851
100
AcDbHatch
 10
0.0
 20
0.0
 30
0.0
210
0.0
220
0.0
230
1.0
  2
SOLID
 70
     1
 71
     0
 91
        1
 92
        1
 93
        3
 72
     1
 10
76.56001245915861
 20
-123.0910223759113
 11
118.0255262291742
 21
-118.8576890436363
 72
     1
 10
118.0255262291742
 20
-118.8576890436363
 11
118.6180826526372
 21
-119.4082153021792
 72
     1
 10
118.6180826526372
 20
-119.4082153021792
 11
76.56001245915861
 21
-123.0910223759113
 97
        0
 75
     2
 76
     1
 98
        0
  0
POLYLINE
  5
446
330
1F
100
AcDbEntity
  8
Ebene 1
370
     0
100
AcDb2dPolyline
 66
     1
 10
0.0
 20
0.0
 30
0.0
  0
VERTEX
  5
447
330
446
100
AcDbEntity
  8
Ebene 1
370
     0
100
AcDbVertex
100
AcDb2dVertex
 10
118.6180826526372
 20
-119.4082153021792
 30
0.0
  0
VERTEX
  5
448
330
446
100
AcDbEntity
  8
Ebene 1
370
     0
100
AcDbVertex
100
AcDb2dVertex
 10
118.0255262291742
 20
-118.8580335531848
 30
0.0
  0
VERTEX
  5
449
330
446
100
AcDbEntity
  8
Ebene 1
370
     0
100
AcDbVertex
100
AcDb2dVertex
 10
118.0255262291742
 20
-116.4027140008472
 30
0.0
  0
VERTEX
  5
44A
330
446
100
AcDbEntity
  8
Ebene 1
370
     0
100
AcDbVertex
100
AcDb2dVertex
 10
118.6180826526372
 20
-119.4082153021792
 30
0.0
  0
SEQEND
  5
44B
330
446
100
AcDbEntity
  8
Ebene 1
370
     0
  0
HATCH
  5
44C
330
1F
100
AcDbEntity
  8
Ebene 1
 62
   179
420
  1709851
100
AcDbHatch
 10
0.0
 20
0.0
 30
0.0
210
0.0
220
0.0
230
1.0
  2
SOLID
 70
     1
 71
     0
 91
        1
 92
        1
 93
        3
 72
     1
 10
118.6180826526372
 20
-119.4082153021792
 11
118.0255262291742
 21
-118.8580335531848
 72
     1
 10
118.0255262291742
 20
-118.8580335531848
 11
118.0255262291742
 21
-116.4027140008472
 72
     1
 10
118.0255262291742
 20
-116.4027140008472
 11
118.6180826526372
 21
-119.4082153021792
 97
        0
 75
     2
 76
     1
 98
        0
  0
POLYLINE
  5
44D
330
1F
100
AcDbEntity
  8
Ebene 1
370
     0
100
AcDb2dPolyline
 66
     1
 10
0.0
 20
0.0
 30
0.0
  0
VERTEX
  5
44E
330
44D
100
AcDbEntity
  8
Ebene 1
370
     0
100
AcDbVertex
100
AcDb2dVertex
 10
118.6180826526372
 20
-119.4082153021792
 30
0.0
  0
VERTEX
  5
44F
330
44D
100
AcDbEntity
  8
Ebene 1
370
     0
100
AcDbVertex
100
AcDb2dVertex
 10
118.0255262291742
 20
-116.4027140008472
 30
0.0
  0
VERTEX
  5
450
330
44D
100
AcDbEntity
  8
Ebene 1
370
     0
100
AcDbVertex
100
AcDb2dVertex
 10
118.6180826526372
 20
-116.4027140008472
 30
0.0
  0
VERTEX
  5
451
330
44D
100
AcDbEntity
  8
Ebene 1
370
     0
100
AcDbVertex
100
AcDb2dVertex
 10
118.6180826526372
 20
-119.4082153021792
 30
0.0
  0
SEQEND
  5
452
330
44D
100
AcDbEntity
  8
Ebene 1
370
     0
  0
HATCH
  5
453
330
1F
100
AcDbEntity
  8
Ebene 1
 62
   179
420
  1709851
100
AcDbHatch
 10
0.0
 20
0.0
 30
0.0
210
0.0
220
0.0
230
1.0
  2
SOLID
 70
     1
 71
     0
 91
        1
 92
        1
 93
        3
 72
     1
 10
118.6180826526372
 20
-119.4082153021792
 11
118.0255262291742
 21
-116.4027140008472
 72
     1
 10
118.0255262291742
 20
-116.4027140008472
 11
118.6180826526372
 21
-116.4027140008472
 72
     1
 10
118.6180826526372
 20
-116.4027140008472
 11
118.6180826526372
 21
-119.4082153021792
 97
        0
 75
     2
 76
     1
 98
        0
  0
POLYLINE
  5
454
330
1F
100
AcDbEntity
  8
Ebene 1
370
     0
100
AcDb2dPolyline
 66
     1
 10
0.0
 20
0.0
 30
0.0
  0
VERTEX
  5
455
330
454
100
AcDbEntity
  8
Ebene 1
370
     0
100
AcDbVertex
100
AcDb2dVertex
 10
75.96728378092138
 20
-134.8598130630733
 30
0.0
  0
VERTEX
  5
456
330
454
100
AcDbEntity
  8
Ebene 1
370
     0
100
AcDbVertex
100
AcDb2dVertex
 10
76.55984020438434
 20
-133.3994370868758
 30
0.0
  0
VERTEX
  5
457
330
454
100
AcDbEntity
  8
Ebene 1
370
     0
100
AcDbVertex
100
AcDb2dVertex
 10
79.22686087429051
 20
-131.6000637149299
 30
0.0
  0
VERTEX
  5
458
330
454
100
AcDbEntity
  8
Ebene 1
370
     0
100
AcDbVertex
100
AcDb2dVertex
 10
75.96728378092138
 20
-134.8598130630733
 30
0.0
  0
SEQEND
  5
459
330
454
100
AcDbEntity
  8
Ebene 1
370
     0
  0
HATCH
  5
45A
330
1F
100
AcDbEntity
  8
Ebene 1
 62
   179
420
  1709851
100
AcDbHatch
 10
0.0
 20
0.0
 30
0.0
210
0.0
220
0.0
230
1.0
  2
SOLID
 70
     1
 71
     0
 91
        1
 92
        1
 93
        3
 72
     1
 10
75.96728378092138
 20
-134.8598130630733
 11
76.55984020438434
 21
-133.3994370868758
 72
     1
 10
76.55984020438434
 20
-133.3994370868758
 11
79.22686087429051
 21
-131.6000637149299
 72
     1
 10
79.22686087429051
 20
-131.6000637149299
 11
75.96728378092138
 21
-134.8598130630733
 97
        0
 75
     2
 76
     1
 98
        0
  0
POLYLINE
  5
45B
330
1F
100
AcDbEntity
  8
Ebene 1
370
     0
100
AcDb2dPolyline
 66
     1
 10
0.0
 20
0.0
 30
0.0
  0
VERTEX
  5
45C
330
45B
100
AcDbEntity
  8
Ebene 1
370
     0
100
AcDbVertex
100
AcDb2dVertex
 10
76.56001245915861
 20
-133.3994370868758
 30
0.0
  0
VERTEX
  5
45D
330
45B
100
AcDbEntity
  8
Ebene 1
370
     0
100
AcDbVertex
100
AcDb2dVertex
 10
75.96728378092138
 20
-134.8598130630733
 30
0.0
  0
VERTEX
  5
45E
330
45B
100
AcDbEntity
  8
Ebene 1
370
     0
100
AcDbVertex
100
AcDb2dVertex
 10
75.96728378092138
 20
-122.5408406269169
 30
0.0
  0
VERTEX
  5
45F
330
45B
100
AcDbEntity
  8
Ebene 1
370
     0
100
AcDbVertex
100
AcDb2dVertex
 10
76.56001245915861
 20
-133.3994370868758
 30
0.0
  0
SEQEND
  5
460
330
45B
100
AcDbEntity
  8
Ebene 1
370
     0
  0
HATCH
  5
461
330
1F
100
AcDbEntity
  8
Ebene 1
 62
   179
420
  1709851
100
AcDbHatch
 10
0.0
 20
0.0
 30
0.0
210
0.0
220
0.0
230
1.0
  2
SOLID
 70
     1
 71
     0
 91
        1
 92
        1
 93
        3
 72
     1
 10
76.56001245915861
 20
-133.3994370868758
 11
75.96728378092138
 21
-134.8598130630733
 72
     1
 10
75.96728378092138
 20
-134.8598130630733
 11
75.96728378092138
 21
-122.5408406269169
 72
     1
 10
75.96728378092138
 20
-122.5408406269169
 11
76.56001245915861
 21
-133.3994370868758
 97
        0
 75
     2
 76
     1
 98
        0
  0
POLYLINE
  5
462
330
1F
100
AcDbEntity
  8
Ebene 1
370
     0
100
AcDb2dPolyline
 66
     1
 10
0.0
 20
0.0
 30
0.0
  0
VERTEX
  5
463
330
462
100
AcDbEntity
  8
Ebene 1
370
     0
100
AcDbVertex
100
AcDb2dVertex
 10
79.22686087429051
 20
-131.6004082244784
 30
0.0
  0
VERTEX
  5
464
330
462
100
AcDbEntity
  8
Ebene 1
370
     0
100
AcDbVertex
100
AcDb2dVertex
 10
76.56001245915861
 20
-133.3994370868758
 30
0.0
  0
VERTEX
  5
465
330
462
100
AcDbEntity
  8
Ebene 1
370
     0
100
AcDbVertex
100
AcDb2dVertex
 10
78.80363089392756
 20
-131.1770059893412
 30
0.0
  0
VERTEX
  5
466
330
462
100
AcDbEntity
  8
Ebene 1
370
     0
100
AcDbVertex
100
AcDb2dVertex
 10
79.22686087429051
 20
-131.6004082244784
 30
0.0
  0
SEQEND
  5
467
330
462
100
AcDbEntity
  8
Ebene 1
370
     0
  0
HATCH
  5
468
330
1F
100
AcDbEntity
  8
Ebene 1
 62
   179
420
  1709851
100
AcDbHatch
 10
0.0
 20
0.0
 30
0.0
210
0.0
220
0.0
230
1.0
  2
SOLID
 70
     1
 71
     0
 91
        1
 92
        1
 93
        3
 72
     1
 10
79.22686087429051
 20
-131.6004082244784
 11
76.56001245915861
 21
-133.3994370868758
 72
     1
 10
76.56001245915861
 20
-133.3994370868758
 11
78.80363089392756
 21
-131.1770059893412
 72
     1
 10
78.80363089392756
 20
-131.1770059893412
 11
79.22686087429051
 21
-131.6004082244784
 97
        0
 75
     2
 76
     1
 98
        0
  0
INSERT
  5
46A
330
1F
100
AcDbEntity
  8
Ebene 1
100
AcDbBlockReference
  2
block 3
 10
0.0
 20
0.0
 30
0.0
  0
POLYLINE
  5
4F1
330
1F
100
AcDbEntity
  8
Ebene 1
 62
   179
420
  1709851
370
    50
100
AcDb2dPolyline
 66
     1
 10
0.0
 20
0.0
 30
0.0
  0
VERTEX
  5
4F2
330
4F1
100
AcDbEntity
  8
Ebene 1
 62
   179
420
  1709851
370
    50
100
AcDbVertex
100
AcDb2dVertex
 10
158.2208332937781
 20
-126.2026326181889
 30
0.0
  0
VERTEX
  5
4F3
330
4F1
100
AcDbEntity
  8
Ebene 1
 62
   179
420
  1709851
370
    50
100
AcDbVertex
100
AcDb2dVertex
 10
98.21329885782515
 20
-126.2026326181889
 30
0.0
  0
SEQEND
  5
4F4
330
4F1
100
AcDbEntity
  8
Ebene 1
370
    50
  0
POLYLINE
  5
4F5
330
1F
100
AcDbEntity
  8
Ebene 1
 62
   179
420
  1709851
370
    25
100
AcDb2dPolyline
 66
     1
 10
0.0
 20
0.0
 30
0.0
  0
VERTEX
  5
4F6
330
4F5
100
AcDbEntity
  8
Ebene 1
 62
   179
420
  1709851
370
    25
100
AcDbVertex
100
AcDb2dVertex
 10
134.0059461470541
 20
-112.4653143707552
 30
0.0
  0
VERTEX
  5
4F7
330
4F5
100
AcDbEntity
  8
Ebene 1
 62
   179
420
  1709851
370
    25
100
AcDbVertex
100
AcDb2dVertex
 10
134.0059461470541
 20
-96.46353486086676
 30
0.0
  0
SEQEND
  5
4F8
330
4F5
100
AcDbEntity
  8
Ebene 1
370
    25
  0
POLYLINE
  5
4F9
330
1F
100
AcDbEntity
  8
Ebene 1
 62
   179
420
  1709851
370
    25
100
AcDb2dPolyline
 66
     1
 10
0.0
 20
0.0
 30
0.0
  0
VERTEX
  5
4FA
330
4F9
100
AcDbEntity
  8
Ebene 1
 62
   179
420
  1709851
370
    25
100
AcDbVertex
100
AcDb2dVertex
 10
122.0049560241863
 20
-107.4702704266915
 30
0.0
  0
VERTEX
  5
4FB
330
4F9
100
AcDbEntity
  8
Ebene 1
 62
   179
420
  1709851
370
    25
100
AcDbVertex
100
AcDb2dVertex
 10
122.0049560241863
 20
-96.46353486086676
 30
0.0
  0
SEQEND
  5
4FC
330
4F9
100
AcDbEntity
  8
Ebene 1
370
    25
  0
POLYLINE
  5
4FD
330
1F
100
AcDbEntity
  8
Ebene 1
 62
   179
420
  1709851
370
    25
100
AcDb2dPolyline
 66
     1
 10
0.0
 20
0.0
 30
0.0
  0
VERTEX
  5
4FE
330
4FD
100
AcDbEntity
  8
Ebene 1
 62
   179
420
  1709851
370
    25
100
AcDbVertex
100
AcDb2dVertex
 10
134.0059461470541
 20
-96.46353486086676
 30
0.0
  0
VERTEX
  5
4FF
330
4FD
100
AcDbEntity
  8
Ebene 1
 62
   179
420
  1709851
370
    25
100
AcDbVertex
100
AcDb2dVertex
 10
122.0049560241863
 20
-96.46353486086676
 30
0.0
  0
SEQEND
  5
500
330
4FD
100
AcDbEntity
  8
Ebene 1
370
    25
  0
POLYLINE
  5
501
330
1F
100
AcDbEntity
  8
Ebene 1
 62
   179
420
  1709851
370
    25
100
AcDb2dPolyline
 66
     1
 10
0.0
 20
0.0
 30
0.0
  0
VERTEX
  5
502
330
501
100
AcDbEntity
  8
Ebene 1
 62
   179
420
  1709851
370
    25
100
AcDbVertex
100
AcDb2dVertex
 10
131.0218044377307
 20
-112.4653143707552
 30
0.0
  0
VERTEX
  5
503
330
501
100
AcDbEntity
  8
Ebene 1
 62
   179
420
  1709851
370
    25
100
AcDbVertex
100
AcDb2dVertex
 10
134.0059461470541
 20
-112.4653143707552
 30
0.0
  0
SEQEND
  5
504
330
501
100
AcDbEntity
  8
Ebene 1
370
    25
  0
POLYLINE
  5
505
330
1F
100
AcDbEntity
  8
Ebene 1
 62
   179
420
  1709851
370
    25
100
AcDb2dPolyline
 66
     1
 10
0.0
 20
0.0
 30
0.0
  0
VERTEX
  5
506
330
505
100
AcDbEntity
  8
Ebene 1
 62
   179
420
  1709851
370
    25
100
AcDbVertex
100
AcDb2dVertex
 10
131.0218044377307
 20
-107.4702704266915
 30
0.0
  0
VERTEX
  5
507
330
505
100
AcDbEntity
  8
Ebene 1
 62
   179
420
  1709851
370
    25
100
AcDbVertex
100
AcDb2dVertex
 10
119.0204698053143
 20
-107.4702704266915
 30
0.0
  0
SEQEND
  5
508
330
505
100
AcDbEntity
  8
Ebene 1
370
    25
  0
POLYLINE
  5
509
330
1F
100
AcDbEntity
  8
Ebene 1
 62
   179
420
  1709851
370
    25
100
AcDb2dPolyline
 66
     1
 10
0.0
 20
0.0
 30
0.0
  0
VERTEX
  5
50A
330
509
100
AcDbEntity
  8
Ebene 1
 62
   179
420
  1709851
370
    25
100
AcDbVertex
100
AcDb2dVertex
 10
119.0204698053143
 20
-113.523647703824
 30
0.0
  0
VERTEX
  5
50B
330
509
100
AcDbEntity
  8
Ebene 1
 62
   179
420
  1709851
370
    25
100
AcDbVertex
100
AcDb2dVertex
 10
119.0204698053143
 20
-126.2029771277375
 30
0.0
  0
SEQEND
  5
50C
330
509
100
AcDbEntity
  8
Ebene 1
370
    25
  0
POLYLINE
  5
50D
330
1F
100
AcDbEntity
  8
Ebene 1
 62
   179
420
  1709851
370
    18
100
AcDb2dPolyline
 66
     1
 10
0.0
 20
0.0
 30
0.0
  0
VERTEX
  5
50E
330
50D
100
AcDbEntity
  8
Ebene 1
 62
   179
420
  1709851
370
    18
100
AcDbVertex
100
AcDb2dVertex
 10
119.0204698053143
 20
-68.46007620901345
 30
0.0
  0
VERTEX
  5
50F
330
50D
100
AcDbEntity
  8
Ebene 1
 62
   179
420
  1709851
370
    18
100
AcDbVertex
100
AcDb2dVertex
 10
119.0204698053143
 20
-107.4702704266915
 30
0.0
  0
SEQEND
  5
510
330
50D
100
AcDbEntity
  8
Ebene 1
370
    18
  0
POLYLINE
  5
511
330
1F
100
AcDbEntity
  8
Ebene 1
 62
   179
420
  1709851
370
    18
100
AcDb2dPolyline
 66
     1
 10
0.0
 20
0.0
 30
0.0
  0
VERTEX
  5
512
330
511
100
AcDbEntity
  8
Ebene 1
 62
   179
420
  1709851
370
    18
100
AcDbVertex
100
AcDb2dVertex
 10
122.0046115146377
 20
-68.46007620901345
 30
0.0
  0
VERTEX
  5
513
330
511
100
AcDbEntity
  8
Ebene 1
 62
   179
420
  1709851
370
    18
100
AcDbVertex
100
AcDb2dVertex
 10
122.0046115146377
 20
-96.46353486086676
 30
0.0
  0
SEQEND
  5
514
330
511
100
AcDbEntity
  8
Ebene 1
370
    18
  0
POLYLINE
  5
515
330
1F
100
AcDbEntity
  8
Ebene 1
 62
   179
420
  1709851
370
    18
100
AcDb2dPolyline
 66
     1
 10
0.0
 20
0.0
 30
0.0
  0
VERTEX
  5
516
330
515
100
AcDbEntity
  8
Ebene 1
 62
   179
420
  1709851
370
    18
100
AcDbVertex
100
AcDb2dVertex
 10
134.0062906566026
 20
-68.46007620901345
 30
0.0
  0
VERTEX
  5
517
330
515
100
AcDbEntity
  8
Ebene 1
 62
   179
420
  1709851
370
    18
100
AcDbVertex
100
AcDb2dVertex
 10
134.0062906566026
 20
-96.46353486086676
 30
0.0
  0
SEQEND
  5
518
330
515
100
AcDbEntity
  8
Ebene 1
370
    18
  0
INSERT
  5
51A
330
1F
100
AcDbEntity
  8
Ebene 1
100
AcDbBlockReference
  2
block 4
 10
0.0
 20
0.0
 30
0.0
  0
POLYLINE
  5
530
330
1F
100
AcDbEntity
  8
Ebene 1
 62
   179
420
  1709851
370
    18
100
AcDb2dPolyline
 66
     1
 10
0.0
 20
0.0
 30
0.0
  0
VERTEX
  5
531
330
530
100
AcDbEntity
  8
Ebene 1
 62
   179
420
  1709851
370
    18
100
AcDbVertex
100
AcDb2dVertex
 10
158.2208332937781
 20
-68.46007620901345
 30
0.0
  0
VERTEX
  5
532
330
530
100
AcDbEntity
  8
Ebene 1
 62
   179
420
  1709851
370
    18
100
AcDbVertex
100
AcDb2dVertex
 10
158.2208332937781
 20
-120.212645097985
 30
0.0
  0
SEQEND
  5
533
330
530
100
AcDbEntity
  8
Ebene 1
370
    18
  0
INSERT
  5
535
330
1F
100
AcDbEntity
  8
Ebene 1
100
AcDbBlockReference
  2
block 5
 10
0.0
 20
0.0
 30
0.0
  0
POLYLINE
  5
5FE
330
1F
100
AcDbEntity
  8
Ebene 1
 62
   179
420
  1709851
370
    25
100
AcDb2dPolyline
 66
     1
 10
0.0
 20
0.0
 30
0.0
  0
VERTEX
  5
5FF
330
5FE
100
AcDbEntity
  8
Ebene 1
 62
   179
420
  1709851
370
    25
100
AcDbVertex
100
AcDb2dVertex
 10
83.22747800653688
 20
-126.2026326181889
 30
0.0
  0
VERTEX
  5
600
330
5FE
100
AcDbEntity
  8
Ebene 1
 62
   179
420
  1709851
370
    25
100
AcDbVertex
100
AcDb2dVertex
 10
86.82570798610608
 20
-126.2026326181889
 30
0.0
  0
SEQEND
  5
601
330
5FE
100
AcDbEntity
  8
Ebene 1
370
    25
  0
INSERT
  5
603
330
1F
100
AcDbEntity
  8
Ebene 1
100
AcDbBlockReference
  2
block 6
 10
0.0
 20
0.0
 30
0.0
  0
ENDSEC
  0
SECTION
  2
OBJECTS
  0
DICTIONARY
  5
C
330
0
100
AcDbDictionary
281
     1
  3
ACAD_GROUP
350
D
  3
ACAD_LAYOUT
350
1A
  3
ACAD_MLINESTYLE
350
17
  3
ACAD_PLOTSETTINGS
350
19
  3
ACAD_PLOTSTYLENAME
350
E
  3
ACAD_TABLESTYLE
350
725
  3
ACAD_VISUALSTYLE
350
2A
  0
DICTIONARY
  5
D
102
{ACAD_REACTORS
330
C
102
}
330
C
100
AcDbDictionary
281
     1
  0
DICTIONARY
  5
1A
102
{ACAD_REACTORS
330
C
102
}
330
C
100
AcDbDictionary
281
     1
  3
Layout1
350
1E
  3
Layout2
350
26
  3
Model
350
22
  0
DICTIONARY
  5
17
102
{ACAD_REACTORS
330
C
102
}
330
C
100
AcDbDictionary
281
     1
  3
Standard
350
18
  0
DICTIONARY
  5
19
102
{ACAD_REACTORS
330
C
102
}
330
C
100
AcDbDictionary
281
     1
  0
ACDBDICTIONARYWDFLT
  5
E
102
{ACAD_REACTORS
330
C
102
}
330
C
100
AcDbDictionary
281
     1
  3
Normal
350
F
100
AcDbDictionaryWithDefault
340
F
  0
DICTIONARY
  5
725
102
{ACAD_REACTORS
330
C
102
}
330
C
100
AcDbDictionary
281
     1
  0
DICTIONARY
  5
2A
102
{ACAD_REACTORS
330
C
102
}
330
C
100
AcDbDictionary
281
     1
  3
2dWireframe
350
2F
  3
3D Hidden
350
31
  3
3dWireframe
350
30
  3
Basic
350
32
  3
Brighten
350
36
  3
ColorChange
350
3A
  3
Conceptual
350
34
  3
Dim
350
35
  3
Facepattern
350
39
  3
Flat
350
2B
  3
FlatWithEdges
350
2C
  3
Gouraud
350
2D
  3
GouraudWithEdges
350
2E
  3
Linepattern
350
38
  3
Realistic
350
33
  3
Thicken
350
37
  0
LAYOUT
  5
1E
102
{ACAD_REACTORS
330
1A
102
}
330
1A
100
AcDbPlotSettings
  1

  2
none_device
  4

  6

 40
0.0
 41
0.0
 42
0.0
 43
0.0
 44
0.0
 45
0.0
 46
0.0
 47
0.0
 48
0.0
 49
0.0
140
0.0
141
0.0
142
1.0
143
1.0
 70
   688
 72
     0
 73
     0
 74
     5
  7

 75
    16
 76
     0
 77
     2
 78
   300
147
1.0
148
0.0
149
0.0
100
AcDbLayout
  1
Layout1
 70
     1
 71
     1
 10
0.0
 20
0.0
 11
12.0
 21
9.0
 12
0.0
 22
0.0
 32
0.0
 14
1.000000000000000E+20
 24
1.000000000000000E+20
 34
1.000000000000000E+20
 15
-1.000000000000000E+20
 25
-1.000000000000000E+20
 35
-1.000000000000000E+20
146
0.0
 13
0.0
 23
0.0
 33
0.0
 16
1.0
 26
0.0
 36
0.0
 17
0.0
 27
1.0
 37
0.0
 76
     0
330
1B
  0
LAYOUT
  5
26
102
{ACAD_REACTORS
330
1A
102
}
330
1A
100
AcDbPlotSettings
  1

  2
none_device
  4

  6

 40
0.0
 41
0.0
 42
0.0
 43
0.0
 44
0.0
 45
0.0
 46
0.0
 47
0.0
 48
0.0
 49
0.0
140
0.0
141
0.0
142
1.0
143
1.0
 70
   688
 72
     0
 73
     0
 74
     5
  7

 75
    16
 76
     0
 77
     2
 78
   300
147
1.0
148
0.0
149
0.0
100
AcDbLayout
  1
Layout2
 70
     1
 71
     2
 10
0.0
 20
0.0
 11
0.0
 21
0.0
 12
0.0
 22
0.0
 32
0.0
 14
0.0
 24
0.0
 34
0.0
 15
0.0
 25
0.0
 35
0.0
146
0.0
 13
0.0
 23
0.0
 33
0.0
 16
1.0
 26
0.0
 36
0.0
 17
0.0
 27
1.0
 37
0.0
 76
     0
330
23
  0
LAYOUT
  5
22
102
{ACAD_REACTORS
330
1A
102
}
330
1A
100
AcDbPlotSettings
  1

  2
none_device
  4

  6

 40
0.0
 41
0.0
 42
0.0
 43
0.0
 44
0.0
 45
0.0
 46
0.0
 47
0.0
 48
0.0
 49
0.0
140
0.0
141
0.0
142
1.0
143
1.0
 70
  1712
 72
     0
 73
     0
 74
     0
  7

 75
     0
 76
     0
 77
     2
 78
   300
147
1.0
148
0.0
149
0.0
100
AcDbLayout
  1
Model
 70
     1
 71
     0
 10
0.0
 20
0.0
 11
12.0
 21
9.0
 12
0.0
 22
0.0
 32
0.0
 14
1.000000000000000E+20
 24
1.000000000000000E+20
 34
1.000000000000000E+20
 15
-1.000000000000000E+20
 25
-1.000000000000000E+20
 35
-1.000000000000000E+20
146
0.0
 13
0.0
 23
0.0
 33
0.0
 16
1.0
 26
0.0
 36
0.0
 17
0.0
 27
1.0
 37
0.0
 76
     0
330
1F
331
29
  0
MLINESTYLE
  5
18
102
{ACAD_REACTORS
330
17
102
}
330
17
100
AcDbMlineStyle
  2
Standard
 70
     0
  3

 62
   256
 51
90.0
 52
90.0
 71
     2
 49
0.5
 62
   256
  6
BYLAYER
 49
-0.5
 62
   256
  6
BYLAYER
  0
ACDBPLACEHOLDER
  5
F
102
{ACAD_REACTORS
330
E
102
}
330
E
  0
VISUALSTYLE
  5
2F
102
{ACAD_REACTORS
330
2A
102
}
330
2A
100
AcDbVisualStyle
  2
2dWireframe
 70
     4
 71
     0
 72
     2
 73
     0
 90
        0
 40
-0.6
 41
-30.0
 62
     5
 63
     7
421
 16777215
 74
     1
 91
        4
 64
     7
 65
   257
 75
     1
175
     1
 42
1.0
 92
        0
 66
   257
 43
1.0
 76
     1
 77
     6
 78
     2
 67
     7
 79
     5
170
     0
171
     0
290
     0
174
     0
 93
        1
 44
0.0
173
     0
291
     0
 45
0.0
1001
ACAD
1000
AcDbSavedByObjectVersion
1070
     0
  0
VISUALSTYLE
  5
31
102
{ACAD_REACTORS
330
2A
102
}
330
2A
100
AcDbVisualStyle
  2
3D Hidden
 70
     6
 71
     1
 72
     2
 73
     2
 90
        0
 40
-0.6
 41
-30.0
 62
     5
 63
     7
421
 16777215
 74
     2
 91
        2
 64
     7
 65
   257
 75
     2
175
     1
 42
40.0
 92
        0
 66
   257
 43
1.0
 76
     1
 77
     6
 78
     2
 67
     7
 79
     3
170
     0
171
     0
290
     0
174
     0
 93
        1
 44
0.0
173
     0
291
     0
 45
0.0
1001
ACAD
1000
AcDbSavedByObjectVersion
1070
     0
  0
VISUALSTYLE
  5
30
102
{ACAD_REACTORS
330
2A
102
}
330
2A
100
AcDbVisualStyle
  2
3dWireframe
 70
     5
 71
     0
 72
     2
 73
     0
 90
        0
 40
-0.6
 41
-30.0
 62
     5
 63
     7
421
 16777215
 74
     1
 91
        4
 64
     7
 65
   257
 75
     1
175
     1
 42
1.0
 92
        0
 66
   257
 43
1.0
 76
     1
 77
     6
 78
     2
 67
     7
 79
     5
170
     0
171
     0
290
     0
174
     0
 93
        1
 44
0.0
173
     0
291
     0
 45
0.0
1001
ACAD
1000
AcDbSavedByObjectVersion
1070
     0
  0
VISUALSTYLE
  5
32
102
{ACAD_REACTORS
330
2A
102
}
330
2A
100
AcDbVisualStyle
  2
Basic
 70
     7
 71
     1
 72
     0
 73
     1
 90
        0
 40
-0.6
 41
-30.0
 62
     5
 63
     7
421
 16777215
 74
     0
 91
        4
 64
     7
 65
   257
 75
     1
175
     1
 42
1.0
 92
        8
 66
     7
 43
1.0
 76
     1
 77
     6
 78
     2
 67
     7
 79
     5
170
     0
171
     0
290
     0
174
     0
 93
        1
 44
0.0
173
     0
291
     1
 45
0.0
1001
ACAD
1000
AcDbSavedByObjectVersion
1070
     0
  0
VISUALSTYLE
  5
36
102
{ACAD_REACTORS
330
2A
102
}
330
2A
100
AcDbVisualStyle
  2
Brighten
 70
    12
 71
     2
 72
     2
 73
     0
 90
        0
 40
-0.6
 41
-30.0
 62
     5
 63
     7
421
 16777215
 74
     1
 91
        4
 64
     7
 65
   257
 75
     1
175
     1
 42
1.0
 92
        8
 66
     7
 43
1.0
 76
     1
 77
     6
 78
     2
 67
     7
 79
     5
170
     0
171
     0
290
     0
174
     0
 93
        1
 44
50.0
173
     0
291
     1
 45
0.0
1001
ACAD
1000
AcDbSavedByObjectVersion
1070
     0
  0
VISUALSTYLE
  5
3A
102
{ACAD_REACTORS
330
2A
102
}
330
2A
100
AcDbVisualStyle
  2
ColorChange
 70
    16
 71
     2
 72
     2
 73
     3
 90
        0
 40
-0.6
 41
-30.0
 62
     5
 63
     8
421
  8421504
 74
     1
 91
        4
 64
     7
 65
   257
 75
     1
175
     1
 42
1.0
 92
        8
 66
     8
424
  8421504
 43
1.0
 76
     1
 77
     6
 78
     2
 67
     7
 79
     5
170
     0
171
     0
290
     0
174
     0
 93
        1
 44
0.0
173
     0
291
     1
 45
0.0
1001
ACAD
1000
AcDbSavedByObjectVersion
1070
     0
  0
VISUALSTYLE
  5
34
102
{ACAD_REACTORS
330
2A
102
}
330
2A
100
AcDbVisualStyle
  2
Conceptual
 70
     9
 71
     3
 72
     2
 73
     0
 90
        0
 40
-0.6
 41
-30.0
 62
     5
 63
     7
421
 16777215
 74
     2
 91
        2
 64
     7
 65
   257
 75
     1
175
     1
 42
40.0
 92
        8
 66
     7
 43
1.0
 76
     1
 77
     6
 78
     2
 67
     7
 79
     3
170
     0
171
     0
290
     0
174
     0
 93
        1
 44
0.0
173
     0
291
     0
 45
0.0
1001
ACAD
1000
AcDbSavedByObjectVersion
1070
     0
  0
VISUALSTYLE
  5
35
102
{ACAD_REACTORS
330
2A
102
}
330
2A
100
AcDbVisualStyle
  2
Dim
 70
    11
 71
     2
 72
     2
 73
     0
 90
        0
 40
-0.6
 41
-30.0
 62
     5
 63
     7
421
 16777215
 74
     1
 91
        4
 64
     7
 65
   257
 75
     1
175
     1
 42
1.0
 92
        8
 66
     7
 43
1.0
 76
     1
 77
     6
 78
     2
 67
     7
 79
     5
170
     0
171
     0
290
     0
174
     0
 93
        1
 44
-50.0
173
     0
291
     1
 45
0.0
1001
ACAD
1000
AcDbSavedByObjectVersion
1070
     0
  0
VISUALSTYLE
  5
39
102
{ACAD_REACTORS
330
2A
102
}
330
2A
100
AcDbVisualStyle
  2
Facepattern
 70
    15
 71
     2
 72
     2
 73
     0
 90
        0
 40
-0.6
 41
-30.0
 62
     5
 63
     7
421
 16777215
 74
     1
 91
        4
 64
     7
 65
   257
 75
     1
175
     1
 42
1.0
 92
        8
 66
     7
 43
1.0
 76
     1
 77
     6
 78
     2
 67
     7
 79
     5
170
     0
171
     0
290
     0
174
     0
 93
        1
 44
0.0
173
     0
291
     1
 45
0.0
1001
ACAD
1000
AcDbSavedByObjectVersion
1070
     0
  0
VISUALSTYLE
  5
2B
102
{ACAD_REACTORS
330
2A
102
}
330
2A
100
AcDbVisualStyle
  2
Flat
 70
     0
 71
     2
 72
     1
 73
     1
 90
        2
 40
-0.6
 41
30.0
 62
     5
 63
     7
421
 16777215
 74
     0
 91
        4
 64
     7
 65
   257
 75
     1
175
     1
 42
1.0
 92
        8
 66
     7
 43
1.0
 76
     1
 77
     6
 78
     2
 67
     7
 79
     5
170
     0
171
     0
290
     0
174
     0
 93
       13
 44
0.0
173
     0
291
     1
 45
0.0
1001
ACAD
1000
AcDbSavedByObjectVersion
1070
     0
  0
VISUALSTYLE
  5
2C
102
{ACAD_REACTORS
330
2A
102
}
330
2A
100
AcDbVisualStyle
  2
FlatWithEdges
 70
     1
 71
     2
 72
     1
 73
     1
 90
        2
 40
-0.6
 41
30.0
 62
     5
 63
     7
421
 16777215
 74
     1
 91
        4
 64
     7
 65
   257
 75
     1
175
     1
 42
1.0
 92
        0
 66
   257
 43
1.0
 76
     1
 77
     6
 78
     2
 67
     7
 79
     5
170
     0
171
     0
290
     0
174
     0
 93
       13
 44
0.0
173
     0
291
     1
 45
0.0
1001
ACAD
1000
AcDbSavedByObjectVersion
1070
     0
  0
VISUALSTYLE
  5
2D
102
{ACAD_REACTORS
330
2A
102
}
330
2A
100
AcDbVisualStyle
  2
Gouraud
 70
     2
 71
     2
 72
     2
 73
     1
 90
        2
 40
-0.6
 41
30.0
 62
     5
 63
     7
421
 16777215
 74
     0
 91
        4
 64
     7
 65
   257
 75
     1
175
     1
 42
1.0
 92
        0
 66
     7
 43
1.0
 76
     1
 77
     6
 78
     2
 67
     7
 79
     5
170
     0
171
     0
290
     0
174
     0
 93
       13
 44
0.0
173
     0
291
     1
 45
0.0
1001
ACAD
1000
AcDbSavedByObjectVersion
1070
     0
  0
VISUALSTYLE
  5
2E
102
{ACAD_REACTORS
330
2A
102
}
330
2A
100
AcDbVisualStyle
  2
GouraudWithEdges
 70
     3
 71
     2
 72
     2
 73
     1
 90
        2
 40
-0.6
 41
30.0
 62
     5
 63
     7
421
 16777215
 74
     1
 91
        4
 64
     7
 65
   257
 75
     1
175
     1
 42
1.0
 92
        0
 66
   257
 43
1.0
 76
     1
 77
     6
 78
     2
 67
     7
 79
     5
170
     0
171
     0
290
     0
174
     0
 93
       13
 44
0.0
173
     0
291
     1
 45
0.0
1001
ACAD
1000
AcDbSavedByObjectVersion
1070
     0
  0
VISUALSTYLE
  5
38
102
{ACAD_REACTORS
330
2A
102
}
330
2A
100
AcDbVisualStyle
  2
Linepattern
 70
    14
 71
     2
 72
     2
 73
     0
 90
        0
 40
-0.6
 41
-30.0
 62
     5
 63
     7
421
 16777215
 74
     1
 91
        4
 64
     7
 65
   257
 75
     7
175
     7
 42
1.0
 92
        8
 66
     7
 43
1.0
 76
     1
 77
     6
 78
     2
 67
     7
 79
     5
170
     0
171
     0
290
     0
174
     0
 93
        1
 44
0.0
173
     0
291
     1
 45
0.0
1001
ACAD
1000
AcDbSavedByObjectVersion
1070
     0
  0
VISUALSTYLE
  5
33
102
{ACAD_REACTORS
330
2A
102
}
330
2A
100
AcDbVisualStyle
  2
Realistic
 70
     8
 71
     2
 72
     2
 73
     0
 90
        0
 40
-0.6
 41
-30.0
 62
     5
 63
     7
421
 16777215
 74
     1
 91
        0
 64
     7
 65
   257
 75
     1
175
     1
 42
1.0
 92
        8
 66
     8
424
  7895160
 43
1.0
 76
     1
 77
     6
 78
     2
 67
     7
 79
     5
170
     0
171
     0
290
     0
174
     0
 93
       13
 44
0.0
173
     0
291
     0
 45
0.0
1001
ACAD
1000
AcDbSavedByObjectVersion
1070
     0
  0
VISUALSTYLE
  5
37
102
{ACAD_REACTORS
330
2A
102
}
330
2A
100
AcDbVisualStyle
  2
Thicken
 70
    13
 71
     2
 72
     2
 73
     0
 90
        0
 40
-0.6
 41
-30.0
 62
     5
 63
     7
421
 16777215
 74
     1
 91
        4
 64
     7
 65
   257
 75
     1
175
     1
 42
1.0
 92
       12
 66
     7
 43
1.0
 76
     1
 77
     6
 78
     2
 67
     7
 79
     5
170
     0
171
     0
290
     0
174
     0
 93
        1
 44
0.0
173
     0
291
     1
 45
0.0
1001
ACAD
1000
AcDbSavedByObjectVersion
1070
     0
  0
ENDSEC
  0
EOF
