  0
SECTION
  2
HEADER
  9
$ACADVER
  1
AC1018
  9
$ACADMAINTVER
 70
     0
  9
$DWGCODEPAGE
  3
ANSI_932
  9
$INSBASE
 10
0.0
 20
0.0
 30
0.0
  9
$EXTMIN
 10
1.000000000000000E+20
 20
1.000000000000000E+20
 30
1.000000000000000E+20
  9
$EXTMAX
 10
-1.000000000000000E+20
 20
-1.000000000000000E+20
 30
-1.000000000000000E+20
  9
$LIMMIN
 10
0.0
 20
0.0
  9
$LIMMAX
 10
12.0
 20
9.0
  9
$ORTHOMODE
 70
     0
  9
$REGENMODE
 70
     1
  9
$FILLMODE
 70
     1
  9
$QTEXTMODE
 70
     0
  9
$MIRRTEXT
 70
     1
  9
$LTSCALE
 40
1.0
  9
$ATTMODE
 70
     1
  9
$TEXTSIZE
 40
0.2
  9
$TRACEWID
 40
0.05
  9
$TEXTSTYLE
  7
Standard
  9
$CLAYER
  8
0
  9
$CELTYPE
  6
ByLayer
  9
$CECOLOR
 62
   256
  9
$CELTSCALE
 40
1.0
  9
$DISPSILH
 70
     0
  9
$DIMSCALE
 40
1.0
  9
$DIMASZ
 40
0.18
  9
$DIMEXO
 40
0.0625
  9
$DIMDLI
 40
0.38
  9
$DIMRND
 40
0.0
  9
$DIMDLE
 40
0.0
  9
$DIMEXE
 40
0.18
  9
$DIMTP
 40
0.0
  9
$DIMTM
 40
0.0
  9
$DIMTXT
 40
0.18
  9
$DIMCEN
 40
0.09
  9
$DIMTSZ
 40
0.0
  9
$DIMTOL
 70
     0
  9
$DIMLIM
 70
     0
  9
$DIMTIH
 70
     1
  9
$DIMTOH
 70
     1
  9
$DIMSE1
 70
     0
  9
$DIMSE2
 70
     0
  9
$DIMTAD
 70
     0
  9
$DIMZIN
 70
     0
  9
$DIMBLK
  1

  9
$DIMASO
 70
     1
  9
$DIMSHO
 70
     1
  9
$DIMPOST
  1

  9
$DIMAPOST
  1

  9
$DIMALT
 70
     0
  9
$DIMALTD
 70
     2
  9
$DIMALTF
 40
25.4
  9
$DIMLFAC
 40
1.0
  9
$DIMTOFL
 70
     0
  9
$DIMTVP
 40
0.0
  9
$DIMTIX
 70
     0
  9
$DIMSOXD
 70
     0
  9
$DIMSAH
 70
     0
  9
$DIMBLK1
  1

  9
$DIMBLK2
  1

  9
$DIMSTYLE
  2
Standard
  9
$DIMCLRD
 70
     0
  9
$DIMCLRE
 70
     0
  9
$DIMCLRT
 70
     0
  9
$DIMTFAC
 40
1.0
  9
$DIMGAP
 40
0.09
  9
$DIMJUST
 70
     0
  9
$DIMSD1
 70
     0
  9
$DIMSD2
 70
     0
  9
$DIMTOLJ
 70
     1
  9
$DIMTZIN
 70
     0
  9
$DIMALTZ
 70
     0
  9
$DIMALTTZ
 70
     0
  9
$DIMUPT
 70
     0
  9
$DIMDEC
 70
     4
  9
$DIMTDEC
 70
     4
  9
$DIMALTU
 70
     2
  9
$DIMALTTD
 70
     2
  9
$DIMTXSTY
  7
Standard
  9
$DIMAUNIT
 70
     0
  9
$DIMADEC
 70
     0
  9
$DIMALTRND
 40
0.0
  9
$DIMAZIN
 70
     0
  9
$DIMDSEP
 70
    46
  9
$DIMATFIT
 70
     3
  9
$DIMFRAC
 70
     0
  9
$DIMLDRBLK
  1

  9
$DIMLUNIT
 70
     2
  9
$DIMLWD
 70
    -2
  9
$DIMLWE
 70
    -2
  9
$DIMTMOVE
 70
     0
  9
$LUNITS
 70
     2
  9
$LUPREC
 70
     4
  9
$SKETCHINC
 40
0.1
  9
$FILLETRAD
 40
0.5
  9
$AUNITS
 70
     0
  9
$AUPREC
 70
     0
  9
$MENU
  1
.
  9
$ELEVATION
 40
0.0
  9
$PELEVATION
 40
0.0
  9
$THICKNESS
 40
0.0
  9
$LIMCHECK
 70
     0
  9
$CHAMFERA
 40
0.5
  9
$CHAMFERB
 40
0.5
  9
$CHAMFERC
 40
1.0
  9
$CHAMFERD
 40
0.0
  9
$SKPOLY
 70
     0
  9
$TDCREATE
 40
2456077.6075
  9
$TDUCREATE
 40
2456077.565833333
  9
$TDUPDATE
 40
2456077.607500012
  9
$TDUUPDATE
 40
2456077.565833345
  9
$TDINDWG
 40
0.0000000116
  9
$TDUSRTIMER
 40
0.0000000116
  9
$USRTIMER
 70
     1
  9
$ANGBASE
 50
0.0
  9
$ANGDIR
 70
     0
  9
$PDMODE
 70
     0
  9
$PDSIZE
 40
0.0
  9
$PLINEWID
 40
0.0
  9
$SPLFRAME
 70
     0
  9
$SPLINETYPE
 70
     6
  9
$SPLINESEGS
 70
     8
  9
$HANDSEED
  5
6C2
  9
$SURFTAB1
 70
     6
  9
$SURFTAB2
 70
     6
  9
$SURFTYPE
 70
     6
  9
$SURFU
 70
     6
  9
$SURFV
 70
     6
  9
$UCSBASE
  2

  9
$UCSNAME
  2

  9
$UCSORG
 10
0.0
 20
0.0
 30
0.0
  9
$UCSXDIR
 10
1.0
 20
0.0
 30
0.0
  9
$UCSYDIR
 10
0.0
 20
1.0
 30
0.0
  9
$UCSORTHOREF
  2

  9
$UCSORTHOVIEW
 70
     0
  9
$UCSORGTOP
 10
0.0
 20
0.0
 30
0.0
  9
$UCSORGBOTTOM
 10
0.0
 20
0.0
 30
0.0
  9
$UCSORGLEFT
 10
0.0
 20
0.0
 30
0.0
  9
$UCSORGRIGHT
 10
0.0
 20
0.0
 30
0.0
  9
$UCSORGFRONT
 10
0.0
 20
0.0
 30
0.0
  9
$UCSORGBACK
 10
0.0
 20
0.0
 30
0.0
  9
$PUCSBASE
  2

  9
$PUCSNAME
  2

  9
$PUCSORG
 10
0.0
 20
0.0
 30
0.0
  9
$PUCSXDIR
 10
1.0
 20
0.0
 30
0.0
  9
$PUCSYDIR
 10
0.0
 20
1.0
 30
0.0
  9
$PUCSORTHOREF
  2

  9
$PUCSORTHOVIEW
 70
     0
  9
$PUCSORGTOP
 10
0.0
 20
0.0
 30
0.0
  9
$PUCSORGBOTTOM
 10
0.0
 20
0.0
 30
0.0
  9
$PUCSORGLEFT
 10
0.0
 20
0.0
 30
0.0
  9
$PUCSORGRIGHT
 10
0.0
 20
0.0
 30
0.0
  9
$PUCSORGFRONT
 10
0.0
 20
0.0
 30
0.0
  9
$PUCSORGBACK
 10
0.0
 20
0.0
 30
0.0
  9
$USERI1
 70
     0
  9
$USERI2
 70
     0
  9
$USERI3
 70
     0
  9
$USERI4
 70
     0
  9
$USERI5
 70
     0
  9
$USERR1
 40
0.0
  9
$USERR2
 40
0.0
  9
$USERR3
 40
0.0
  9
$USERR4
 40
0.0
  9
$USERR5
 40
0.0
  9
$WORLDVIEW
 70
     1
  9
$SHADEDGE
 70
     3
  9
$SHADEDIF
 70
    70
  9
$TILEMODE
 70
     1
  9
$MAXACTVP
 70
    64
  9
$PINSBASE
 10
0.0
 20
0.0
 30
0.0
  9
$PLIMCHECK
 70
     0
  9
$PEXTMIN
 10
1.000000000000000E+20
 20
1.000000000000000E+20
 30
1.000000000000000E+20
  9
$PEXTMAX
 10
-1.000000000000000E+20
 20
-1.000000000000000E+20
 30
-1.000000000000000E+20
  9
$PLIMMIN
 10
0.0
 20
0.0
  9
$PLIMMAX
 10
12.0
 20
9.0
  9
$UNITMODE
 70
     0
  9
$VISRETAIN
 70
     1
  9
$PLINEGEN
 70
     0
  9
$PSLTSCALE
 70
     1
  9
$TREEDEPTH
 70
  3020
  9
$CMLSTYLE
  2
Standard
  9
$CMLJUST
 70
     0
  9
$CMLSCALE
 40
1.0
  9
$PROXYGRAPHICS
 70
     1
  9
$MEASUREMENT
 70
     0
  9
$CELWEIGHT
370
    -1
  9
$ENDCAPS
280
     0
  9
$JOINSTYLE
280
     0
  9
$LWDISPLAY
290
     1
  9
$INSUNITS
 70
     1
  9
$HYPERLINKBASE
  1

  9
$STYLESHEET
  1

  9
$XEDIT
290
     1
  9
$CEPSNTYPE
380
     0
  9
$PSTYLEMODE
290
     1
  9
$FINGERPRINTGUID
  2
{C75C624D-E21E-A3BC-9077-C7C9B9978F81}
  9
$VERSIONGUID
  2
{FAEB1C32-E019-11D5-929B-00C0DF256EC4}
  9
$EXTNAMES
290
     1
  9
$PSVPSCALE
 40
0.0
  9
$OLESTARTUP
290
     0
  9
$SORTENTS
280
   127
  9
$INDEXCTL
280
     0
  9
$HIDETEXT
280
     1
  9
$XCLIPFRAME
290
     0
  9
$HALOGAP
280
     0
  9
$OBSCOLOR
 70
   257
  9
$OBSLTYPE
280
     0
  9
$INTERSECTIONDISPLAY
280
     0
  9
$INTERSECTIONCOLOR
 70
   257
  9
$DIMASSOC
280
     2
  9
$PROJECTNAME
  1

  0
ENDSEC
  0
SECTION
  2
CLASSES
  0
CLASS
  1
ACDBDICTIONARYWDFLT
  2
AcDbDictionaryWithDefault
  3
ObjectDBX Classes
 90
        0
 91
        3
280
     0
281
     0
  0
CLASS
  1
VISUALSTYLE
  2
AcDbVisualStyle
  3
ObjectDBX Classes
 90
     4095
 91
        3
280
     0
281
     0
  0
ENDSEC
  0
SECTION
  2
TABLES
  0
TABLE
  2
VPORT
  5
8
330
0
100
AcDbSymbolTable
 70
     1
  0
VPORT
  5
29
330
8
100
AcDbSymbolTableRecord
100
AcDbViewportTableRecord
  2
*Active
 70
     0
 10
0.0
 20
0.0
 11
1.0
 21
1.0
 12
0.0
 22
0.0
 13
0.0
 23
0.0
 14
0.5
 24
0.5
 15
0.5
 25
0.5
 16
0.0
 26
0.0
 36
1.0
 17
105.0008259828644
 27
-148.4999796178229
 37
0.0
 40
296.9999592356459
 41
0.7070763662937379
 42
50.0
 43
0.0
 44
0.0
 50
0.0
 51
0.0
 71
     0
 72
   100
 73
     1
 74
     3
 75
     0
 76
     0
 77
     0
 78
     0
281
     0
 65
     1
110
0.0
120
0.0
130
0.0
111
1.0
121
0.0
131
0.0
112
0.0
122
1.0
132
0.0
 79
     0
146
0.0
  0
ENDTAB
  0
TABLE
  2
LTYPE
  5
5
330
0
100
AcDbSymbolTable
 70
     1
  0
LTYPE
  5
14
330
5
100
AcDbSymbolTableRecord
100
AcDbLinetypeTableRecord
  2
ByBlock
 70
     0
  3

 72
    65
 73
     0
 40
0.0
  0
LTYPE
  5
15
330
5
100
AcDbSymbolTableRecord
100
AcDbLinetypeTableRecord
  2
ByLayer
 70
     0
  3

 72
    65
 73
     0
 40
0.0
  0
LTYPE
  5
16
330
5
100
AcDbSymbolTableRecord
100
AcDbLinetypeTableRecord
  2
Continuous
 70
     0
  3
Solid line
 72
    65
 73
     0
 40
0.0
  0
ENDTAB
  0
TABLE
  2
LAYER
  5
2
330
0
100
AcDbSymbolTable
 70
     2
  0
LAYER
  5
10
330
2
100
AcDbSymbolTableRecord
100
AcDbLayerTableRecord
  2
0
 70
     0
 62
     7
  6
Continuous
370
    -3
390
F
  0
LAYER
  5
3B
330
2
100
AcDbSymbolTableRecord
100
AcDbLayerTableRecord
  2
Ebene 1
 70
     0
 62
     7
  6
Continuous
370
    -3
390
F
  0
ENDTAB
  0
TABLE
  2
STYLE
  5
3
330
0
100
AcDbSymbolTable
 70
     1
  0
STYLE
  5
11
330
3
100
AcDbSymbolTableRecord
100
AcDbTextStyleTableRecord
  2
Standard
 70
     0
 40
0.0
 41
1.0
 50
0.0
 71
     0
 42
0.2
  3
txt
  4

  0
ENDTAB
  0
TABLE
  2
VIEW
  5
6
330
0
100
AcDbSymbolTable
 70
     0
  0
ENDTAB
  0
TABLE
  2
UCS
  5
7
330
0
100
AcDbSymbolTable
 70
     0
  0
ENDTAB
  0
TABLE
  2
APPID
  5
9
330
0
100
AcDbSymbolTable
 70
     1
  0
APPID
  5
12
330
9
100
AcDbSymbolTableRecord
100
AcDbRegAppTableRecord
  2
ACAD
 70
     0
  0
ENDTAB
  0
TABLE
  2
DIMSTYLE
  5
A
330
0
100
AcDbSymbolTable
 70
     1
100
AcDbDimStyleTable
  0
DIMSTYLE
105
27
330
A
100
AcDbSymbolTableRecord
100
AcDbDimStyleTableRecord
  2
Standard
 70
     0
340
11
  0
ENDTAB
  0
TABLE
  2
BLOCK_RECORD
  5
1
330
0
100
AcDbSymbolTable
 70
     7
  0
BLOCK_RECORD
  5
1F
330
1
100
AcDbSymbolTableRecord
100
AcDbBlockTableRecord
  2
*Model_Space
340
22
  0
BLOCK_RECORD
  5
1B
330
1
100
AcDbSymbolTableRecord
100
AcDbBlockTableRecord
  2
*Paper_Space
340
1E
  0
BLOCK_RECORD
  5
23
330
1
100
AcDbSymbolTableRecord
100
AcDbBlockTableRecord
  2
*Paper_Space0
340
26
  0
BLOCK_RECORD
  5
288
330
1
100
AcDbSymbolTableRecord
100
AcDbBlockTableRecord
  2
block 2
340
0
102
{BLKREFS
331
289
102
}
  0
BLOCK_RECORD
  5
327
330
1
100
AcDbSymbolTableRecord
100
AcDbBlockTableRecord
  2
block 3
340
0
102
{BLKREFS
331
328
102
}
  0
BLOCK_RECORD
  5
62A
330
1
100
AcDbSymbolTableRecord
100
AcDbBlockTableRecord
  2
block 4
340
0
102
{BLKREFS
331
62B
102
}
  0
BLOCK_RECORD
  5
64A
330
1
100
AcDbSymbolTableRecord
100
AcDbBlockTableRecord
  2
block 5
340
0
102
{BLKREFS
331
64B
102
}
  0
BLOCK_RECORD
  5
67A
330
1
100
AcDbSymbolTableRecord
100
AcDbBlockTableRecord
  2
block 6
340
0
102
{BLKREFS
331
67B
102
}
  0
BLOCK_RECORD
  5
6AA
330
1
100
AcDbSymbolTableRecord
100
AcDbBlockTableRecord
  2
block 7
340
0
102
{BLKREFS
331
6AB
102
}
  0
ENDTAB
  0
ENDSEC
  0
SECTION
  2
BLOCKS
  0
BLOCK
  5
20
330
1F
100
AcDbEntity
  8
0
100
AcDbBlockBegin
  2
*Model_Space
 70
     0
 71
     0
 10
0.0
 20
0.0
 30
0.0
  3
*Model_Space
  1

  0
ENDBLK
  5
21
330
1F
100
AcDbEntity
  8
0
100
AcDbBlockEnd
  0
BLOCK
  5
1C
330
1B
100
AcDbEntity
 67
     1
  8
0
100
AcDbBlockBegin
  2
*Paper_Space
 70
     0
 71
     0
 10
0.0
 20
0.0
 30
0.0
  3
*Paper_Space
  1

  0
ENDBLK
  5
1D
330
1B
100
AcDbEntity
 67
     1
  8
0
100
AcDbBlockEnd
  0
BLOCK
  5
24
330
23
100
AcDbEntity
  8
0
100
AcDbBlockBegin
  2
*Paper_Space0
 70
     0
 71
     0
 10
0.0
 20
0.0
 30
0.0
  3
*Paper_Space0
  1

  0
ENDBLK
  5
25
330
23
100
AcDbEntity
  8
0
100
AcDbBlockEnd
  0
BLOCK
  5
28A
330
288
100
AcDbEntity
  8
0
100
AcDbBlockBegin
  2
block 2
 70
     0
 71
     0
 10
0.0
 20
0.0
 30
0.0
  3
block 2
  1

  0
POLYLINE
  5
28C
330
288
100
AcDbEntity
  8
Ebene 1
 62
   179
420
  1709851
370
    40
100
AcDb2dPolyline
 66
     1
 10
0.0
 20
0.0
 30
0.0
  0
VERTEX
  5
28D
330
28C
100
AcDbEntity
  8
Ebene 1
 62
   179
420
  1709851
370
    40
100
AcDbVertex
100
AcDb2dVertex
 10
36.3493747196453
 20
-96.21755504321992
 30
0.0
  0
VERTEX
  5
28E
330
28C
100
AcDbEntity
  8
Ebene 1
 62
   179
420
  1709851
370
    40
100
AcDbVertex
100
AcDb2dVertex
 10
190.3859672918132
 20
-96.21755504321992
 30
0.0
  0
SEQEND
  5
28F
330
28C
100
AcDbEntity
  8
Ebene 1
370
    40
  0
POLYLINE
  5
290
330
288
100
AcDbEntity
  8
Ebene 1
 62
   179
420
  1709851
370
    15
100
AcDb2dPolyline
 66
     1
 10
0.0
 20
0.0
 30
0.0
  0
VERTEX
  5
291
330
290
100
AcDbEntity
  8
Ebene 1
 62
   179
420
  1709851
370
    15
100
AcDbVertex
100
AcDb2dVertex
 10
104.8079006356904
 20
-175.8948621522069
 30
0.0
  0
VERTEX
  5
292
330
290
100
AcDbEntity
  8
Ebene 1
 62
   179
420
  1709851
370
    15
100
AcDbVertex
100
AcDb2dVertex
 10
108.0106336535529
 20
-175.8948621522069
 30
0.0
  0
SEQEND
  5
293
330
290
100
AcDbEntity
  8
Ebene 1
370
    15
  0
POLYLINE
  5
294
330
288
100
AcDbEntity
  8
Ebene 1
 62
   179
420
  1709851
370
    15
100
AcDb2dPolyline
 66
     1
 10
0.0
 20
0.0
 30
0.0
  0
VERTEX
  5
295
330
294
100
AcDbEntity
  8
Ebene 1
 62
   179
420
  1709851
370
    15
100
AcDbVertex
100
AcDb2dVertex
 10
104.8079006356904
 20
-177.5450628896415
 30
0.0
  0
VERTEX
  5
296
330
294
100
AcDbEntity
  8
Ebene 1
 62
   179
420
  1709851
370
    15
100
AcDbVertex
100
AcDb2dVertex
 10
108.0106336535529
 20
-177.5450628896415
 30
0.0
  0
SEQEND
  5
297
330
294
100
AcDbEntity
  8
Ebene 1
370
    15
  0
POLYLINE
  5
298
330
288
100
AcDbEntity
  8
Ebene 1
 62
   179
420
  1709851
370
    15
100
AcDb2dPolyline
 66
     1
 10
0.0
 20
0.0
 30
0.0
  0
VERTEX
  5
299
330
298
100
AcDbEntity
  8
Ebene 1
 62
   179
420
  1709851
370
    15
100
AcDbVertex
100
AcDb2dVertex
 10
108.7485731064934
 20
-178.282313323485
 30
0.0
  0
VERTEX
  5
29A
330
298
100
AcDbEntity
  8
Ebene 1
 62
   179
420
  1709851
370
    15
100
AcDbVertex
100
AcDb2dVertex
 10
104.0704779470727
 20
-178.282313323485
 30
0.0
  0
SEQEND
  5
29B
330
298
100
AcDbEntity
  8
Ebene 1
370
    15
  0
POLYLINE
  5
29C
330
288
100
AcDbEntity
  8
Ebene 1
 62
   179
420
  1709851
370
    15
100
AcDb2dPolyline
 66
     1
 10
0.0
 20
0.0
 30
0.0
  0
VERTEX
  5
29D
330
29C
100
AcDbEntity
  8
Ebene 1
 62
   179
420
  1709851
370
    15
100
AcDbVertex
100
AcDb2dVertex
 10
190.3859672918132
 20
-94.10192190572799
 30
0.0
  0
VERTEX
  5
29E
330
29C
100
AcDbEntity
  8
Ebene 1
 62
   179
420
  1709851
370
    15
100
AcDbVertex
100
AcDb2dVertex
 10
190.3859672918132
 20
-92.5492173705259
 30
0.0
  0
SEQEND
  5
29F
330
29C
100
AcDbEntity
  8
Ebene 1
370
    15
  0
POLYLINE
  5
2A0
330
288
100
AcDbEntity
  8
Ebene 1
 62
   179
420
  1709851
370
    15
100
AcDb2dPolyline
 66
     1
 10
0.0
 20
0.0
 30
0.0
  0
VERTEX
  5
2A1
330
2A0
100
AcDbEntity
  8
Ebene 1
 62
   179
420
  1709851
370
    15
100
AcDbVertex
100
AcDb2dVertex
 10
190.3859672918132
 20
-95.9264444747163
 30
0.0
  0
VERTEX
  5
2A2
330
2A0
100
AcDbEntity
  8
Ebene 1
 62
   179
420
  1709851
370
    15
100
AcDbVertex
100
AcDb2dVertex
 10
190.3859672918132
 20
-95.01452769977068
 30
0.0
  0
SEQEND
  5
2A3
330
2A0
100
AcDbEntity
  8
Ebene 1
370
    15
  0
POLYLINE
  5
2A4
330
288
100
AcDbEntity
  8
Ebene 1
 62
   179
420
  1709851
370
    15
100
AcDb2dPolyline
 66
     1
 10
0.0
 20
0.0
 30
0.0
  0
VERTEX
  5
2A5
330
2A4
100
AcDbEntity
  8
Ebene 1
 62
   179
420
  1709851
370
    15
100
AcDbVertex
100
AcDb2dVertex
 10
190.3859672918132
 20
-103.2634643296529
 30
0.0
  0
VERTEX
  5
2A6
330
2A4
100
AcDbEntity
  8
Ebene 1
 62
   179
420
  1709851
370
    15
100
AcDbVertex
100
AcDb2dVertex
 10
190.3859672918132
 20
-96.83870575921047
 30
0.0
  0
SEQEND
  5
2A7
330
2A4
100
AcDbEntity
  8
Ebene 1
370
    15
  0
POLYLINE
  5
2A8
330
288
100
AcDbEntity
  8
Ebene 1
 62
   179
420
  1709851
370
    15
100
AcDb2dPolyline
 66
     1
 10
0.0
 20
0.0
 30
0.0
  0
VERTEX
  5
2A9
330
2A8
100
AcDbEntity
  8
Ebene 1
 62
   179
420
  1709851
370
    15
100
AcDbVertex
100
AcDb2dVertex
 10
190.3859672918132
 20
-105.0879868986412
 30
0.0
  0
VERTEX
  5
2AA
330
2A8
100
AcDbEntity
  8
Ebene 1
 62
   179
420
  1709851
370
    15
100
AcDbVertex
100
AcDb2dVertex
 10
190.3859672918132
 20
-104.175725614147
 30
0.0
  0
SEQEND
  5
2AB
330
2A8
100
AcDbEntity
  8
Ebene 1
370
    15
  0
POLYLINE
  5
2AC
330
288
100
AcDbEntity
  8
Ebene 1
 62
   179
420
  1709851
370
    15
100
AcDb2dPolyline
 66
     1
 10
0.0
 20
0.0
 30
0.0
  0
VERTEX
  5
2AD
330
2AC
100
AcDbEntity
  8
Ebene 1
 62
   179
420
  1709851
370
    15
100
AcDbVertex
100
AcDb2dVertex
 10
190.3859672918132
 20
-112.4246622440292
 30
0.0
  0
VERTEX
  5
2AE
330
2AC
100
AcDbEntity
  8
Ebene 1
 62
   179
420
  1709851
370
    15
100
AcDbVertex
100
AcDb2dVertex
 10
190.3859672918132
 20
-106.0198852274013
 30
0.0
  0
SEQEND
  5
2AF
330
2AC
100
AcDbEntity
  8
Ebene 1
370
    15
  0
POLYLINE
  5
2B0
330
288
100
AcDbEntity
  8
Ebene 1
 62
   179
420
  1709851
370
    15
100
AcDb2dPolyline
 66
     1
 10
0.0
 20
0.0
 30
0.0
  0
VERTEX
  5
2B1
330
2B0
100
AcDbEntity
  8
Ebene 1
 62
   179
420
  1709851
370
    15
100
AcDbVertex
100
AcDb2dVertex
 10
190.3859672918132
 20
-114.2688218572835
 30
0.0
  0
VERTEX
  5
2B2
330
2B0
100
AcDbEntity
  8
Ebene 1
 62
   179
420
  1709851
370
    15
100
AcDbVertex
100
AcDb2dVertex
 10
190.3859672918132
 20
-113.3565605727893
 30
0.0
  0
SEQEND
  5
2B3
330
2B0
100
AcDbEntity
  8
Ebene 1
370
    15
  0
POLYLINE
  5
2B4
330
288
100
AcDbEntity
  8
Ebene 1
 62
   179
420
  1709851
370
    15
100
AcDb2dPolyline
 66
     1
 10
0.0
 20
0.0
 30
0.0
  0
VERTEX
  5
2B5
330
2B4
100
AcDbEntity
  8
Ebene 1
 62
   179
420
  1709851
370
    15
100
AcDbVertex
100
AcDb2dVertex
 10
190.3859672918132
 20
-121.6058417122201
 30
0.0
  0
VERTEX
  5
2B6
330
2B4
100
AcDbEntity
  8
Ebene 1
 62
   179
420
  1709851
370
    15
100
AcDbVertex
100
AcDb2dVertex
 10
190.3859672918132
 20
-115.1810831417776
 30
0.0
  0
SEQEND
  5
2B7
330
2B4
100
AcDbEntity
  8
Ebene 1
370
    15
  0
POLYLINE
  5
2B8
330
288
100
AcDbEntity
  8
Ebene 1
 62
   179
420
  1709851
370
    15
100
AcDb2dPolyline
 66
     1
 10
0.0
 20
0.0
 30
0.0
  0
VERTEX
  5
2B9
330
2B8
100
AcDbEntity
  8
Ebene 1
 62
   179
420
  1709851
370
    15
100
AcDbVertex
100
AcDb2dVertex
 10
190.3859672918132
 20
-123.4303642812084
 30
0.0
  0
VERTEX
  5
2BA
330
2B8
100
AcDbEntity
  8
Ebene 1
 62
   179
420
  1709851
370
    15
100
AcDbVertex
100
AcDb2dVertex
 10
190.3859672918132
 20
-122.5181029967142
 30
0.0
  0
SEQEND
  5
2BB
330
2B8
100
AcDbEntity
  8
Ebene 1
370
    15
  0
POLYLINE
  5
2BC
330
288
100
AcDbEntity
  8
Ebene 1
 62
   179
420
  1709851
370
    15
100
AcDb2dPolyline
 66
     1
 10
0.0
 20
0.0
 30
0.0
  0
VERTEX
  5
2BD
330
2BC
100
AcDbEntity
  8
Ebene 1
 62
   179
420
  1709851
370
    15
100
AcDbVertex
100
AcDb2dVertex
 10
190.3859672918132
 20
-130.7670396265964
 30
0.0
  0
VERTEX
  5
2BE
330
2BC
100
AcDbEntity
  8
Ebene 1
 62
   179
420
  1709851
370
    15
100
AcDbVertex
100
AcDb2dVertex
 10
190.3859672918132
 20
-124.3622626099685
 30
0.0
  0
SEQEND
  5
2BF
330
2BC
100
AcDbEntity
  8
Ebene 1
370
    15
  0
POLYLINE
  5
2C0
330
288
100
AcDbEntity
  8
Ebene 1
 62
   179
420
  1709851
370
    15
100
AcDb2dPolyline
 66
     1
 10
0.0
 20
0.0
 30
0.0
  0
VERTEX
  5
2C1
330
2C0
100
AcDbEntity
  8
Ebene 1
 62
   179
420
  1709851
370
    15
100
AcDbVertex
100
AcDb2dVertex
 10
190.3859672918132
 20
-132.6111992398507
 30
0.0
  0
VERTEX
  5
2C2
330
2C0
100
AcDbEntity
  8
Ebene 1
 62
   179
420
  1709851
370
    15
100
AcDbVertex
100
AcDb2dVertex
 10
190.3859672918132
 20
-131.6793009110906
 30
0.0
  0
SEQEND
  5
2C3
330
2C0
100
AcDbEntity
  8
Ebene 1
370
    15
  0
POLYLINE
  5
2C4
330
288
100
AcDbEntity
  8
Ebene 1
 62
   179
420
  1709851
370
    15
100
AcDb2dPolyline
 66
     1
 10
0.0
 20
0.0
 30
0.0
  0
VERTEX
  5
2C5
330
2C4
100
AcDbEntity
  8
Ebene 1
 62
   179
420
  1709851
370
    15
100
AcDbVertex
100
AcDb2dVertex
 10
190.3859672918132
 20
-139.9482190947872
 30
0.0
  0
VERTEX
  5
2C6
330
2C4
100
AcDbEntity
  8
Ebene 1
 62
   179
420
  1709851
370
    15
100
AcDbVertex
100
AcDb2dVertex
 10
190.3859672918132
 20
-133.5234605243448
 30
0.0
  0
SEQEND
  5
2C7
330
2C4
100
AcDbEntity
  8
Ebene 1
370
    15
  0
POLYLINE
  5
2C8
330
288
100
AcDbEntity
  8
Ebene 1
 62
   179
420
  1709851
370
    15
100
AcDb2dPolyline
 66
     1
 10
0.0
 20
0.0
 30
0.0
  0
VERTEX
  5
2C9
330
2C8
100
AcDbEntity
  8
Ebene 1
 62
   179
420
  1709851
370
    15
100
AcDbVertex
100
AcDb2dVertex
 10
190.3859672918132
 20
-141.7727416637756
 30
0.0
  0
VERTEX
  5
2CA
330
2C8
100
AcDbEntity
  8
Ebene 1
 62
   179
420
  1709851
370
    15
100
AcDbVertex
100
AcDb2dVertex
 10
190.3859672918132
 20
-140.8604803792814
 30
0.0
  0
SEQEND
  5
2CB
330
2C8
100
AcDbEntity
  8
Ebene 1
370
    15
  0
POLYLINE
  5
2CC
330
288
100
AcDbEntity
  8
Ebene 1
 62
   179
420
  1709851
370
    15
100
AcDb2dPolyline
 66
     1
 10
0.0
 20
0.0
 30
0.0
  0
VERTEX
  5
2CD
330
2CC
100
AcDbEntity
  8
Ebene 1
 62
   179
420
  1709851
370
    15
100
AcDbVertex
100
AcDb2dVertex
 10
190.3859672918132
 20
-149.1092447543894
 30
0.0
  0
VERTEX
  5
2CE
330
2CC
100
AcDbEntity
  8
Ebene 1
 62
   179
420
  1709851
370
    15
100
AcDbVertex
100
AcDb2dVertex
 10
190.3859672918132
 20
-142.6850029482697
 30
0.0
  0
SEQEND
  5
2CF
330
2CC
100
AcDbEntity
  8
Ebene 1
370
    15
  0
POLYLINE
  5
2D0
330
288
100
AcDbEntity
  8
Ebene 1
 62
   179
420
  1709851
370
    15
100
AcDb2dPolyline
 66
     1
 10
0.0
 20
0.0
 30
0.0
  0
VERTEX
  5
2D1
330
2D0
100
AcDbEntity
  8
Ebene 1
 62
   179
420
  1709851
370
    15
100
AcDbVertex
100
AcDb2dVertex
 10
190.3859672918132
 20
-150.9337673233777
 30
0.0
  0
VERTEX
  5
2D2
330
2D0
100
AcDbEntity
  8
Ebene 1
 62
   179
420
  1709851
370
    15
100
AcDbVertex
100
AcDb2dVertex
 10
190.3859672918132
 20
-150.0215060388835
 30
0.0
  0
SEQEND
  5
2D3
330
2D0
100
AcDbEntity
  8
Ebene 1
370
    15
  0
POLYLINE
  5
2D4
330
288
100
AcDbEntity
  8
Ebene 1
 62
   179
420
  1709851
370
    15
100
AcDb2dPolyline
 66
     1
 10
0.0
 20
0.0
 30
0.0
  0
VERTEX
  5
2D5
330
2D4
100
AcDbEntity
  8
Ebene 1
 62
   179
420
  1709851
370
    15
100
AcDbVertex
100
AcDb2dVertex
 10
190.3859672918132
 20
-158.2711316878628
 30
0.0
  0
VERTEX
  5
2D6
330
2D4
100
AcDbEntity
  8
Ebene 1
 62
   179
420
  1709851
370
    15
100
AcDbVertex
100
AcDb2dVertex
 10
190.3859672918132
 20
-151.8660101616863
 30
0.0
  0
SEQEND
  5
2D7
330
2D4
100
AcDbEntity
  8
Ebene 1
370
    15
  0
POLYLINE
  5
2D8
330
288
100
AcDbEntity
  8
Ebene 1
 62
   179
420
  1709851
370
    15
100
AcDb2dPolyline
 66
     1
 10
0.0
 20
0.0
 30
0.0
  0
VERTEX
  5
2D9
330
2D8
100
AcDbEntity
  8
Ebene 1
 62
   179
420
  1709851
370
    15
100
AcDbVertex
100
AcDb2dVertex
 10
190.3859672918132
 20
-160.1149467915685
 30
0.0
  0
VERTEX
  5
2DA
330
2D8
100
AcDbEntity
  8
Ebene 1
 62
   179
420
  1709851
370
    15
100
AcDbVertex
100
AcDb2dVertex
 10
190.3859672918132
 20
-159.2026855070743
 30
0.0
  0
SEQEND
  5
2DB
330
2D8
100
AcDbEntity
  8
Ebene 1
370
    15
  0
POLYLINE
  5
2DC
330
288
100
AcDbEntity
  8
Ebene 1
 62
   179
420
  1709851
370
    15
100
AcDb2dPolyline
 66
     1
 10
0.0
 20
0.0
 30
0.0
  0
VERTEX
  5
2DD
330
2DC
100
AcDbEntity
  8
Ebene 1
 62
   179
420
  1709851
370
    15
100
AcDbVertex
100
AcDb2dVertex
 10
190.3859672918132
 20
-167.4516221369566
 30
0.0
  0
VERTEX
  5
2DE
330
2DC
100
AcDbEntity
  8
Ebene 1
 62
   179
420
  1709851
370
    15
100
AcDbVertex
100
AcDb2dVertex
 10
190.3859672918132
 20
-161.0272080760627
 30
0.0
  0
SEQEND
  5
2DF
330
2DC
100
AcDbEntity
  8
Ebene 1
370
    15
  0
POLYLINE
  5
2E0
330
288
100
AcDbEntity
  8
Ebene 1
 62
   179
420
  1709851
370
    15
100
AcDb2dPolyline
 66
     1
 10
0.0
 20
0.0
 30
0.0
  0
VERTEX
  5
2E1
330
2E0
100
AcDbEntity
  8
Ebene 1
 62
   179
420
  1709851
370
    15
100
AcDbVertex
100
AcDb2dVertex
 10
190.3859672918132
 20
-169.2761447059449
 30
0.0
  0
VERTEX
  5
2E2
330
2E0
100
AcDbEntity
  8
Ebene 1
 62
   179
420
  1709851
370
    15
100
AcDbVertex
100
AcDb2dVertex
 10
190.3859672918132
 20
-168.3645724405478
 30
0.0
  0
SEQEND
  5
2E3
330
2E0
100
AcDbEntity
  8
Ebene 1
370
    15
  0
POLYLINE
  5
2E4
330
288
100
AcDbEntity
  8
Ebene 1
 62
   179
420
  1709851
370
    15
100
AcDb2dPolyline
 66
     1
 10
0.0
 20
0.0
 30
0.0
  0
VERTEX
  5
2E5
330
2E4
100
AcDbEntity
  8
Ebene 1
 62
   179
420
  1709851
370
    15
100
AcDbVertex
100
AcDb2dVertex
 10
190.3859672918132
 20
-176.61350907043
 30
0.0
  0
VERTEX
  5
2E6
330
2E4
100
AcDbEntity
  8
Ebene 1
 62
   179
420
  1709851
370
    15
100
AcDbVertex
100
AcDb2dVertex
 10
190.3859672918132
 20
-170.2083875442535
 30
0.0
  0
SEQEND
  5
2E7
330
2E4
100
AcDbEntity
  8
Ebene 1
370
    15
  0
POLYLINE
  5
2E8
330
288
100
AcDbEntity
  8
Ebene 1
 62
   179
420
  1709851
370
    15
100
AcDb2dPolyline
 66
     1
 10
0.0
 20
0.0
 30
0.0
  0
VERTEX
  5
2E9
330
2E8
100
AcDbEntity
  8
Ebene 1
 62
   179
420
  1709851
370
    15
100
AcDbVertex
100
AcDb2dVertex
 10
190.3859672918132
 20
-178.4573241741357
 30
0.0
  0
VERTEX
  5
2EA
330
2E8
100
AcDbEntity
  8
Ebene 1
 62
   179
420
  1709851
370
    15
100
AcDbVertex
100
AcDb2dVertex
 10
190.3859672918132
 20
-177.5250813358271
 30
0.0
  0
SEQEND
  5
2EB
330
2E8
100
AcDbEntity
  8
Ebene 1
370
    15
  0
POLYLINE
  5
2EC
330
288
100
AcDbEntity
  8
Ebene 1
 62
   179
420
  1709851
370
    15
100
AcDb2dPolyline
 66
     1
 10
0.0
 20
0.0
 30
0.0
  0
VERTEX
  5
2ED
330
2EC
100
AcDbEntity
  8
Ebene 1
 62
   179
420
  1709851
370
    15
100
AcDbVertex
100
AcDb2dVertex
 10
190.3859672918132
 20
-185.7939995195237
 30
0.0
  0
VERTEX
  5
2EE
330
2EC
100
AcDbEntity
  8
Ebene 1
 62
   179
420
  1709851
370
    15
100
AcDbVertex
100
AcDb2dVertex
 10
190.3859672918132
 20
-179.3695854586298
 30
0.0
  0
SEQEND
  5
2EF
330
2EC
100
AcDbEntity
  8
Ebene 1
370
    15
  0
POLYLINE
  5
2F0
330
288
100
AcDbEntity
  8
Ebene 1
370
     0
100
AcDb2dPolyline
 66
     1
 10
0.0
 20
0.0
 30
0.0
  0
VERTEX
  5
2F1
330
2F0
100
AcDbEntity
  8
Ebene 1
370
     0
100
AcDbVertex
100
AcDb2dVertex
 10
17.99166666216875
 20
-199.6336371028694
 30
0.0
  0
VERTEX
  5
2F2
330
2F0
100
AcDbEntity
  8
Ebene 1
370
     0
100
AcDbVertex
100
AcDb2dVertex
 10
190.6092094792574
 20
-199.6336371028694
 30
0.0
  0
VERTEX
  5
2F3
330
2F0
100
AcDbEntity
  8
Ebene 1
370
     0
100
AcDbVertex
100
AcDb2dVertex
 10
190.6092094792574
 20
-92.47170272210778
 30
0.0
  0
VERTEX
  5
2F4
330
2F0
100
AcDbEntity
  8
Ebene 1
370
     0
100
AcDbVertex
100
AcDb2dVertex
 10
17.99166666216875
 20
-92.47170272210778
 30
0.0
  0
VERTEX
  5
2F5
330
2F0
100
AcDbEntity
  8
Ebene 1
370
     0
100
AcDbVertex
100
AcDb2dVertex
 10
17.99166666216875
 20
-199.6336371028694
 30
0.0
  0
SEQEND
  5
2F6
330
2F0
100
AcDbEntity
  8
Ebene 1
370
     0
  0
ENDBLK
  5
28B
330
288
100
AcDbEntity
  8
0
100
AcDbBlockEnd
  0
BLOCK
  5
329
330
327
100
AcDbEntity
  8
0
100
AcDbBlockBegin
  2
block 3
 70
     0
 71
     0
 10
0.0
 20
0.0
 30
0.0
  3
block 3
  1

  0
POLYLINE
  5
32B
330
327
100
AcDbEntity
  8
Ebene 1
 62
   179
420
  1709851
370
    40
100
AcDb2dPolyline
 66
     1
 10
0.0
 20
0.0
 30
0.0
  0
VERTEX
  5
32C
330
32B
100
AcDbEntity
  8
Ebene 1
 62
   179
420
  1709851
370
    40
100
AcDbVertex
100
AcDb2dVertex
 10
36.3493747196453
 20
-151.2252224014298
 30
0.0
  0
VERTEX
  5
32D
330
32B
100
AcDbEntity
  8
Ebene 1
 62
   179
420
  1709851
370
    40
100
AcDbVertex
100
AcDb2dVertex
 10
137.2029947573659
 20
-151.2252224014298
 30
0.0
  0
VERTEX
  5
32E
330
32B
100
AcDbEntity
  8
Ebene 1
 62
   179
420
  1709851
370
    40
100
AcDbVertex
100
AcDb2dVertex
 10
190.3859672918132
 20
-151.2252224014298
 30
0.0
  0
SEQEND
  5
32F
330
32B
100
AcDbEntity
  8
Ebene 1
370
    40
  0
POLYLINE
  5
330
330
327
100
AcDbEntity
  8
Ebene 1
 62
   179
420
  1709851
370
    15
100
AcDb2dPolyline
 66
     1
 10
0.0
 20
0.0
 30
0.0
  0
VERTEX
  5
331
330
330
100
AcDbEntity
  8
Ebene 1
 62
   179
420
  1709851
370
    15
100
AcDbVertex
100
AcDb2dVertex
 10
36.34954697441956
 20
-198.1770507317057
 30
0.0
  0
VERTEX
  5
332
330
330
100
AcDbEntity
  8
Ebene 1
 62
   179
420
  1709851
370
    15
100
AcDbVertex
100
AcDb2dVertex
 10
136.6789957340594
 20
-198.1770507317057
 30
0.0
  0
SEQEND
  5
333
330
330
100
AcDbEntity
  8
Ebene 1
370
    15
  0
POLYLINE
  5
334
330
327
100
AcDbEntity
  8
Ebene 1
 62
   179
420
  1709851
370
    15
100
AcDb2dPolyline
 66
     1
 10
0.0
 20
0.0
 30
0.0
  0
VERTEX
  5
335
330
334
100
AcDbEntity
  8
Ebene 1
 62
   179
420
  1709851
370
    15
100
AcDbVertex
100
AcDb2dVertex
 10
36.34954697441956
 20
-192.4905761237524
 30
0.0
  0
VERTEX
  5
336
330
334
100
AcDbEntity
  8
Ebene 1
 62
   179
420
  1709851
370
    15
100
AcDbVertex
100
AcDb2dVertex
 10
135.9410562811189
 20
-192.4905761237524
 30
0.0
  0
SEQEND
  5
337
330
334
100
AcDbEntity
  8
Ebene 1
370
    15
  0
POLYLINE
  5
338
330
327
100
AcDbEntity
  8
Ebene 1
 62
   179
420
  1709851
370
    15
100
AcDb2dPolyline
 66
     1
 10
0.0
 20
0.0
 30
0.0
  0
VERTEX
  5
339
330
338
100
AcDbEntity
  8
Ebene 1
 62
   179
420
  1709851
370
    15
100
AcDbVertex
100
AcDb2dVertex
 10
190.3856227822647
 20
-198.1770507317057
 30
0.0
  0
VERTEX
  5
33A
330
338
100
AcDbEntity
  8
Ebene 1
 62
   179
420
  1709851
370
    15
100
AcDbVertex
100
AcDb2dVertex
 10
136.6789957340594
 20
-198.1770507317057
 30
0.0
  0
SEQEND
  5
33B
330
338
100
AcDbEntity
  8
Ebene 1
370
    15
  0
POLYLINE
  5
33C
330
327
100
AcDbEntity
  8
Ebene 1
 62
   179
420
  1709851
370
    15
100
AcDb2dPolyline
 66
     1
 10
0.0
 20
0.0
 30
0.0
  0
VERTEX
  5
33D
330
33C
100
AcDbEntity
  8
Ebene 1
 62
   179
420
  1709851
370
    15
100
AcDbVertex
100
AcDb2dVertex
 10
190.3856227822647
 20
-192.4905761237524
 30
0.0
  0
VERTEX
  5
33E
330
33C
100
AcDbEntity
  8
Ebene 1
 62
   179
420
  1709851
370
    15
100
AcDbVertex
100
AcDb2dVertex
 10
137.3969536331855
 20
-192.4905761237524
 30
0.0
  0
SEQEND
  5
33F
330
33C
100
AcDbEntity
  8
Ebene 1
370
    15
  0
POLYLINE
  5
340
330
327
100
AcDbEntity
  8
Ebene 1
 62
   179
420
  1709851
370
    15
100
AcDb2dPolyline
 66
     1
 10
0.0
 20
0.0
 30
0.0
  0
VERTEX
  5
341
330
340
100
AcDbEntity
  8
Ebene 1
 62
   179
420
  1709851
370
    15
100
AcDbVertex
100
AcDb2dVertex
 10
137.4941053258695
 20
-197.3426486051782
 30
0.0
  0
VERTEX
  5
342
330
340
100
AcDbEntity
  8
Ebene 1
 62
   179
420
  1709851
370
    15
100
AcDbVertex
100
AcDb2dVertex
 10
135.8442490979834
 20
-198.9928493426129
 30
0.0
  0
SEQEND
  5
343
330
340
100
AcDbEntity
  8
Ebene 1
370
    15
  0
POLYLINE
  5
344
330
327
100
AcDbEntity
  8
Ebene 1
 62
   179
420
  1709851
370
    15
100
AcDb2dPolyline
 66
     1
 10
0.0
 20
0.0
 30
0.0
  0
VERTEX
  5
345
330
344
100
AcDbEntity
  8
Ebene 1
 62
   179
420
  1709851
370
    15
100
AcDbVertex
100
AcDb2dVertex
 10
136.6789957340594
 20
-196.7990125376058
 30
0.0
  0
VERTEX
  5
346
330
344
100
AcDbEntity
  8
Ebene 1
 62
   179
420
  1709851
370
    15
100
AcDbVertex
100
AcDb2dVertex
 10
136.6789957340594
 20
-199.5557779449027
 30
0.0
  0
SEQEND
  5
347
330
344
100
AcDbEntity
  8
Ebene 1
370
    15
  0
POLYLINE
  5
348
330
327
100
AcDbEntity
  8
Ebene 1
 62
   179
420
  1709851
370
    15
100
AcDb2dPolyline
 66
     1
 10
0.0
 20
0.0
 30
0.0
  0
VERTEX
  5
349
330
348
100
AcDbEntity
  8
Ebene 1
 62
   179
420
  1709851
370
    15
100
AcDbVertex
100
AcDb2dVertex
 10
135.9410562811189
 20
-192.4905761237524
 30
0.0
  0
VERTEX
  5
34A
330
348
100
AcDbEntity
  8
Ebene 1
 62
   179
420
  1709851
370
    15
100
AcDbVertex
100
AcDb2dVertex
 10
137.3969536331855
 20
-192.4905761237524
 30
0.0
  0
SEQEND
  5
34B
330
348
100
AcDbEntity
  8
Ebene 1
370
    15
  0
POLYLINE
  5
34C
330
327
100
AcDbEntity
  8
Ebene 1
 62
   179
420
  1709851
370
    15
100
AcDb2dPolyline
 66
     1
 10
0.0
 20
0.0
 30
0.0
  0
VERTEX
  5
34D
330
34C
100
AcDbEntity
  8
Ebene 1
 62
   179
420
  1709851
370
    15
100
AcDbVertex
100
AcDb2dVertex
 10
137.3969536331855
 20
-192.4905761237524
 30
0.0
  0
VERTEX
  5
34E
330
34C
100
AcDbEntity
  8
Ebene 1
 62
   179
420
  1709851
370
    15
100
AcDbVertex
100
AcDb2dVertex
 10
137.3969536331855
 20
-193.8686143178523
 30
0.0
  0
SEQEND
  5
34F
330
34C
100
AcDbEntity
  8
Ebene 1
370
    15
  0
POLYLINE
  5
350
330
327
100
AcDbEntity
  8
Ebene 1
 62
   179
420
  1709851
370
    15
100
AcDb2dPolyline
 66
     1
 10
0.0
 20
0.0
 30
0.0
  0
VERTEX
  5
351
330
350
100
AcDbEntity
  8
Ebene 1
 62
   179
420
  1709851
370
    15
100
AcDbVertex
100
AcDb2dVertex
 10
137.3969536331855
 20
-192.4905761237524
 30
0.0
  0
VERTEX
  5
352
330
350
100
AcDbEntity
  8
Ebene 1
 62
   179
420
  1709851
370
    15
100
AcDbVertex
100
AcDb2dVertex
 10
137.3969536331855
 20
-191.1125379296524
 30
0.0
  0
SEQEND
  5
353
330
350
100
AcDbEntity
  8
Ebene 1
370
    15
  0
POLYLINE
  5
354
330
327
100
AcDbEntity
  8
Ebene 1
 62
   179
420
  1709851
370
    15
100
AcDb2dPolyline
 66
     1
 10
0.0
 20
0.0
 30
0.0
  0
VERTEX
  5
355
330
354
100
AcDbEntity
  8
Ebene 1
 62
   179
420
  1709851
370
    15
100
AcDbVertex
100
AcDb2dVertex
 10
135.9410562811189
 20
-192.4905761237524
 30
0.0
  0
VERTEX
  5
356
330
354
100
AcDbEntity
  8
Ebene 1
 62
   179
420
  1709851
370
    15
100
AcDbVertex
100
AcDb2dVertex
 10
135.9410562811189
 20
-193.8686143178523
 30
0.0
  0
SEQEND
  5
357
330
354
100
AcDbEntity
  8
Ebene 1
370
    15
  0
POLYLINE
  5
358
330
327
100
AcDbEntity
  8
Ebene 1
 62
   179
420
  1709851
370
    15
100
AcDb2dPolyline
 66
     1
 10
0.0
 20
0.0
 30
0.0
  0
VERTEX
  5
359
330
358
100
AcDbEntity
  8
Ebene 1
 62
   179
420
  1709851
370
    15
100
AcDbVertex
100
AcDb2dVertex
 10
135.9410562811189
 20
-192.4905761237524
 30
0.0
  0
VERTEX
  5
35A
330
358
100
AcDbEntity
  8
Ebene 1
 62
   179
420
  1709851
370
    15
100
AcDbVertex
100
AcDb2dVertex
 10
135.9410562811189
 20
-191.1125379296524
 30
0.0
  0
SEQEND
  5
35B
330
358
100
AcDbEntity
  8
Ebene 1
370
    15
  0
POLYLINE
  5
35C
330
327
100
AcDbEntity
  8
Ebene 1
 62
   179
420
  1709851
370
    15
100
AcDb2dPolyline
 66
     1
 10
0.0
 20
0.0
 30
0.0
  0
VERTEX
  5
35D
330
35C
100
AcDbEntity
  8
Ebene 1
 62
   179
420
  1709851
370
    15
100
AcDbVertex
100
AcDb2dVertex
 10
137.3969536331855
 20
-192.4905761237524
 30
0.0
  0
VERTEX
  5
35E
330
35C
100
AcDbEntity
  8
Ebene 1
 62
   179
420
  1709851
370
    15
100
AcDbVertex
100
AcDb2dVertex
 10
138.775336336834
 20
-192.4905761237524
 30
0.0
  0
SEQEND
  5
35F
330
35C
100
AcDbEntity
  8
Ebene 1
370
    15
  0
POLYLINE
  5
360
330
327
100
AcDbEntity
  8
Ebene 1
 62
   179
420
  1709851
370
    15
100
AcDb2dPolyline
 66
     1
 10
0.0
 20
0.0
 30
0.0
  0
VERTEX
  5
361
330
360
100
AcDbEntity
  8
Ebene 1
 62
   179
420
  1709851
370
    15
100
AcDbVertex
100
AcDb2dVertex
 10
135.9410562811189
 20
-192.4905761237524
 30
0.0
  0
VERTEX
  5
362
330
360
100
AcDbEntity
  8
Ebene 1
 62
   179
420
  1709851
370
    15
100
AcDbVertex
100
AcDb2dVertex
 10
134.5633625965675
 20
-192.4905761237524
 30
0.0
  0
SEQEND
  5
363
330
360
100
AcDbEntity
  8
Ebene 1
370
    15
  0
POLYLINE
  5
364
330
327
100
AcDbEntity
  8
Ebene 1
 62
   179
420
  1709851
370
    15
100
AcDb2dPolyline
 66
     1
 10
0.0
 20
0.0
 30
0.0
  0
VERTEX
  5
365
330
364
100
AcDbEntity
  8
Ebene 1
 62
   179
420
  1709851
370
    15
100
AcDbVertex
100
AcDb2dVertex
 10
136.5818440413754
 20
-193.3056857155625
 30
0.0
  0
VERTEX
  5
366
330
364
100
AcDbEntity
  8
Ebene 1
 62
   179
420
  1709851
370
    15
100
AcDbVertex
100
AcDb2dVertex
 10
138.2317002692615
 20
-191.6561739972248
 30
0.0
  0
SEQEND
  5
367
330
364
100
AcDbEntity
  8
Ebene 1
370
    15
  0
POLYLINE
  5
368
330
327
100
AcDbEntity
  8
Ebene 1
 62
   179
420
  1709851
370
    15
100
AcDb2dPolyline
 66
     1
 10
0.0
 20
0.0
 30
0.0
  0
VERTEX
  5
369
330
368
100
AcDbEntity
  8
Ebene 1
 62
   179
420
  1709851
370
    15
100
AcDbVertex
100
AcDb2dVertex
 10
135.1066541545914
 20
-193.3056857155625
 30
0.0
  0
VERTEX
  5
36A
330
368
100
AcDbEntity
  8
Ebene 1
 62
   179
420
  1709851
370
    15
100
AcDbVertex
100
AcDb2dVertex
 10
136.7568548920261
 20
-191.6561739972248
 30
0.0
  0
SEQEND
  5
36B
330
368
100
AcDbEntity
  8
Ebene 1
370
    15
  0
POLYLINE
  5
36C
330
327
100
AcDbEntity
  8
Ebene 1
 62
   179
420
  1709851
370
    15
100
AcDb2dPolyline
 66
     1
 10
0.0
 20
0.0
 30
0.0
  0
VERTEX
  5
36D
330
36C
100
AcDbEntity
  8
Ebene 1
 62
   179
420
  1709851
370
    15
100
AcDbVertex
100
AcDb2dVertex
 10
36.34954697441956
 20
-173.7017143662968
 30
0.0
  0
VERTEX
  5
36E
330
36C
100
AcDbEntity
  8
Ebene 1
 62
   179
420
  1709851
370
    15
100
AcDbVertex
100
AcDb2dVertex
 10
137.2029947573659
 20
-173.7017143662968
 30
0.0
  0
VERTEX
  5
36F
330
36C
100
AcDbEntity
  8
Ebene 1
 62
   179
420
  1709851
370
    15
100
AcDbVertex
100
AcDb2dVertex
 10
190.3859672918132
 20
-173.7017143662968
 30
0.0
  0
SEQEND
  5
370
330
36C
100
AcDbEntity
  8
Ebene 1
370
    15
  0
POLYLINE
  5
371
330
327
100
AcDbEntity
  8
Ebene 1
 62
   179
420
  1709851
370
    15
100
AcDb2dPolyline
 66
     1
 10
0.0
 20
0.0
 30
0.0
  0
VERTEX
  5
372
330
371
100
AcDbEntity
  8
Ebene 1
 62
   179
420
  1709851
370
    15
100
AcDbVertex
100
AcDb2dVertex
 10
190.3859672918132
 20
-174.0317545137837
 30
0.0
  0
VERTEX
  5
373
330
371
100
AcDbEntity
  8
Ebene 1
 62
   179
420
  1709851
370
    15
100
AcDbVertex
100
AcDb2dVertex
 10
137.2029947573659
 20
-174.0317545137837
 30
0.0
  0
VERTEX
  5
374
330
371
100
AcDbEntity
  8
Ebene 1
 62
   179
420
  1709851
370
    15
100
AcDbVertex
100
AcDb2dVertex
 10
36.34954697441956
 20
-174.0317545137837
 30
0.0
  0
SEQEND
  5
375
330
371
100
AcDbEntity
  8
Ebene 1
370
    15
  0
POLYLINE
  5
376
330
327
100
AcDbEntity
  8
Ebene 1
 62
   179
420
  1709851
370
    15
100
AcDb2dPolyline
 66
     1
 10
0.0
 20
0.0
 30
0.0
  0
VERTEX
  5
377
330
376
100
AcDbEntity
  8
Ebene 1
 62
   179
420
  1709851
370
    15
100
AcDbVertex
100
AcDb2dVertex
 10
109.2140055065507
 20
-175.8948621522069
 30
0.0
  0
VERTEX
  5
378
330
376
100
AcDbEntity
  8
Ebene 1
 62
   179
420
  1709851
370
    15
100
AcDbVertex
100
AcDb2dVertex
 10
137.2029947573659
 20
-175.8948621522069
 30
0.0
  0
VERTEX
  5
379
330
376
100
AcDbEntity
  8
Ebene 1
 62
   179
420
  1709851
370
    15
100
AcDbVertex
100
AcDb2dVertex
 10
190.3859672918132
 20
-175.8948621522069
 30
0.0
  0
SEQEND
  5
37A
330
376
100
AcDbEntity
  8
Ebene 1
370
    15
  0
POLYLINE
  5
37B
330
327
100
AcDbEntity
  8
Ebene 1
 62
   179
420
  1709851
370
    15
100
AcDb2dPolyline
 66
     1
 10
0.0
 20
0.0
 30
0.0
  0
VERTEX
  5
37C
330
37B
100
AcDbEntity
  8
Ebene 1
 62
   179
420
  1709851
370
    15
100
AcDbVertex
100
AcDb2dVertex
 10
190.3859672918132
 20
-177.5450628896415
 30
0.0
  0
VERTEX
  5
37D
330
37B
100
AcDbEntity
  8
Ebene 1
 62
   179
420
  1709851
370
    15
100
AcDbVertex
100
AcDb2dVertex
 10
137.2029947573659
 20
-177.5450628896415
 30
0.0
  0
VERTEX
  5
37E
330
37B
100
AcDbEntity
  8
Ebene 1
 62
   179
420
  1709851
370
    15
100
AcDbVertex
100
AcDb2dVertex
 10
109.2140055065507
 20
-177.5450628896415
 30
0.0
  0
SEQEND
  5
37F
330
37B
100
AcDbEntity
  8
Ebene 1
370
    15
  0
POLYLINE
  5
380
330
327
100
AcDbEntity
  8
Ebene 1
 62
   179
420
  1709851
370
    15
100
AcDb2dPolyline
 66
     1
 10
0.0
 20
0.0
 30
0.0
  0
VERTEX
  5
381
330
380
100
AcDbEntity
  8
Ebene 1
 62
   179
420
  1709851
370
    15
100
AcDbVertex
100
AcDb2dVertex
 10
190.3859672918132
 20
-178.282313323485
 30
0.0
  0
VERTEX
  5
382
330
380
100
AcDbEntity
  8
Ebene 1
 62
   179
420
  1709851
370
    15
100
AcDbVertex
100
AcDb2dVertex
 10
137.2029947573659
 20
-178.282313323485
 30
0.0
  0
VERTEX
  5
383
330
380
100
AcDbEntity
  8
Ebene 1
 62
   179
420
  1709851
370
    15
100
AcDbVertex
100
AcDb2dVertex
 10
109.2140055065507
 20
-178.282313323485
 30
0.0
  0
SEQEND
  5
384
330
380
100
AcDbEntity
  8
Ebene 1
370
    15
  0
MTEXT
  5
385
330
327
100
AcDbEntity
  8
Ebene 1
 62
   179
420
  1709851
100
AcDbMText
 10
136.232511359171
 20
-195.615277728874
 30
0.0
 40
1.736651581484572
 41
0.0
 71
     7
 72
     1
  1
\fArial|b0|i0|c0|p34;\W0.895323;8
 73
     1
 44
1.0
  0
MTEXT
  5
386
330
327
100
AcDbEntity
  8
Ebene 1
 62
   179
420
  1709851
100
AcDbMText
 10
58.43898246151873
 20
-197.6919812873826
 30
0.0
 40
1.736651581484572
 41
0.0
 71
     7
 72
     1
  1
\fArial|b0|i0|c0|p34;\W0.895323;RASTERMASS - GRID SIZE - FORMAT DE TRAM
 73
     1
 44
1.0
  0
MTEXT
  5
387
330
327
100
AcDbEntity
  8
Ebene 1
 62
   179
420
  1709851
100
AcDbMText
 10
110.6733479541025
 20
-197.6919812873826
 30
0.0
 40
1.736651581484572
 41
0.0
 71
     7
 72
     1
  1
\fArial|b0|i0|c0|p34;\W0.895323;E
 73
     1
 44
1.0
  0
MTEXT
  5
388
330
327
100
AcDbEntity
  8
Ebene 1
 62
   179
420
  1709851
100
AcDbMText
 10
55.27449000354249
 20
-191.809825255867
 30
0.0
 40
1.736651581484572
 41
0.0
 71
     7
 72
     1
  1
\fArial|b0|i0|c0|p34;\W0.895323;PLATTENMASS 
 73
     1
 44
1.0
  0
MTEXT
  5
389
330
327
100
AcDbEntity
  8
Ebene 1
 62
   179
420
  1709851
100
AcDbMText
 10
72.83069659637566
 20
-191.809825255867
 30
0.0
 40
1.736651581484572
 41
0.0
 71
     7
 72
     1
  1
\fArial|b0|i0|c0|p34;\W0.895323;- WO
 73
     1
 44
1.0
  0
MTEXT
  5
38A
330
327
100
AcDbEntity
  8
Ebene 1
 62
   179
420
  1709851
100
AcDbMText
 10
78.19729408852359
 20
-191.809825255867
 30
0.0
 40
1.736651581484572
 41
0.0
 71
     7
 72
     1
  1
\fArial|b0|i0|c0|p34;\W0.895323;RK SIZE - COTE DE FABRICATION
 73
     1
 44
1.0
  0
POLYLINE
  5
38B
330
327
100
AcDbEntity
  8
Ebene 1
 62
   179
420
  1709851
370
    15
100
AcDb2dPolyline
 66
     1
 10
0.0
 20
0.0
 30
0.0
  0
VERTEX
  5
38C
330
38B
100
AcDbEntity
  8
Ebene 1
 62
   179
420
  1709851
370
    15
100
AcDbVertex
100
AcDb2dVertex
 10
83.94233531972623
 20
-151.2252224014298
 30
0.0
  0
VERTEX
  5
38D
330
38B
100
AcDbEntity
  8
Ebene 1
 62
   179
420
  1709851
370
    15
100
AcDbVertex
100
AcDb2dVertex
 10
83.94233531972623
 20
-152.137483685924
 30
0.0
  0
SEQEND
  5
38E
330
38B
100
AcDbEntity
  8
Ebene 1
370
    15
  0
POLYLINE
  5
38F
330
327
100
AcDbEntity
  8
Ebene 1
 62
   179
420
  1709851
370
    15
100
AcDb2dPolyline
 66
     1
 10
0.0
 20
0.0
 30
0.0
  0
VERTEX
  5
390
330
38F
100
AcDbEntity
  8
Ebene 1
 62
   179
420
  1709851
370
    15
100
AcDbVertex
100
AcDb2dVertex
 10
83.94233531972623
 20
-152.137483685924
 30
0.0
  0
VERTEX
  5
391
330
38F
100
AcDbEntity
  8
Ebene 1
 62
   179
420
  1709851
370
    15
100
AcDbVertex
100
AcDb2dVertex
 10
83.94233531972623
 20
-152.8754231388645
 30
0.0
  0
SEQEND
  5
392
330
38F
100
AcDbEntity
  8
Ebene 1
370
    15
  0
POLYLINE
  5
393
330
327
100
AcDbEntity
  8
Ebene 1
 62
   179
420
  1709851
370
    15
100
AcDb2dPolyline
 66
     1
 10
0.0
 20
0.0
 30
0.0
  0
VERTEX
  5
394
330
393
100
AcDbEntity
  8
Ebene 1
 62
   179
420
  1709851
370
    15
100
AcDbVertex
100
AcDb2dVertex
 10
83.94233531972623
 20
-152.8754231388645
 30
0.0
  0
VERTEX
  5
395
330
393
100
AcDbEntity
  8
Ebene 1
 62
   179
420
  1709851
370
    15
100
AcDbVertex
100
AcDb2dVertex
 10
90.81340601028276
 20
-152.8754231388645
 30
0.0
  0
SEQEND
  5
396
330
393
100
AcDbEntity
  8
Ebene 1
370
    15
  0
POLYLINE
  5
397
330
327
100
AcDbEntity
  8
Ebene 1
 62
   179
420
  1709851
370
    15
100
AcDb2dPolyline
 66
     1
 10
0.0
 20
0.0
 30
0.0
  0
VERTEX
  5
398
330
397
100
AcDbEntity
  8
Ebene 1
 62
   179
420
  1709851
370
    15
100
AcDbVertex
100
AcDb2dVertex
 10
83.94233531972623
 20
-152.137483685924
 30
0.0
  0
VERTEX
  5
399
330
397
100
AcDbEntity
  8
Ebene 1
 62
   179
420
  1709851
370
    15
100
AcDbVertex
100
AcDb2dVertex
 10
91.27935517466281
 20
-152.137483685924
 30
0.0
  0
SEQEND
  5
39A
330
397
100
AcDbEntity
  8
Ebene 1
370
    15
  0
POLYLINE
  5
39B
330
327
100
AcDbEntity
  8
Ebene 1
 62
   179
420
  1709851
370
    15
100
AcDb2dPolyline
 66
     1
 10
0.0
 20
0.0
 30
0.0
  0
VERTEX
  5
39C
330
39B
100
AcDbEntity
  8
Ebene 1
 62
   179
420
  1709851
370
    15
100
AcDbVertex
100
AcDb2dVertex
 10
89.53251950886687
 20
-174.613975650791
 30
0.0
  0
VERTEX
  5
39D
330
39B
100
AcDbEntity
  8
Ebene 1
 62
   179
420
  1709851
370
    15
100
AcDbVertex
100
AcDb2dVertex
 10
89.53251950886687
 20
-172.3236761721969
 30
0.0
  0
SEQEND
  5
39E
330
39B
100
AcDbEntity
  8
Ebene 1
370
    15
  0
POLYLINE
  5
39F
330
327
100
AcDbEntity
  8
Ebene 1
 62
   179
420
  1709851
370
    15
100
AcDb2dPolyline
 66
     1
 10
0.0
 20
0.0
 30
0.0
  0
VERTEX
  5
3A0
330
39F
100
AcDbEntity
  8
Ebene 1
 62
   179
420
  1709851
370
    15
100
AcDbVertex
100
AcDb2dVertex
 10
90.46407332807843
 20
-173.3330891493751
 30
0.0
  0
VERTEX
  5
3A1
330
39F
100
AcDbEntity
  8
Ebene 1
 62
   179
420
  1709851
370
    15
100
AcDbVertex
100
AcDb2dVertex
 10
83.30171981424402
 20
-173.3330891493751
 30
0.0
  0
SEQEND
  5
3A2
330
39F
100
AcDbEntity
  8
Ebene 1
370
    15
  0
POLYLINE
  5
3A3
330
327
100
AcDbEntity
  8
Ebene 1
 62
   179
420
  1709851
370
    15
100
AcDb2dPolyline
 66
     1
 10
0.0
 20
0.0
 30
0.0
  0
VERTEX
  5
3A4
330
3A3
100
AcDbEntity
  8
Ebene 1
 62
   179
420
  1709851
370
    15
100
AcDbVertex
100
AcDb2dVertex
 10
97.97541501456865
 20
-173.3330891493751
 30
0.0
  0
VERTEX
  5
3A5
330
3A3
100
AcDbEntity
  8
Ebene 1
 62
   179
420
  1709851
370
    15
100
AcDbVertex
100
AcDb2dVertex
 10
90.81340601028276
 20
-173.3330891493751
 30
0.0
  0
SEQEND
  5
3A6
330
3A3
100
AcDbEntity
  8
Ebene 1
370
    15
  0
POLYLINE
  5
3A7
330
327
100
AcDbEntity
  8
Ebene 1
 62
   179
420
  1709851
370
    15
100
AcDb2dPolyline
 66
     1
 10
0.0
 20
0.0
 30
0.0
  0
VERTEX
  5
3A8
330
3A7
100
AcDbEntity
  8
Ebene 1
 62
   179
420
  1709851
370
    15
100
AcDbVertex
100
AcDb2dVertex
 10
90.46407332807843
 20
-173.3330891493751
 30
0.0
  0
VERTEX
  5
3A9
330
3A7
100
AcDbEntity
  8
Ebene 1
 62
   179
420
  1709851
370
    15
100
AcDbVertex
100
AcDb2dVertex
 10
90.46407332807843
 20
-165.0834635003958
 30
0.0
  0
SEQEND
  5
3AA
330
3A7
100
AcDbEntity
  8
Ebene 1
370
    15
  0
POLYLINE
  5
3AB
330
327
100
AcDbEntity
  8
Ebene 1
 62
   179
420
  1709851
370
    15
100
AcDb2dPolyline
 66
     1
 10
0.0
 20
0.0
 30
0.0
  0
VERTEX
  5
3AC
330
3AB
100
AcDbEntity
  8
Ebene 1
 62
   179
420
  1709851
370
    15
100
AcDbVertex
100
AcDb2dVertex
 10
90.81340601028276
 20
-163.6089626327089
 30
0.0
  0
VERTEX
  5
3AD
330
3AB
100
AcDbEntity
  8
Ebene 1
 62
   179
420
  1709851
370
    15
100
AcDbVertex
100
AcDb2dVertex
 10
90.81340601028276
 20
-173.3330891493751
 30
0.0
  0
SEQEND
  5
3AE
330
3AB
100
AcDbEntity
  8
Ebene 1
370
    15
  0
POLYLINE
  5
3AF
330
327
100
AcDbEntity
  8
Ebene 1
 62
   179
420
  1709851
370
    15
100
AcDb2dPolyline
 66
     1
 10
0.0
 20
0.0
 30
0.0
  0
VERTEX
  5
3B0
330
3AF
100
AcDbEntity
  8
Ebene 1
 62
   179
420
  1709851
370
    15
100
AcDbVertex
100
AcDb2dVertex
 10
97.97541501456865
 20
-173.3330891493751
 30
0.0
  0
VERTEX
  5
3B1
330
3AF
100
AcDbEntity
  8
Ebene 1
 62
   179
420
  1709851
370
    15
100
AcDbVertex
100
AcDb2dVertex
 10
97.97541501456865
 20
-173.7024033853939
 30
0.0
  0
SEQEND
  5
3B2
330
3AF
100
AcDbEntity
  8
Ebene 1
370
    15
  0
POLYLINE
  5
3B3
330
327
100
AcDbEntity
  8
Ebene 1
 62
   179
420
  1709851
370
    15
100
AcDb2dPolyline
 66
     1
 10
0.0
 20
0.0
 30
0.0
  0
VERTEX
  5
3B4
330
3B3
100
AcDbEntity
  8
Ebene 1
 62
   179
420
  1709851
370
    15
100
AcDbVertex
100
AcDb2dVertex
 10
83.30171981424402
 20
-173.3330891493751
 30
0.0
  0
VERTEX
  5
3B5
330
3B3
100
AcDbEntity
  8
Ebene 1
 62
   179
420
  1709851
370
    15
100
AcDbVertex
100
AcDb2dVertex
 10
83.30171981424402
 20
-173.7024033853939
 30
0.0
  0
SEQEND
  5
3B6
330
3B3
100
AcDbEntity
  8
Ebene 1
370
    15
  0
POLYLINE
  5
3B7
330
327
100
AcDbEntity
  8
Ebene 1
 62
   179
420
  1709851
370
    15
100
AcDb2dPolyline
 66
     1
 10
0.0
 20
0.0
 30
0.0
  0
VERTEX
  5
3B8
330
3B7
100
AcDbEntity
  8
Ebene 1
 62
   179
420
  1709851
370
    15
100
AcDbVertex
100
AcDb2dVertex
 10
95.95727807930929
 20
-165.899262111303
 30
0.0
  0
VERTEX
  5
3B9
330
3B7
100
AcDbEntity
  8
Ebene 1
 62
   179
420
  1709851
370
    15
100
AcDbVertex
100
AcDb2dVertex
 10
100.5377047817232
 20
-151.2252224014298
 30
0.0
  0
SEQEND
  5
3BA
330
3B7
100
AcDbEntity
  8
Ebene 1
370
    15
  0
POLYLINE
  5
3BB
330
327
100
AcDbEntity
  8
Ebene 1
 62
   179
420
  1709851
370
    15
100
AcDb2dPolyline
 66
     1
 10
0.0
 20
0.0
 30
0.0
  0
VERTEX
  5
3BC
330
3BB
100
AcDbEntity
  8
Ebene 1
 62
   179
420
  1709851
370
    15
100
AcDbVertex
100
AcDb2dVertex
 10
91.27935517466281
 20
-165.899262111303
 30
0.0
  0
VERTEX
  5
3BD
330
3BB
100
AcDbEntity
  8
Ebene 1
 62
   179
420
  1709851
370
    15
100
AcDbVertex
100
AcDb2dVertex
 10
137.2029947573659
 20
-165.899262111303
 30
0.0
  0
SEQEND
  5
3BE
330
3BB
100
AcDbEntity
  8
Ebene 1
370
    15
  0
POLYLINE
  5
3BF
330
327
100
AcDbEntity
  8
Ebene 1
 62
   179
420
  1709851
370
    15
100
AcDb2dPolyline
 66
     1
 10
0.0
 20
0.0
 30
0.0
  0
VERTEX
  5
3C0
330
3BF
100
AcDbEntity
  8
Ebene 1
 62
   179
420
  1709851
370
    15
100
AcDbVertex
100
AcDb2dVertex
 10
82.19532739915603
 20
-151.2252224014298
 30
0.0
  0
VERTEX
  5
3C1
330
3BF
100
AcDbEntity
  8
Ebene 1
 62
   179
420
  1709851
370
    15
100
AcDbVertex
100
AcDb2dVertex
 10
86.77627086589274
 20
-165.899262111303
 30
0.0
  0
SEQEND
  5
3C2
330
3BF
100
AcDbEntity
  8
Ebene 1
370
    15
  0
POLYLINE
  5
3C3
330
327
100
AcDbEntity
  8
Ebene 1
 62
   179
420
  1709851
370
    15
100
AcDb2dPolyline
 66
     1
 10
0.0
 20
0.0
 30
0.0
  0
VERTEX
  5
3C4
330
3C3
100
AcDbEntity
  8
Ebene 1
 62
   179
420
  1709851
370
    15
100
AcDbVertex
100
AcDb2dVertex
 10
36.3493747196453
 20
-165.899262111303
 30
0.0
  0
VERTEX
  5
3C5
330
3C3
100
AcDbEntity
  8
Ebene 1
 62
   179
420
  1709851
370
    15
100
AcDbVertex
100
AcDb2dVertex
 10
90.46407332807843
 20
-165.899262111303
 30
0.0
  0
SEQEND
  5
3C6
330
3C3
100
AcDbEntity
  8
Ebene 1
370
    15
  0
POLYLINE
  5
3C7
330
327
100
AcDbEntity
  8
Ebene 1
 62
   179
420
  1709851
370
    15
100
AcDb2dPolyline
 66
     1
 10
0.0
 20
0.0
 30
0.0
  0
VERTEX
  5
3C8
330
3C7
100
AcDbEntity
  8
Ebene 1
 62
   179
420
  1709851
370
    15
100
AcDbVertex
100
AcDb2dVertex
 10
137.2029947573659
 20
-165.899262111303
 30
0.0
  0
VERTEX
  5
3C9
330
3C7
100
AcDbEntity
  8
Ebene 1
 62
   179
420
  1709851
370
    15
100
AcDbVertex
100
AcDb2dVertex
 10
190.3856227822647
 20
-165.899262111303
 30
0.0
  0
SEQEND
  5
3CA
330
3C7
100
AcDbEntity
  8
Ebene 1
370
    15
  0
POLYLINE
  5
3CB
330
327
100
AcDbEntity
  8
Ebene 1
 62
   179
420
  1709851
370
    15
100
AcDb2dPolyline
 66
     1
 10
0.0
 20
0.0
 30
0.0
  0
VERTEX
  5
3CC
330
3CB
100
AcDbEntity
  8
Ebene 1
 62
   179
420
  1709851
370
    15
100
AcDbVertex
100
AcDb2dVertex
 10
132.6220512906292
 20
-165.899262111303
 30
0.0
  0
VERTEX
  5
3CD
330
3CB
100
AcDbEntity
  8
Ebene 1
 62
   179
420
  1709851
370
    15
100
AcDbVertex
100
AcDb2dVertex
 10
137.2029947573659
 20
-151.2252224014298
 30
0.0
  0
VERTEX
  5
3CE
330
3CB
100
AcDbEntity
  8
Ebene 1
 62
   179
420
  1709851
370
    15
100
AcDbVertex
100
AcDb2dVertex
 10
141.80323075882
 20
-165.899262111303
 30
0.0
  0
SEQEND
  5
3CF
330
3CB
100
AcDbEntity
  8
Ebene 1
370
    15
  0
POLYLINE
  5
3D0
330
327
100
AcDbEntity
  8
Ebene 1
 62
   179
420
  1709851
370
    15
100
AcDb2dPolyline
 66
     1
 10
0.0
 20
0.0
 30
0.0
  0
VERTEX
  5
3D1
330
3D0
100
AcDbEntity
  8
Ebene 1
 62
   179
420
  1709851
370
    15
100
AcDbVertex
100
AcDb2dVertex
 10
141.80323075882
 20
-165.899262111303
 30
0.0
  0
VERTEX
  5
3D2
330
3D0
100
AcDbEntity
  8
Ebene 1
 62
   179
420
  1709851
370
    15
100
AcDbVertex
100
AcDb2dVertex
 10
146.3834852064597
 20
-151.2252224014298
 30
0.0
  0
VERTEX
  5
3D3
330
3D0
100
AcDbEntity
  8
Ebene 1
 62
   179
420
  1709851
370
    15
100
AcDbVertex
100
AcDb2dVertex
 10
150.9644286731964
 20
-165.899262111303
 30
0.0
  0
SEQEND
  5
3D4
330
3D0
100
AcDbEntity
  8
Ebene 1
370
    15
  0
POLYLINE
  5
3D5
330
327
100
AcDbEntity
  8
Ebene 1
 62
   179
420
  1709851
370
    15
100
AcDb2dPolyline
 66
     1
 10
0.0
 20
0.0
 30
0.0
  0
VERTEX
  5
3D6
330
3D5
100
AcDbEntity
  8
Ebene 1
 62
   179
420
  1709851
370
    15
100
AcDbVertex
100
AcDb2dVertex
 10
100.5380492912717
 20
-151.2252224014298
 30
0.0
  0
VERTEX
  5
3D7
330
3D5
100
AcDbEntity
  8
Ebene 1
 62
   179
420
  1709851
370
    15
100
AcDbVertex
100
AcDb2dVertex
 10
105.1184759936857
 20
-165.899262111303
 30
0.0
  0
VERTEX
  5
3D8
330
3D5
100
AcDbEntity
  8
Ebene 1
 62
   179
420
  1709851
370
    15
100
AcDbVertex
100
AcDb2dVertex
 10
109.6990749508739
 20
-151.2252224014298
 30
0.0
  0
VERTEX
  5
3D9
330
3D5
100
AcDbEntity
  8
Ebene 1
 62
   179
420
  1709851
370
    15
100
AcDbVertex
100
AcDb2dVertex
 10
114.2800184176106
 20
-165.899262111303
 30
0.0
  0
VERTEX
  5
3DA
330
3D5
100
AcDbEntity
  8
Ebene 1
 62
   179
420
  1709851
370
    15
100
AcDbVertex
100
AcDb2dVertex
 10
118.8805989286132
 20
-151.2252224014298
 30
0.0
  0
VERTEX
  5
3DB
330
3D5
100
AcDbEntity
  8
Ebene 1
 62
   179
420
  1709851
370
    15
100
AcDbVertex
100
AcDb2dVertex
 10
123.4608533762528
 20
-165.899262111303
 30
0.0
  0
VERTEX
  5
3DC
330
3D5
100
AcDbEntity
  8
Ebene 1
 62
   179
420
  1709851
370
    15
100
AcDbVertex
100
AcDb2dVertex
 10
128.041452333441
 20
-151.2252224014298
 30
0.0
  0
VERTEX
  5
3DD
330
3D5
100
AcDbEntity
  8
Ebene 1
 62
   179
420
  1709851
370
    15
100
AcDbVertex
100
AcDb2dVertex
 10
132.6220512906292
 20
-165.899262111303
 30
0.0
  0
SEQEND
  5
3DE
330
3D5
100
AcDbEntity
  8
Ebene 1
370
    15
  0
POLYLINE
  5
3DF
330
327
100
AcDbEntity
  8
Ebene 1
 62
   179
420
  1709851
370
    15
100
AcDb2dPolyline
 66
     1
 10
0.0
 20
0.0
 30
0.0
  0
VERTEX
  5
3E0
330
3DF
100
AcDbEntity
  8
Ebene 1
 62
   179
420
  1709851
370
    15
100
AcDbVertex
100
AcDb2dVertex
 10
77.61490069674211
 20
-165.899262111303
 30
0.0
  0
VERTEX
  5
3E1
330
3DF
100
AcDbEntity
  8
Ebene 1
 62
   179
420
  1709851
370
    15
100
AcDbVertex
100
AcDb2dVertex
 10
82.19532739915603
 20
-151.2252224014298
 30
0.0
  0
SEQEND
  5
3E2
330
3DF
100
AcDbEntity
  8
Ebene 1
370
    15
  0
POLYLINE
  5
3E3
330
327
100
AcDbEntity
  8
Ebene 1
 62
   179
420
  1709851
370
    15
100
AcDb2dPolyline
 66
     1
 10
0.0
 20
0.0
 30
0.0
  0
VERTEX
  5
3E4
330
3E3
100
AcDbEntity
  8
Ebene 1
 62
   179
420
  1709851
370
    15
100
AcDbVertex
100
AcDb2dVertex
 10
169.2678764767803
 20
-177.4864962663923
 30
0.0
  0
VERTEX
  5
3E5
330
3E3
100
AcDbEntity
  8
Ebene 1
 62
   179
420
  1709851
370
    15
100
AcDbVertex
100
AcDb2dVertex
 10
169.2678764767803
 20
-175.9727213101735
 30
0.0
  0
SEQEND
  5
3E6
330
3E3
100
AcDbEntity
  8
Ebene 1
370
    15
  0
POLYLINE
  5
3E7
330
327
100
AcDbEntity
  8
Ebene 1
 62
   179
420
  1709851
370
    15
100
AcDb2dPolyline
 66
     1
 10
0.0
 20
0.0
 30
0.0
  0
VERTEX
  5
3E8
330
3E7
100
AcDbEntity
  8
Ebene 1
 62
   179
420
  1709851
370
    15
100
AcDbVertex
100
AcDb2dVertex
 10
169.2678764767803
 20
-175.9727213101735
 30
0.0
  0
VERTEX
  5
3E9
330
3E7
100
AcDbEntity
  8
Ebene 1
 62
   179
420
  1709851
370
    15
100
AcDbVertex
100
AcDb2dVertex
 10
168.5302815333883
 20
-175.9727213101735
 30
0.0
  0
SEQEND
  5
3EA
330
3E7
100
AcDbEntity
  8
Ebene 1
370
    15
  0
POLYLINE
  5
3EB
330
327
100
AcDbEntity
  8
Ebene 1
 62
   179
420
  1709851
370
    15
100
AcDb2dPolyline
 66
     1
 10
0.0
 20
0.0
 30
0.0
  0
VERTEX
  5
3EC
330
3EB
100
AcDbEntity
  8
Ebene 1
 62
   179
420
  1709851
370
    15
100
AcDbVertex
100
AcDb2dVertex
 10
168.5302815333883
 20
-175.9727213101735
 30
0.0
  0
VERTEX
  5
3ED
330
3EB
100
AcDbEntity
  8
Ebene 1
 62
   179
420
  1709851
370
    15
100
AcDbVertex
100
AcDb2dVertex
 10
168.5302815333883
 20
-175.4097927078837
 30
0.0
  0
SEQEND
  5
3EE
330
3EB
100
AcDbEntity
  8
Ebene 1
370
    15
  0
POLYLINE
  5
3EF
330
327
100
AcDbEntity
  8
Ebene 1
 62
   179
420
  1709851
370
    15
100
AcDb2dPolyline
 66
     1
 10
0.0
 20
0.0
 30
0.0
  0
VERTEX
  5
3F0
330
3EF
100
AcDbEntity
  8
Ebene 1
 62
   179
420
  1709851
370
    15
100
AcDbVertex
100
AcDb2dVertex
 10
168.5302815333883
 20
-175.4097927078837
 30
0.0
  0
VERTEX
  5
3F1
330
3EF
100
AcDbEntity
  8
Ebene 1
 62
   179
420
  1709851
370
    15
100
AcDbVertex
100
AcDb2dVertex
 10
169.2678764767803
 20
-175.4097927078837
 30
0.0
  0
SEQEND
  5
3F2
330
3EF
100
AcDbEntity
  8
Ebene 1
370
    15
  0
POLYLINE
  5
3F3
330
327
100
AcDbEntity
  8
Ebene 1
 62
   179
420
  1709851
370
    15
100
AcDb2dPolyline
 66
     1
 10
0.0
 20
0.0
 30
0.0
  0
VERTEX
  5
3F4
330
3F3
100
AcDbEntity
  8
Ebene 1
 62
   179
420
  1709851
370
    15
100
AcDbVertex
100
AcDb2dVertex
 10
164.1439859615682
 20
-174.6918348087576
 30
0.0
  0
VERTEX
  5
3F5
330
3F3
100
AcDbEntity
  8
Ebene 1
 62
   179
420
  1709851
370
    15
100
AcDbVertex
100
AcDb2dVertex
 10
164.5904703364565
 20
-174.6918348087576
 30
0.0
  0
VERTEX
  5
3F6
330
3F3
100
AcDbEntity
  8
Ebene 1
 62
   179
420
  1709851
370
    15
100
AcDbVertex
100
AcDb2dVertex
 10
164.5904703364565
 20
-175.4097927078837
 30
0.0
  0
VERTEX
  5
3F7
330
3F3
100
AcDbEntity
  8
Ebene 1
 62
   179
420
  1709851
370
    15
100
AcDbVertex
100
AcDb2dVertex
 10
165.3277207703
 20
-175.4097927078837
 30
0.0
  0
VERTEX
  5
3F8
330
3F3
100
AcDbEntity
  8
Ebene 1
 62
   179
420
  1709851
370
    15
100
AcDbVertex
100
AcDb2dVertex
 10
165.3277207703
 20
-175.9727213101735
 30
0.0
  0
SEQEND
  5
3F9
330
3F3
100
AcDbEntity
  8
Ebene 1
370
    15
  0
POLYLINE
  5
3FA
330
327
100
AcDbEntity
  8
Ebene 1
 62
   179
420
  1709851
370
    15
100
AcDb2dPolyline
 66
     1
 10
0.0
 20
0.0
 30
0.0
  0
VERTEX
  5
3FB
330
3FA
100
AcDbEntity
  8
Ebene 1
 62
   179
420
  1709851
370
    15
100
AcDbVertex
100
AcDb2dVertex
 10
166.6089517812644
 20
-178.282313323485
 30
0.0
  0
VERTEX
  5
3FC
330
3FA
100
AcDbEntity
  8
Ebene 1
 62
   179
420
  1709851
370
    15
100
AcDbVertex
100
AcDb2dVertex
 10
166.6089517812644
 20
-178.6709200942212
 30
0.0
  0
SEQEND
  5
3FD
330
3FA
100
AcDbEntity
  8
Ebene 1
370
    15
  0
POLYLINE
  5
3FE
330
327
100
AcDbEntity
  8
Ebene 1
 62
   179
420
  1709851
370
    15
100
AcDb2dPolyline
 66
     1
 10
0.0
 20
0.0
 30
0.0
  0
VERTEX
  5
3FF
330
3FE
100
AcDbEntity
  8
Ebene 1
 62
   179
420
  1709851
370
    15
100
AcDbVertex
100
AcDb2dVertex
 10
167.2690320762383
 20
-178.282313323485
 30
0.0
  0
VERTEX
  5
400
330
3FE
100
AcDbEntity
  8
Ebene 1
 62
   179
420
  1709851
370
    15
100
AcDbVertex
100
AcDb2dVertex
 10
167.2690320762383
 20
-178.6709200942212
 30
0.0
  0
SEQEND
  5
401
330
3FE
100
AcDbEntity
  8
Ebene 1
370
    15
  0
POLYLINE
  5
402
330
327
100
AcDbEntity
  8
Ebene 1
 62
   179
420
  1709851
370
    15
100
AcDb2dPolyline
 66
     1
 10
0.0
 20
0.0
 30
0.0
  0
VERTEX
  5
403
330
402
100
AcDbEntity
  8
Ebene 1
 62
   179
420
  1709851
370
    15
100
AcDbVertex
100
AcDb2dVertex
 10
166.395355861179
 20
-178.4959092435705
 30
0.0
  0
VERTEX
  5
404
330
402
100
AcDbEntity
  8
Ebene 1
 62
   179
420
  1709851
370
    15
100
AcDbVertex
100
AcDb2dVertex
 10
167.5019205310412
 20
-178.4959092435705
 30
0.0
  0
SEQEND
  5
405
330
402
100
AcDbEntity
  8
Ebene 1
370
    15
  0
POLYLINE
  5
406
330
327
100
AcDbEntity
  8
Ebene 1
 62
   179
420
  1709851
370
    15
100
AcDb2dPolyline
 66
     1
 10
0.0
 20
0.0
 30
0.0
  0
VERTEX
  5
407
330
406
100
AcDbEntity
  8
Ebene 1
 62
   179
420
  1709851
370
    15
100
AcDbVertex
100
AcDb2dVertex
 10
166.6089517812644
 20
-178.282313323485
 30
0.0
  0
VERTEX
  5
408
330
406
100
AcDbEntity
  8
Ebene 1
 62
   179
420
  1709851
370
    15
100
AcDbVertex
100
AcDb2dVertex
 10
166.395355861179
 20
-178.4959092435705
 30
0.0
  0
VERTEX
  5
409
330
406
100
AcDbEntity
  8
Ebene 1
 62
   179
420
  1709851
370
    15
100
AcDbVertex
100
AcDb2dVertex
 10
166.395355861179
 20
-178.6709200942212
 30
0.0
  0
SEQEND
  5
40A
330
406
100
AcDbEntity
  8
Ebene 1
370
    15
  0
POLYLINE
  5
40B
330
327
100
AcDbEntity
  8
Ebene 1
 62
   179
420
  1709851
370
    15
100
AcDb2dPolyline
 66
     1
 10
0.0
 20
0.0
 30
0.0
  0
VERTEX
  5
40C
330
40B
100
AcDbEntity
  8
Ebene 1
 62
   179
420
  1709851
370
    15
100
AcDbVertex
100
AcDb2dVertex
 10
167.5019205310412
 20
-178.6709200942212
 30
0.0
  0
VERTEX
  5
40D
330
40B
100
AcDbEntity
  8
Ebene 1
 62
   179
420
  1709851
370
    15
100
AcDbVertex
100
AcDb2dVertex
 10
167.5019205310412
 20
-178.4959092435705
 30
0.0
  0
VERTEX
  5
40E
330
40B
100
AcDbEntity
  8
Ebene 1
 62
   179
420
  1709851
370
    15
100
AcDbVertex
100
AcDb2dVertex
 10
167.2690320762383
 20
-178.282313323485
 30
0.0
  0
SEQEND
  5
40F
330
40B
100
AcDbEntity
  8
Ebene 1
370
    15
  0
POLYLINE
  5
410
330
327
100
AcDbEntity
  8
Ebene 1
 62
   179
420
  1709851
370
    15
100
AcDb2dPolyline
 66
     1
 10
0.0
 20
0.0
 30
0.0
  0
VERTEX
  5
411
330
410
100
AcDbEntity
  8
Ebene 1
 62
   179
420
  1709851
370
    15
100
AcDbVertex
100
AcDb2dVertex
 10
167.9484049059296
 20
-179.0195637573285
 30
0.0
  0
VERTEX
  5
412
330
410
100
AcDbEntity
  8
Ebene 1
 62
   179
420
  1709851
370
    15
100
AcDbVertex
100
AcDb2dVertex
 10
167.7541015205615
 20
-178.9616861531763
 30
0.0
  0
VERTEX
  5
413
330
410
100
AcDbEntity
  8
Ebene 1
 62
   179
420
  1709851
370
    15
100
AcDbVertex
100
AcDb2dVertex
 10
167.5597981351934
 20
-178.9616861531763
 30
0.0
  0
VERTEX
  5
414
330
410
100
AcDbEntity
  8
Ebene 1
 62
   179
420
  1709851
370
    15
100
AcDbVertex
100
AcDb2dVertex
 10
167.4240613730746
 20
-179.0195637573285
 30
0.0
  0
SEQEND
  5
415
330
410
100
AcDbEntity
  8
Ebene 1
370
    15
  0
POLYLINE
  5
416
330
327
100
AcDbEntity
  8
Ebene 1
 62
   179
420
  1709851
370
    15
100
AcDb2dPolyline
 66
     1
 10
0.0
 20
0.0
 30
0.0
  0
VERTEX
  5
417
330
416
100
AcDbEntity
  8
Ebene 1
 62
   179
420
  1709851
370
    15
100
AcDbVertex
100
AcDb2dVertex
 10
167.4240613730746
 20
-179.0195637573285
 30
0.0
  0
VERTEX
  5
418
330
416
100
AcDbEntity
  8
Ebene 1
 62
   179
420
  1709851
370
    15
100
AcDbVertex
100
AcDb2dVertex
 10
167.0554361561528
 20
-178.9616861531763
 30
0.0
  0
VERTEX
  5
419
330
416
100
AcDbEntity
  8
Ebene 1
 62
   179
420
  1709851
370
    15
100
AcDbVertex
100
AcDb2dVertex
 10
166.7061034739485
 20
-178.9616861531763
 30
0.0
  0
VERTEX
  5
41A
330
416
100
AcDbEntity
  8
Ebene 1
 62
   179
420
  1709851
370
    15
100
AcDbVertex
100
AcDb2dVertex
 10
166.4535779748797
 20
-179.0195637573285
 30
0.0
  0
SEQEND
  5
41B
330
416
100
AcDbEntity
  8
Ebene 1
370
    15
  0
POLYLINE
  5
41C
330
327
100
AcDbEntity
  8
Ebene 1
 62
   179
420
  1709851
370
    15
100
AcDb2dPolyline
 66
     1
 10
0.0
 20
0.0
 30
0.0
  0
VERTEX
  5
41D
330
41C
100
AcDbEntity
  8
Ebene 1
 62
   179
420
  1709851
370
    15
100
AcDbVertex
100
AcDb2dVertex
 10
166.4535779748797
 20
-179.0195637573285
 30
0.0
  0
VERTEX
  5
41E
330
41C
100
AcDbEntity
  8
Ebene 1
 62
   179
420
  1709851
370
    15
100
AcDbVertex
100
AcDb2dVertex
 10
166.2596190990601
 20
-178.9616861531763
 30
0.0
  0
VERTEX
  5
41F
330
41C
100
AcDbEntity
  8
Ebene 1
 62
   179
420
  1709851
370
    15
100
AcDbVertex
100
AcDb2dVertex
 10
166.0460231789746
 20
-178.9616861531763
 30
0.0
  0
VERTEX
  5
420
330
41C
100
AcDbEntity
  8
Ebene 1
 62
   179
420
  1709851
370
    15
100
AcDbVertex
100
AcDb2dVertex
 10
165.9102864168558
 20
-179.0195637573285
 30
0.0
  0
SEQEND
  5
421
330
41C
100
AcDbEntity
  8
Ebene 1
370
    15
  0
POLYLINE
  5
422
330
327
100
AcDbEntity
  8
Ebene 1
 62
   179
420
  1709851
370
    15
100
AcDb2dPolyline
 66
     1
 10
0.0
 20
0.0
 30
0.0
  0
VERTEX
  5
423
330
422
100
AcDbEntity
  8
Ebene 1
 62
   179
420
  1709851
370
    15
100
AcDbVertex
100
AcDb2dVertex
 10
165.9102864168558
 20
-179.6796440523023
 30
0.0
  0
VERTEX
  5
424
330
422
100
AcDbEntity
  8
Ebene 1
 62
   179
420
  1709851
370
    15
100
AcDbVertex
100
AcDb2dVertex
 10
166.1042452926753
 20
-179.7382106755516
 30
0.0
  0
VERTEX
  5
425
330
422
100
AcDbEntity
  8
Ebene 1
 62
   179
420
  1709851
370
    15
100
AcDbVertex
100
AcDb2dVertex
 10
166.2985486780434
 20
-179.7189181408342
 30
0.0
  0
VERTEX
  5
426
330
422
100
AcDbEntity
  8
Ebene 1
 62
   179
420
  1709851
370
    15
100
AcDbVertex
100
AcDb2dVertex
 10
166.4535779748797
 20
-179.6796440523023
 30
0.0
  0
SEQEND
  5
427
330
422
100
AcDbEntity
  8
Ebene 1
370
    15
  0
POLYLINE
  5
428
330
327
100
AcDbEntity
  8
Ebene 1
 62
   179
420
  1709851
370
    15
100
AcDb2dPolyline
 66
     1
 10
0.0
 20
0.0
 30
0.0
  0
VERTEX
  5
429
330
428
100
AcDbEntity
  8
Ebene 1
 62
   179
420
  1709851
370
    15
100
AcDbVertex
100
AcDb2dVertex
 10
166.4535779748797
 20
-179.6796440523023
 30
0.0
  0
VERTEX
  5
42A
330
428
100
AcDbEntity
  8
Ebene 1
 62
   179
420
  1709851
370
    15
100
AcDbVertex
100
AcDb2dVertex
 10
166.8032551666325
 20
-179.7382106755516
 30
0.0
  0
VERTEX
  5
42B
330
428
100
AcDbEntity
  8
Ebene 1
 62
   179
420
  1709851
370
    15
100
AcDbVertex
100
AcDb2dVertex
 10
167.1718803835543
 20
-179.7189181408342
 30
0.0
  0
VERTEX
  5
42C
330
428
100
AcDbEntity
  8
Ebene 1
 62
   179
420
  1709851
370
    15
100
AcDbVertex
100
AcDb2dVertex
 10
167.4240613730746
 20
-179.6796440523023
 30
0.0
  0
SEQEND
  5
42D
330
428
100
AcDbEntity
  8
Ebene 1
370
    15
  0
POLYLINE
  5
42E
330
327
100
AcDbEntity
  8
Ebene 1
 62
   179
420
  1709851
370
    15
100
AcDb2dPolyline
 66
     1
 10
0.0
 20
0.0
 30
0.0
  0
VERTEX
  5
42F
330
42E
100
AcDbEntity
  8
Ebene 1
 62
   179
420
  1709851
370
    15
100
AcDbVertex
100
AcDb2dVertex
 10
167.4240613730746
 20
-179.6796440523023
 30
0.0
  0
VERTEX
  5
430
330
42E
100
AcDbEntity
  8
Ebene 1
 62
   179
420
  1709851
370
    15
100
AcDbVertex
100
AcDb2dVertex
 10
167.6180202488941
 20
-179.7382106755516
 30
0.0
  0
VERTEX
  5
431
330
42E
100
AcDbEntity
  8
Ebene 1
 62
   179
420
  1709851
370
    15
100
AcDbVertex
100
AcDb2dVertex
 10
167.8123236342622
 20
-179.7189181408342
 30
0.0
  0
VERTEX
  5
432
330
42E
100
AcDbEntity
  8
Ebene 1
 62
   179
420
  1709851
370
    15
100
AcDbVertex
100
AcDb2dVertex
 10
167.9484049059296
 20
-179.6796440523023
 30
0.0
  0
SEQEND
  5
433
330
42E
100
AcDbEntity
  8
Ebene 1
370
    15
  0
POLYLINE
  5
434
330
327
100
AcDbEntity
  8
Ebene 1
 62
   179
420
  1709851
370
    15
100
AcDb2dPolyline
 66
     1
 10
0.0
 20
0.0
 30
0.0
  0
VERTEX
  5
435
330
434
100
AcDbEntity
  8
Ebene 1
 62
   179
420
  1709851
370
    15
100
AcDbVertex
100
AcDb2dVertex
 10
166.1624674063761
 20
-178.9616861531763
 30
0.0
  0
VERTEX
  5
436
330
434
100
AcDbEntity
  8
Ebene 1
 62
   179
420
  1709851
370
    15
100
AcDbVertex
100
AcDb2dVertex
 10
166.1624674063761
 20
-178.7673827678082
 30
0.0
  0
VERTEX
  5
437
330
434
100
AcDbEntity
  8
Ebene 1
 62
   179
420
  1709851
370
    15
100
AcDbVertex
100
AcDb2dVertex
 10
166.3371337474782
 20
-178.6709200942212
 30
0.0
  0
VERTEX
  5
438
330
434
100
AcDbEntity
  8
Ebene 1
 62
   179
420
  1709851
370
    15
100
AcDbVertex
100
AcDb2dVertex
 10
167.5212130657586
 20
-178.6709200942212
 30
0.0
  0
VERTEX
  5
439
330
434
100
AcDbEntity
  8
Ebene 1
 62
   179
420
  1709851
370
    15
100
AcDbVertex
100
AcDb2dVertex
 10
167.7155164511267
 20
-178.7673827678082
 30
0.0
  0
VERTEX
  5
43A
330
434
100
AcDbEntity
  8
Ebene 1
 62
   179
420
  1709851
370
    15
100
AcDbVertex
100
AcDb2dVertex
 10
167.7155164511267
 20
-178.9616861531763
 30
0.0
  0
VERTEX
  5
43B
330
434
100
AcDbEntity
  8
Ebene 1
 62
   179
420
  1709851
370
    15
100
AcDbVertex
100
AcDb2dVertex
 10
166.1624674063761
 20
-178.9616861531763
 30
0.0
  0
SEQEND
  5
43C
330
434
100
AcDbEntity
  8
Ebene 1
370
    15
  0
SPLINE
  5
43D
330
327
100
AcDbEntity
  8
Ebene 1
 62
   179
420
  1709851
370
    15
100
AcDbSpline
210
0.0
220
0.0
230
1.0
 70
    27
 71
     3
 72
    11
 73
     7
 74
     0
 42
0.0000000001
 43
0.0000000001
 40
0.0
 40
0.0
 40
0.0
 40
0.0
 40
1.0
 40
1.0
 40
1.0
 40
2.0
 40
2.0
 40
2.0
 40
2.0
 10
165.9102864168558
 20
-179.0195637573285
 30
0.0
 10
165.9102864168558
 20
-179.0195637573285
 30
0.0
 10
165.9102864168558
 20
-179.6796440523023
 30
0.0
 10
165.9102864168558
 20
-179.6796440523023
 30
0.0
 10
165.9102864168558
 20
-179.6796440523023
 30
0.0
 10
165.9102864168558
 20
-179.0195637573285
 30
0.0
 10
165.9102864168558
 20
-179.0195637573285
 30
0.0
  0
POLYLINE
  5
43E
330
327
100
AcDbEntity
  8
Ebene 1
 62
   179
420
  1709851
370
    15
100
AcDb2dPolyline
 66
     1
 10
0.0
 20
0.0
 30
0.0
  0
VERTEX
  5
43F
330
43E
100
AcDbEntity
  8
Ebene 1
 62
   179
420
  1709851
370
    15
100
AcDbVertex
100
AcDb2dVertex
 10
166.4535779748797
 20
-179.0195637573285
 30
0.0
  0
VERTEX
  5
440
330
43E
100
AcDbEntity
  8
Ebene 1
 62
   179
420
  1709851
370
    15
100
AcDbVertex
100
AcDb2dVertex
 10
166.4535779748797
 20
-179.6796440523023
 30
0.0
  0
SEQEND
  5
441
330
43E
100
AcDbEntity
  8
Ebene 1
370
    15
  0
POLYLINE
  5
442
330
327
100
AcDbEntity
  8
Ebene 1
 62
   179
420
  1709851
370
    15
100
AcDb2dPolyline
 66
     1
 10
0.0
 20
0.0
 30
0.0
  0
VERTEX
  5
443
330
442
100
AcDbEntity
  8
Ebene 1
 62
   179
420
  1709851
370
    15
100
AcDbVertex
100
AcDb2dVertex
 10
167.4240613730746
 20
-179.0195637573285
 30
0.0
  0
VERTEX
  5
444
330
442
100
AcDbEntity
  8
Ebene 1
 62
   179
420
  1709851
370
    15
100
AcDbVertex
100
AcDb2dVertex
 10
167.4240613730746
 20
-179.6796440523023
 30
0.0
  0
SEQEND
  5
445
330
442
100
AcDbEntity
  8
Ebene 1
370
    15
  0
POLYLINE
  5
446
330
327
100
AcDbEntity
  8
Ebene 1
 62
   179
420
  1709851
370
    15
100
AcDb2dPolyline
 66
     1
 10
0.0
 20
0.0
 30
0.0
  0
VERTEX
  5
447
330
446
100
AcDbEntity
  8
Ebene 1
 62
   179
420
  1709851
370
    15
100
AcDbVertex
100
AcDb2dVertex
 10
167.9484049059296
 20
-179.0195637573285
 30
0.0
  0
VERTEX
  5
448
330
446
100
AcDbEntity
  8
Ebene 1
 62
   179
420
  1709851
370
    15
100
AcDbVertex
100
AcDb2dVertex
 10
167.9484049059296
 20
-179.6796440523023
 30
0.0
  0
SEQEND
  5
449
330
446
100
AcDbEntity
  8
Ebene 1
370
    15
  0
POLYLINE
  5
44A
330
327
100
AcDbEntity
  8
Ebene 1
 62
   179
420
  1709851
370
    15
100
AcDb2dPolyline
 66
     1
 10
0.0
 20
0.0
 30
0.0
  0
VERTEX
  5
44B
330
44A
100
AcDbEntity
  8
Ebene 1
 62
   179
420
  1709851
370
    15
100
AcDbVertex
100
AcDb2dVertex
 10
169.2292914073455
 20
-177.4672037316749
 30
0.0
  0
VERTEX
  5
44C
330
44A
100
AcDbEntity
  8
Ebene 1
 62
   179
420
  1709851
370
    15
100
AcDbVertex
100
AcDb2dVertex
 10
164.6483479406087
 20
-177.4672037316749
 30
0.0
  0
VERTEX
  5
44D
330
44A
100
AcDbEntity
  8
Ebene 1
 62
   179
420
  1709851
370
    15
100
AcDbVertex
100
AcDb2dVertex
 10
164.6483479406087
 20
-175.9920138448909
 30
0.0
  0
VERTEX
  5
44E
330
44A
100
AcDbEntity
  8
Ebene 1
 62
   179
420
  1709851
370
    15
100
AcDbVertex
100
AcDb2dVertex
 10
169.2292914073455
 20
-175.9920138448909
 30
0.0
  0
VERTEX
  5
44F
330
44A
100
AcDbEntity
  8
Ebene 1
 62
   179
420
  1709851
370
    15
100
AcDbVertex
100
AcDb2dVertex
 10
169.2292914073455
 20
-177.4672037316749
 30
0.0
  0
SEQEND
  5
450
330
44A
100
AcDbEntity
  8
Ebene 1
370
    15
  0
POLYLINE
  5
451
330
327
100
AcDbEntity
  8
Ebene 1
 62
   179
420
  1709851
370
    15
100
AcDb2dPolyline
 66
     1
 10
0.0
 20
0.0
 30
0.0
  0
VERTEX
  5
452
330
451
100
AcDbEntity
  8
Ebene 1
 62
   179
420
  1709851
370
    15
100
AcDbVertex
100
AcDb2dVertex
 10
169.2678764767803
 20
-175.4097927078837
 30
0.0
  0
VERTEX
  5
453
330
451
100
AcDbEntity
  8
Ebene 1
 62
   179
420
  1709851
370
    15
100
AcDbVertex
100
AcDb2dVertex
 10
169.2678764767803
 20
-174.6918348087576
 30
0.0
  0
VERTEX
  5
454
330
451
100
AcDbEntity
  8
Ebene 1
 62
   179
420
  1709851
370
    15
100
AcDbVertex
100
AcDb2dVertex
 10
169.733653386386
 20
-174.6918348087576
 30
0.0
  0
SEQEND
  5
455
330
451
100
AcDbEntity
  8
Ebene 1
370
    15
  0
POLYLINE
  5
456
330
327
100
AcDbEntity
  8
Ebene 1
 62
   179
420
  1709851
370
    15
100
AcDb2dPolyline
 66
     1
 10
0.0
 20
0.0
 30
0.0
  0
VERTEX
  5
457
330
456
100
AcDbEntity
  8
Ebene 1
 62
   179
420
  1709851
370
    15
100
AcDbVertex
100
AcDb2dVertex
 10
165.3280652798485
 20
-175.9727213101735
 30
0.0
  0
VERTEX
  5
458
330
456
100
AcDbEntity
  8
Ebene 1
 62
   179
420
  1709851
370
    15
100
AcDbVertex
100
AcDb2dVertex
 10
164.5904703364565
 20
-175.9727213101735
 30
0.0
  0
VERTEX
  5
459
330
456
100
AcDbEntity
  8
Ebene 1
 62
   179
420
  1709851
370
    15
100
AcDbVertex
100
AcDb2dVertex
 10
164.5904703364565
 20
-177.4864962663923
 30
0.0
  0
VERTEX
  5
45A
330
456
100
AcDbEntity
  8
Ebene 1
 62
   179
420
  1709851
370
    15
100
AcDbVertex
100
AcDb2dVertex
 10
165.3280652798485
 20
-177.4864962663923
 30
0.0
  0
VERTEX
  5
45B
330
456
100
AcDbEntity
  8
Ebene 1
 62
   179
420
  1709851
370
    15
100
AcDbVertex
100
AcDb2dVertex
 10
165.3280652798485
 20
-178.2244357193328
 30
0.0
  0
VERTEX
  5
45C
330
456
100
AcDbEntity
  8
Ebene 1
 62
   179
420
  1709851
370
    15
100
AcDbVertex
100
AcDb2dVertex
 10
164.5904703364565
 20
-178.2244357193328
 30
0.0
  0
VERTEX
  5
45D
330
456
100
AcDbEntity
  8
Ebene 1
 62
   179
420
  1709851
370
    15
100
AcDbVertex
100
AcDb2dVertex
 10
164.5904703364565
 20
-179.7382106755516
 30
0.0
  0
VERTEX
  5
45E
330
456
100
AcDbEntity
  8
Ebene 1
 62
   179
420
  1709851
370
    15
100
AcDbVertex
100
AcDb2dVertex
 10
169.2678764767803
 20
-179.7382106755516
 30
0.0
  0
VERTEX
  5
45F
330
456
100
AcDbEntity
  8
Ebene 1
 62
   179
420
  1709851
370
    15
100
AcDbVertex
100
AcDb2dVertex
 10
169.2678764767803
 20
-178.2244357193328
 30
0.0
  0
VERTEX
  5
460
330
456
100
AcDbEntity
  8
Ebene 1
 62
   179
420
  1709851
370
    15
100
AcDbVertex
100
AcDb2dVertex
 10
168.5302815333883
 20
-178.2244357193328
 30
0.0
  0
VERTEX
  5
461
330
456
100
AcDbEntity
  8
Ebene 1
 62
   179
420
  1709851
370
    15
100
AcDbVertex
100
AcDb2dVertex
 10
168.5302815333883
 20
-177.4864962663923
 30
0.0
  0
VERTEX
  5
462
330
456
100
AcDbEntity
  8
Ebene 1
 62
   179
420
  1709851
370
    15
100
AcDbVertex
100
AcDb2dVertex
 10
169.2678764767803
 20
-177.4864962663923
 30
0.0
  0
SEQEND
  5
463
330
456
100
AcDbEntity
  8
Ebene 1
370
    15
  0
POLYLINE
  5
464
330
327
100
AcDbEntity
  8
Ebene 1
 62
   179
420
  1709851
370
    15
100
AcDb2dPolyline
 66
     1
 10
0.0
 20
0.0
 30
0.0
  0
VERTEX
  5
465
330
464
100
AcDbEntity
  8
Ebene 1
 62
   179
420
  1709851
370
    15
100
AcDbVertex
100
AcDb2dVertex
 10
164.1439859615682
 20
-180.2039875851573
 30
0.0
  0
VERTEX
  5
466
330
464
100
AcDbEntity
  8
Ebene 1
 62
   179
420
  1709851
370
    15
100
AcDbVertex
100
AcDb2dVertex
 10
164.1439859615682
 20
-174.6918348087576
 30
0.0
  0
SEQEND
  5
467
330
464
100
AcDbEntity
  8
Ebene 1
370
    15
  0
POLYLINE
  5
468
330
327
100
AcDbEntity
  8
Ebene 1
 62
   179
420
  1709851
370
    15
100
AcDb2dPolyline
 66
     1
 10
0.0
 20
0.0
 30
0.0
  0
VERTEX
  5
469
330
468
100
AcDbEntity
  8
Ebene 1
 62
   179
420
  1709851
370
    15
100
AcDbVertex
100
AcDb2dVertex
 10
164.182571031003
 20
-180.2039875851573
 30
0.0
  0
VERTEX
  5
46A
330
468
100
AcDbEntity
  8
Ebene 1
 62
   179
420
  1709851
370
    15
100
AcDbVertex
100
AcDb2dVertex
 10
164.182571031003
 20
-180.378998435808
 30
0.0
  0
SEQEND
  5
46B
330
468
100
AcDbEntity
  8
Ebene 1
370
    15
  0
POLYLINE
  5
46C
330
327
100
AcDbEntity
  8
Ebene 1
 62
   179
420
  1709851
370
    15
100
AcDb2dPolyline
 66
     1
 10
0.0
 20
0.0
 30
0.0
  0
VERTEX
  5
46D
330
46C
100
AcDbEntity
  8
Ebene 1
 62
   179
420
  1709851
370
    15
100
AcDbVertex
100
AcDb2dVertex
 10
169.6754312726853
 20
-180.2039875851573
 30
0.0
  0
VERTEX
  5
46E
330
46C
100
AcDbEntity
  8
Ebene 1
 62
   179
420
  1709851
370
    15
100
AcDbVertex
100
AcDb2dVertex
 10
169.6754312726853
 20
-180.378998435808
 30
0.0
  0
SEQEND
  5
46F
330
46C
100
AcDbEntity
  8
Ebene 1
370
    15
  0
POLYLINE
  5
470
330
327
100
AcDbEntity
  8
Ebene 1
 62
   179
420
  1709851
370
    15
100
AcDb2dPolyline
 66
     1
 10
0.0
 20
0.0
 30
0.0
  0
VERTEX
  5
471
330
470
100
AcDbEntity
  8
Ebene 1
 62
   179
420
  1709851
370
    15
100
AcDbVertex
100
AcDb2dVertex
 10
169.733653386386
 20
-174.6918348087576
 30
0.0
  0
VERTEX
  5
472
330
470
100
AcDbEntity
  8
Ebene 1
 62
   179
420
  1709851
370
    15
100
AcDbVertex
100
AcDb2dVertex
 10
169.733653386386
 20
-180.2039875851573
 30
0.0
  0
VERTEX
  5
473
330
470
100
AcDbEntity
  8
Ebene 1
 62
   179
420
  1709851
370
    15
100
AcDbVertex
100
AcDb2dVertex
 10
164.1439859615682
 20
-180.2039875851573
 30
0.0
  0
SEQEND
  5
474
330
470
100
AcDbEntity
  8
Ebene 1
370
    15
  0
POLYLINE
  5
475
330
327
100
AcDbEntity
  8
Ebene 1
 62
   179
420
  1709851
370
    15
100
AcDb2dPolyline
 66
     1
 10
0.0
 20
0.0
 30
0.0
  0
VERTEX
  5
476
330
475
100
AcDbEntity
  8
Ebene 1
 62
   179
420
  1709851
370
    15
100
AcDbVertex
100
AcDb2dVertex
 10
170.6069850918969
 20
-180.7476236527298
 30
0.0
  0
VERTEX
  5
477
330
475
100
AcDbEntity
  8
Ebene 1
 62
   179
420
  1709851
370
    15
100
AcDbVertex
100
AcDb2dVertex
 10
169.9668863507374
 20
-180.378998435808
 30
0.0
  0
SEQEND
  5
478
330
475
100
AcDbEntity
  8
Ebene 1
370
    15
  0
POLYLINE
  5
479
330
327
100
AcDbEntity
  8
Ebene 1
 62
   179
420
  1709851
370
    15
100
AcDb2dPolyline
 66
     1
 10
0.0
 20
0.0
 30
0.0
  0
VERTEX
  5
47A
330
479
100
AcDbEntity
  8
Ebene 1
 62
   179
420
  1709851
370
    15
100
AcDbVertex
100
AcDb2dVertex
 10
169.9668863507374
 20
-180.378998435808
 30
0.0
  0
VERTEX
  5
47B
330
479
100
AcDbEntity
  8
Ebene 1
 62
   179
420
  1709851
370
    15
100
AcDbVertex
100
AcDb2dVertex
 10
163.8918049720479
 20
-180.378998435808
 30
0.0
  0
VERTEX
  5
47C
330
479
100
AcDbEntity
  8
Ebene 1
 62
   179
420
  1709851
370
    15
100
AcDbVertex
100
AcDb2dVertex
 10
163.2703097465088
 20
-180.7476236527298
 30
0.0
  0
SEQEND
  5
47D
330
479
100
AcDbEntity
  8
Ebene 1
370
    15
  0
POLYLINE
  5
47E
330
327
100
AcDbEntity
  8
Ebene 1
 62
   179
420
  1709851
370
    15
100
AcDb2dPolyline
 66
     1
 10
0.0
 20
0.0
 30
0.0
  0
VERTEX
  5
47F
330
47E
100
AcDbEntity
  8
Ebene 1
 62
   179
420
  1709851
370
    15
100
AcDbVertex
100
AcDb2dVertex
 10
170.6069850918969
 20
-180.7476236527298
 30
0.0
  0
VERTEX
  5
480
330
47E
100
AcDbEntity
  8
Ebene 1
 62
   179
420
  1709851
370
    15
100
AcDbVertex
100
AcDb2dVertex
 10
163.2703097465088
 20
-180.7476236527298
 30
0.0
  0
SEQEND
  5
481
330
47E
100
AcDbEntity
  8
Ebene 1
370
    15
  0
POLYLINE
  5
482
330
327
100
AcDbEntity
  8
Ebene 1
 62
   179
420
  1709851
370
    15
100
AcDb2dPolyline
 66
     1
 10
0.0
 20
0.0
 30
0.0
  0
VERTEX
  5
483
330
482
100
AcDbEntity
  8
Ebene 1
 62
   179
420
  1709851
370
    15
100
AcDbVertex
100
AcDb2dVertex
 10
163.2703097465088
 20
-182.5914387564355
 30
0.0
  0
VERTEX
  5
484
330
482
100
AcDbEntity
  8
Ebene 1
 62
   179
420
  1709851
370
    15
100
AcDbVertex
100
AcDb2dVertex
 10
163.1538655191074
 20
-182.6300238258703
 30
0.0
  0
VERTEX
  5
485
330
482
100
AcDbEntity
  8
Ebene 1
 62
   179
420
  1709851
370
    15
100
AcDbVertex
100
AcDb2dVertex
 10
163.0760063611407
 20
-182.7271755185543
 30
0.0
  0
VERTEX
  5
486
330
482
100
AcDbEntity
  8
Ebene 1
 62
   179
420
  1709851
370
    15
100
AcDbVertex
100
AcDb2dVertex
 10
163.0760063611407
 20
-182.7657605879891
 30
0.0
  0
SEQEND
  5
487
330
482
100
AcDbEntity
  8
Ebene 1
370
    15
  0
POLYLINE
  5
488
330
327
100
AcDbEntity
  8
Ebene 1
 62
   179
420
  1709851
370
    15
100
AcDb2dPolyline
 66
     1
 10
0.0
 20
0.0
 30
0.0
  0
VERTEX
  5
489
330
488
100
AcDbEntity
  8
Ebene 1
 62
   179
420
  1709851
370
    15
100
AcDbVertex
100
AcDb2dVertex
 10
163.2703097465088
 20
-182.5914387564355
 30
0.0
  0
VERTEX
  5
48A
330
488
100
AcDbEntity
  8
Ebene 1
 62
   179
420
  1709851
370
    15
100
AcDbVertex
100
AcDb2dVertex
 10
170.6069850918969
 20
-182.5914387564355
 30
0.0
  0
SEQEND
  5
48B
330
488
100
AcDbEntity
  8
Ebene 1
370
    15
  0
POLYLINE
  5
48C
330
327
100
AcDbEntity
  8
Ebene 1
 62
   179
420
  1709851
370
    15
100
AcDb2dPolyline
 66
     1
 10
0.0
 20
0.0
 30
0.0
  0
VERTEX
  5
48D
330
48C
100
AcDbEntity
  8
Ebene 1
 62
   179
420
  1709851
370
    15
100
AcDbVertex
100
AcDb2dVertex
 10
170.7819959425476
 20
-182.7657605879891
 30
0.0
  0
VERTEX
  5
48E
330
48C
100
AcDbEntity
  8
Ebene 1
 62
   179
420
  1709851
370
    15
100
AcDbVertex
100
AcDb2dVertex
 10
170.7430663635643
 20
-182.6493163605877
 30
0.0
  0
VERTEX
  5
48F
330
48C
100
AcDbEntity
  8
Ebene 1
 62
   179
420
  1709851
370
    15
100
AcDbVertex
100
AcDb2dVertex
 10
170.6459146708802
 20
-182.5914387564355
 30
0.0
  0
VERTEX
  5
490
330
48C
100
AcDbEntity
  8
Ebene 1
 62
   179
420
  1709851
370
    15
100
AcDbVertex
100
AcDb2dVertex
 10
170.6069850918969
 20
-182.5914387564355
 30
0.0
  0
SEQEND
  5
491
330
48C
100
AcDbEntity
  8
Ebene 1
370
    15
  0
POLYLINE
  5
492
330
327
100
AcDbEntity
  8
Ebene 1
 62
   179
420
  1709851
370
    15
100
AcDb2dPolyline
 66
     1
 10
0.0
 20
0.0
 30
0.0
  0
VERTEX
  5
493
330
492
100
AcDbEntity
  8
Ebene 1
 62
   179
420
  1709851
370
    15
100
AcDbVertex
100
AcDb2dVertex
 10
163.2703097465088
 20
-180.7476236527298
 30
0.0
  0
VERTEX
  5
494
330
492
100
AcDbEntity
  8
Ebene 1
 62
   179
420
  1709851
370
    15
100
AcDbVertex
100
AcDb2dVertex
 10
163.2703097465088
 20
-182.5914387564355
 30
0.0
  0
SEQEND
  5
495
330
492
100
AcDbEntity
  8
Ebene 1
370
    15
  0
POLYLINE
  5
496
330
327
100
AcDbEntity
  8
Ebene 1
 62
   179
420
  1709851
370
    15
100
AcDb2dPolyline
 66
     1
 10
0.0
 20
0.0
 30
0.0
  0
VERTEX
  5
497
330
496
100
AcDbEntity
  8
Ebene 1
 62
   179
420
  1709851
370
    15
100
AcDbVertex
100
AcDb2dVertex
 10
170.6069850918969
 20
-182.5914387564355
 30
0.0
  0
VERTEX
  5
498
330
496
100
AcDbEntity
  8
Ebene 1
 62
   179
420
  1709851
370
    15
100
AcDbVertex
100
AcDb2dVertex
 10
170.6069850918969
 20
-180.7476236527298
 30
0.0
  0
SEQEND
  5
499
330
496
100
AcDbEntity
  8
Ebene 1
370
    15
  0
POLYLINE
  5
49A
330
327
100
AcDbEntity
  8
Ebene 1
 62
   179
420
  1709851
370
    15
100
AcDb2dPolyline
 66
     1
 10
0.0
 20
0.0
 30
0.0
  0
VERTEX
  5
49B
330
49A
100
AcDbEntity
  8
Ebene 1
 62
   179
420
  1709851
370
    15
100
AcDbVertex
100
AcDb2dVertex
 10
104.0704779470727
 20
-177.4864962663923
 30
0.0
  0
VERTEX
  5
49C
330
49A
100
AcDbEntity
  8
Ebene 1
 62
   179
420
  1709851
370
    15
100
AcDbVertex
100
AcDb2dVertex
 10
104.0704779470727
 20
-175.9727213101735
 30
0.0
  0
SEQEND
  5
49D
330
49A
100
AcDbEntity
  8
Ebene 1
370
    15
  0
POLYLINE
  5
49E
330
327
100
AcDbEntity
  8
Ebene 1
 62
   179
420
  1709851
370
    15
100
AcDb2dPolyline
 66
     1
 10
0.0
 20
0.0
 30
0.0
  0
VERTEX
  5
49F
330
49E
100
AcDbEntity
  8
Ebene 1
 62
   179
420
  1709851
370
    15
100
AcDbVertex
100
AcDb2dVertex
 10
104.0704779470727
 20
-175.9727213101735
 30
0.0
  0
VERTEX
  5
4A0
330
49E
100
AcDbEntity
  8
Ebene 1
 62
   179
420
  1709851
370
    15
100
AcDbVertex
100
AcDb2dVertex
 10
104.8080728904647
 20
-175.9727213101735
 30
0.0
  0
SEQEND
  5
4A1
330
49E
100
AcDbEntity
  8
Ebene 1
370
    15
  0
POLYLINE
  5
4A2
330
327
100
AcDbEntity
  8
Ebene 1
 62
   179
420
  1709851
370
    15
100
AcDb2dPolyline
 66
     1
 10
0.0
 20
0.0
 30
0.0
  0
VERTEX
  5
4A3
330
4A2
100
AcDbEntity
  8
Ebene 1
 62
   179
420
  1709851
370
    15
100
AcDbVertex
100
AcDb2dVertex
 10
104.8080728904647
 20
-175.9727213101735
 30
0.0
  0
VERTEX
  5
4A4
330
4A2
100
AcDbEntity
  8
Ebene 1
 62
   179
420
  1709851
370
    15
100
AcDbVertex
100
AcDb2dVertex
 10
104.8080728904647
 20
-175.4097927078837
 30
0.0
  0
SEQEND
  5
4A5
330
4A2
100
AcDbEntity
  8
Ebene 1
370
    15
  0
POLYLINE
  5
4A6
330
327
100
AcDbEntity
  8
Ebene 1
 62
   179
420
  1709851
370
    15
100
AcDb2dPolyline
 66
     1
 10
0.0
 20
0.0
 30
0.0
  0
VERTEX
  5
4A7
330
4A6
100
AcDbEntity
  8
Ebene 1
 62
   179
420
  1709851
370
    15
100
AcDbVertex
100
AcDb2dVertex
 10
104.8080728904647
 20
-175.4097927078837
 30
0.0
  0
VERTEX
  5
4A8
330
4A6
100
AcDbEntity
  8
Ebene 1
 62
   179
420
  1709851
370
    15
100
AcDbVertex
100
AcDb2dVertex
 10
104.0704779470727
 20
-175.4097927078837
 30
0.0
  0
SEQEND
  5
4A9
330
4A6
100
AcDbEntity
  8
Ebene 1
370
    15
  0
POLYLINE
  5
4AA
330
327
100
AcDbEntity
  8
Ebene 1
 62
   179
420
  1709851
370
    15
100
AcDb2dPolyline
 66
     1
 10
0.0
 20
0.0
 30
0.0
  0
VERTEX
  5
4AB
330
4AA
100
AcDbEntity
  8
Ebene 1
 62
   179
420
  1709851
370
    15
100
AcDbVertex
100
AcDb2dVertex
 10
109.2140055065507
 20
-174.6918348087576
 30
0.0
  0
VERTEX
  5
4AC
330
4AA
100
AcDbEntity
  8
Ebene 1
 62
   179
420
  1709851
370
    15
100
AcDbVertex
100
AcDb2dVertex
 10
108.7482285969449
 20
-174.6918348087576
 30
0.0
  0
VERTEX
  5
4AD
330
4AA
100
AcDbEntity
  8
Ebene 1
 62
   179
420
  1709851
370
    15
100
AcDbVertex
100
AcDb2dVertex
 10
108.7482285969449
 20
-175.4097927078837
 30
0.0
  0
VERTEX
  5
4AE
330
4AA
100
AcDbEntity
  8
Ebene 1
 62
   179
420
  1709851
370
    15
100
AcDbVertex
100
AcDb2dVertex
 10
108.0106336535529
 20
-175.4097927078837
 30
0.0
  0
VERTEX
  5
4AF
330
4AA
100
AcDbEntity
  8
Ebene 1
 62
   179
420
  1709851
370
    15
100
AcDbVertex
100
AcDb2dVertex
 10
108.0106336535529
 20
-175.9727213101735
 30
0.0
  0
SEQEND
  5
4B0
330
4AA
100
AcDbEntity
  8
Ebene 1
370
    15
  0
POLYLINE
  5
4B1
330
327
100
AcDbEntity
  8
Ebene 1
 62
   179
420
  1709851
370
    15
100
AcDb2dPolyline
 66
     1
 10
0.0
 20
0.0
 30
0.0
  0
VERTEX
  5
4B2
330
4B1
100
AcDbEntity
  8
Ebene 1
 62
   179
420
  1709851
370
    15
100
AcDbVertex
100
AcDb2dVertex
 10
106.729747152137
 20
-178.282313323485
 30
0.0
  0
VERTEX
  5
4B3
330
4B1
100
AcDbEntity
  8
Ebene 1
 62
   179
420
  1709851
370
    15
100
AcDbVertex
100
AcDb2dVertex
 10
106.729747152137
 20
-178.6709200942212
 30
0.0
  0
SEQEND
  5
4B4
330
4B1
100
AcDbEntity
  8
Ebene 1
370
    15
  0
POLYLINE
  5
4B5
330
327
100
AcDbEntity
  8
Ebene 1
 62
   179
420
  1709851
370
    15
100
AcDb2dPolyline
 66
     1
 10
0.0
 20
0.0
 30
0.0
  0
VERTEX
  5
4B6
330
4B5
100
AcDbEntity
  8
Ebene 1
 62
   179
420
  1709851
370
    15
100
AcDbVertex
100
AcDb2dVertex
 10
106.0696668571631
 20
-178.282313323485
 30
0.0
  0
VERTEX
  5
4B7
330
4B5
100
AcDbEntity
  8
Ebene 1
 62
   179
420
  1709851
370
    15
100
AcDbVertex
100
AcDb2dVertex
 10
106.0696668571631
 20
-178.6709200942212
 30
0.0
  0
SEQEND
  5
4B8
330
4B5
100
AcDbEntity
  8
Ebene 1
370
    15
  0
POLYLINE
  5
4B9
330
327
100
AcDbEntity
  8
Ebene 1
 62
   179
420
  1709851
370
    15
100
AcDb2dPolyline
 66
     1
 10
0.0
 20
0.0
 30
0.0
  0
VERTEX
  5
4BA
330
4B9
100
AcDbEntity
  8
Ebene 1
 62
   179
420
  1709851
370
    15
100
AcDbVertex
100
AcDb2dVertex
 10
106.9433430722225
 20
-178.4959092435705
 30
0.0
  0
VERTEX
  5
4BB
330
4B9
100
AcDbEntity
  8
Ebene 1
 62
   179
420
  1709851
370
    15
100
AcDbVertex
100
AcDb2dVertex
 10
105.8560709370777
 20
-178.4959092435705
 30
0.0
  0
SEQEND
  5
4BC
330
4B9
100
AcDbEntity
  8
Ebene 1
370
    15
  0
POLYLINE
  5
4BD
330
327
100
AcDbEntity
  8
Ebene 1
 62
   179
420
  1709851
370
    15
100
AcDb2dPolyline
 66
     1
 10
0.0
 20
0.0
 30
0.0
  0
VERTEX
  5
4BE
330
4BD
100
AcDbEntity
  8
Ebene 1
 62
   179
420
  1709851
370
    15
100
AcDbVertex
100
AcDb2dVertex
 10
106.729747152137
 20
-178.282313323485
 30
0.0
  0
VERTEX
  5
4BF
330
4BD
100
AcDbEntity
  8
Ebene 1
 62
   179
420
  1709851
370
    15
100
AcDbVertex
100
AcDb2dVertex
 10
106.9433430722225
 20
-178.4959092435705
 30
0.0
  0
VERTEX
  5
4C0
330
4BD
100
AcDbEntity
  8
Ebene 1
 62
   179
420
  1709851
370
    15
100
AcDbVertex
100
AcDb2dVertex
 10
106.9433430722225
 20
-178.6709200942212
 30
0.0
  0
SEQEND
  5
4C1
330
4BD
100
AcDbEntity
  8
Ebene 1
370
    15
  0
POLYLINE
  5
4C2
330
327
100
AcDbEntity
  8
Ebene 1
 62
   179
420
  1709851
370
    15
100
AcDb2dPolyline
 66
     1
 10
0.0
 20
0.0
 30
0.0
  0
VERTEX
  5
4C3
330
4C2
100
AcDbEntity
  8
Ebene 1
 62
   179
420
  1709851
370
    15
100
AcDbVertex
100
AcDb2dVertex
 10
105.8560709370777
 20
-178.6709200942212
 30
0.0
  0
VERTEX
  5
4C4
330
4C2
100
AcDbEntity
  8
Ebene 1
 62
   179
420
  1709851
370
    15
100
AcDbVertex
100
AcDb2dVertex
 10
105.8560709370777
 20
-178.4959092435705
 30
0.0
  0
VERTEX
  5
4C5
330
4C2
100
AcDbEntity
  8
Ebene 1
 62
   179
420
  1709851
370
    15
100
AcDbVertex
100
AcDb2dVertex
 10
106.0696668571631
 20
-178.282313323485
 30
0.0
  0
SEQEND
  5
4C6
330
4C2
100
AcDbEntity
  8
Ebene 1
370
    15
  0
POLYLINE
  5
4C7
330
327
100
AcDbEntity
  8
Ebene 1
 62
   179
420
  1709851
370
    15
100
AcDb2dPolyline
 66
     1
 10
0.0
 20
0.0
 30
0.0
  0
VERTEX
  5
4C8
330
4C7
100
AcDbEntity
  8
Ebene 1
 62
   179
420
  1709851
370
    15
100
AcDbVertex
100
AcDb2dVertex
 10
107.4284125165457
 20
-179.0195637573285
 30
0.0
  0
VERTEX
  5
4C9
330
4C7
100
AcDbEntity
  8
Ebene 1
 62
   179
420
  1709851
370
    15
100
AcDbVertex
100
AcDb2dVertex
 10
107.2341091311776
 20
-178.9616861531763
 30
0.0
  0
VERTEX
  5
4CA
330
4C7
100
AcDbEntity
  8
Ebene 1
 62
   179
420
  1709851
370
    15
100
AcDbVertex
100
AcDb2dVertex
 10
107.040150255358
 20
-178.9616861531763
 30
0.0
  0
VERTEX
  5
4CB
330
4C7
100
AcDbEntity
  8
Ebene 1
 62
   179
420
  1709851
370
    15
100
AcDbVertex
100
AcDb2dVertex
 10
106.9040689836906
 20
-179.0195637573285
 30
0.0
  0
VERTEX
  5
4CC
330
4C7
100
AcDbEntity
  8
Ebene 1
 62
   179
420
  1709851
370
    15
100
AcDbVertex
100
AcDb2dVertex
 10
106.5354437667689
 20
-178.9616861531763
 30
0.0
  0
VERTEX
  5
4CD
330
4C7
100
AcDbEntity
  8
Ebene 1
 62
   179
420
  1709851
370
    15
100
AcDbVertex
100
AcDb2dVertex
 10
106.1861110845646
 20
-178.9616861531763
 30
0.0
  0
VERTEX
  5
4CE
330
4C7
100
AcDbEntity
  8
Ebene 1
 62
   179
420
  1709851
370
    15
100
AcDbVertex
100
AcDb2dVertex
 10
105.9339300950443
 20
-179.0195637573285
 30
0.0
  0
VERTEX
  5
4CF
330
4C7
100
AcDbEntity
  8
Ebene 1
 62
   179
420
  1709851
370
    15
100
AcDbVertex
100
AcDb2dVertex
 10
105.7396267096762
 20
-178.9616861531763
 30
0.0
  0
VERTEX
  5
4D0
330
4C7
100
AcDbEntity
  8
Ebene 1
 62
   179
420
  1709851
370
    15
100
AcDbVertex
100
AcDb2dVertex
 10
105.5263752991392
 20
-178.9616861531763
 30
0.0
  0
VERTEX
  5
4D1
330
4C7
100
AcDbEntity
  8
Ebene 1
 62
   179
420
  1709851
370
    15
100
AcDbVertex
100
AcDb2dVertex
 10
105.3901217726976
 20
-179.0195637573285
 30
0.0
  0
SEQEND
  5
4D2
330
4C7
100
AcDbEntity
  8
Ebene 1
370
    15
  0
POLYLINE
  5
4D3
330
327
100
AcDbEntity
  8
Ebene 1
 62
   179
420
  1709851
370
    15
100
AcDb2dPolyline
 66
     1
 10
0.0
 20
0.0
 30
0.0
  0
VERTEX
  5
4D4
330
4D3
100
AcDbEntity
  8
Ebene 1
 62
   179
420
  1709851
370
    15
100
AcDbVertex
100
AcDb2dVertex
 10
105.3901217726976
 20
-179.6796440523023
 30
0.0
  0
VERTEX
  5
4D5
330
4D3
100
AcDbEntity
  8
Ebene 1
 62
   179
420
  1709851
370
    15
100
AcDbVertex
100
AcDb2dVertex
 10
105.5842529032914
 20
-179.7382106755516
 30
0.0
  0
VERTEX
  5
4D6
330
4D3
100
AcDbEntity
  8
Ebene 1
 62
   179
420
  1709851
370
    15
100
AcDbVertex
100
AcDb2dVertex
 10
105.7785562886595
 20
-179.7189181408342
 30
0.0
  0
VERTEX
  5
4D7
330
4D3
100
AcDbEntity
  8
Ebene 1
 62
   179
420
  1709851
370
    15
100
AcDbVertex
100
AcDb2dVertex
 10
105.9339300950443
 20
-179.6796440523023
 30
0.0
  0
VERTEX
  5
4D8
330
4D3
100
AcDbEntity
  8
Ebene 1
 62
   179
420
  1709851
370
    15
100
AcDbVertex
100
AcDb2dVertex
 10
106.2832627772486
 20
-179.7382106755516
 30
0.0
  0
VERTEX
  5
4D9
330
4D3
100
AcDbEntity
  8
Ebene 1
 62
   179
420
  1709851
370
    15
100
AcDbVertex
100
AcDb2dVertex
 10
106.6518879941704
 20
-179.7189181408342
 30
0.0
  0
VERTEX
  5
4DA
330
4D3
100
AcDbEntity
  8
Ebene 1
 62
   179
420
  1709851
370
    15
100
AcDbVertex
100
AcDb2dVertex
 10
106.9040689836906
 20
-179.6796440523023
 30
0.0
  0
VERTEX
  5
4DB
330
4D3
100
AcDbEntity
  8
Ebene 1
 62
   179
420
  1709851
370
    15
100
AcDbVertex
100
AcDb2dVertex
 10
107.0790798343413
 20
-179.7382106755516
 30
0.0
  0
VERTEX
  5
4DC
330
4D3
100
AcDbEntity
  8
Ebene 1
 62
   179
420
  1709851
370
    15
100
AcDbVertex
100
AcDb2dVertex
 10
107.2923312448783
 20
-179.7189181408342
 30
0.0
  0
VERTEX
  5
4DD
330
4D3
100
AcDbEntity
  8
Ebene 1
 62
   179
420
  1709851
370
    15
100
AcDbVertex
100
AcDb2dVertex
 10
107.4284125165457
 20
-179.6796440523023
 30
0.0
  0
SEQEND
  5
4DE
330
4D3
100
AcDbEntity
  8
Ebene 1
370
    15
  0
POLYLINE
  5
4DF
330
327
100
AcDbEntity
  8
Ebene 1
 62
   179
420
  1709851
370
    15
100
AcDb2dPolyline
 66
     1
 10
0.0
 20
0.0
 30
0.0
  0
VERTEX
  5
4E0
330
4DF
100
AcDbEntity
  8
Ebene 1
 62
   179
420
  1709851
370
    15
100
AcDbVertex
100
AcDb2dVertex
 10
107.1955240617428
 20
-178.9616861531763
 30
0.0
  0
VERTEX
  5
4E1
330
4DF
100
AcDbEntity
  8
Ebene 1
 62
   179
420
  1709851
370
    15
100
AcDbVertex
100
AcDb2dVertex
 10
107.1955240617428
 20
-178.7680717869052
 30
0.0
  0
VERTEX
  5
4E2
330
4DF
100
AcDbEntity
  8
Ebene 1
 62
   179
420
  1709851
370
    15
100
AcDbVertex
100
AcDb2dVertex
 10
107.0012206763747
 20
-178.6709200942212
 30
0.0
  0
VERTEX
  5
4E3
330
4DF
100
AcDbEntity
  8
Ebene 1
 62
   179
420
  1709851
370
    15
100
AcDbVertex
100
AcDb2dVertex
 10
105.8174858676429
 20
-178.6709200942212
 30
0.0
  0
VERTEX
  5
4E4
330
4DF
100
AcDbEntity
  8
Ebene 1
 62
   179
420
  1709851
370
    15
100
AcDbVertex
100
AcDb2dVertex
 10
105.6231824822748
 20
-178.7680717869052
 30
0.0
  0
VERTEX
  5
4E5
330
4DF
100
AcDbEntity
  8
Ebene 1
 62
   179
420
  1709851
370
    15
100
AcDbVertex
100
AcDb2dVertex
 10
105.6231824822748
 20
-178.9616861531763
 30
0.0
  0
VERTEX
  5
4E6
330
4DF
100
AcDbEntity
  8
Ebene 1
 62
   179
420
  1709851
370
    15
100
AcDbVertex
100
AcDb2dVertex
 10
107.1955240617428
 20
-178.9616861531763
 30
0.0
  0
SEQEND
  5
4E7
330
4DF
100
AcDbEntity
  8
Ebene 1
370
    15
  0
SPLINE
  5
4E8
330
327
100
AcDbEntity
  8
Ebene 1
 62
   179
420
  1709851
370
    15
100
AcDbSpline
210
0.0
220
0.0
230
1.0
 70
    27
 71
     3
 72
    11
 73
     7
 74
     0
 42
0.0000000001
 43
0.0000000001
 40
0.0
 40
0.0
 40
0.0
 40
0.0
 40
1.0
 40
1.0
 40
1.0
 40
2.0
 40
2.0
 40
2.0
 40
2.0
 10
107.4284125165457
 20
-179.0195637573285
 30
0.0
 10
107.4284125165457
 20
-179.0195637573285
 30
0.0
 10
107.4284125165457
 20
-179.6796440523023
 30
0.0
 10
107.4284125165457
 20
-179.6796440523023
 30
0.0
 10
107.4284125165457
 20
-179.6796440523023
 30
0.0
 10
107.4284125165457
 20
-179.0195637573285
 30
0.0
 10
107.4284125165457
 20
-179.0195637573285
 30
0.0
  0
POLYLINE
  5
4E9
330
327
100
AcDbEntity
  8
Ebene 1
 62
   179
420
  1709851
370
    15
100
AcDb2dPolyline
 66
     1
 10
0.0
 20
0.0
 30
0.0
  0
VERTEX
  5
4EA
330
4E9
100
AcDbEntity
  8
Ebene 1
 62
   179
420
  1709851
370
    15
100
AcDbVertex
100
AcDb2dVertex
 10
106.9040689836906
 20
-179.0195637573285
 30
0.0
  0
VERTEX
  5
4EB
330
4E9
100
AcDbEntity
  8
Ebene 1
 62
   179
420
  1709851
370
    15
100
AcDbVertex
100
AcDb2dVertex
 10
106.9040689836906
 20
-179.6796440523023
 30
0.0
  0
SEQEND
  5
4EC
330
4E9
100
AcDbEntity
  8
Ebene 1
370
    15
  0
POLYLINE
  5
4ED
330
327
100
AcDbEntity
  8
Ebene 1
 62
   179
420
  1709851
370
    15
100
AcDb2dPolyline
 66
     1
 10
0.0
 20
0.0
 30
0.0
  0
VERTEX
  5
4EE
330
4ED
100
AcDbEntity
  8
Ebene 1
 62
   179
420
  1709851
370
    15
100
AcDbVertex
100
AcDb2dVertex
 10
105.9339300950443
 20
-179.0195637573285
 30
0.0
  0
VERTEX
  5
4EF
330
4ED
100
AcDbEntity
  8
Ebene 1
 62
   179
420
  1709851
370
    15
100
AcDbVertex
100
AcDb2dVertex
 10
105.9339300950443
 20
-179.6796440523023
 30
0.0
  0
SEQEND
  5
4F0
330
4ED
100
AcDbEntity
  8
Ebene 1
370
    15
  0
POLYLINE
  5
4F1
330
327
100
AcDbEntity
  8
Ebene 1
 62
   179
420
  1709851
370
    15
100
AcDb2dPolyline
 66
     1
 10
0.0
 20
0.0
 30
0.0
  0
VERTEX
  5
4F2
330
4F1
100
AcDbEntity
  8
Ebene 1
 62
   179
420
  1709851
370
    15
100
AcDbVertex
100
AcDb2dVertex
 10
105.3901217726976
 20
-179.0195637573285
 30
0.0
  0
VERTEX
  5
4F3
330
4F1
100
AcDbEntity
  8
Ebene 1
 62
   179
420
  1709851
370
    15
100
AcDbVertex
100
AcDb2dVertex
 10
105.3901217726976
 20
-179.6796440523023
 30
0.0
  0
SEQEND
  5
4F4
330
4F1
100
AcDbEntity
  8
Ebene 1
370
    15
  0
POLYLINE
  5
4F5
330
327
100
AcDbEntity
  8
Ebene 1
 62
   179
420
  1709851
370
    15
100
AcDb2dPolyline
 66
     1
 10
0.0
 20
0.0
 30
0.0
  0
VERTEX
  5
4F6
330
4F5
100
AcDbEntity
  8
Ebene 1
 62
   179
420
  1709851
370
    15
100
AcDbVertex
100
AcDb2dVertex
 10
104.1092352712817
 20
-177.4672037316749
 30
0.0
  0
VERTEX
  5
4F7
330
4F5
100
AcDbEntity
  8
Ebene 1
 62
   179
420
  1709851
370
    15
100
AcDbVertex
100
AcDb2dVertex
 10
108.7092990179616
 20
-177.4672037316749
 30
0.0
  0
VERTEX
  5
4F8
330
4F5
100
AcDbEntity
  8
Ebene 1
 62
   179
420
  1709851
370
    15
100
AcDbVertex
100
AcDb2dVertex
 10
108.7092990179616
 20
-175.9920138448909
 30
0.0
  0
VERTEX
  5
4F9
330
4F5
100
AcDbEntity
  8
Ebene 1
 62
   179
420
  1709851
370
    15
100
AcDbVertex
100
AcDb2dVertex
 10
104.1092352712817
 20
-175.9920138448909
 30
0.0
  0
VERTEX
  5
4FA
330
4F5
100
AcDbEntity
  8
Ebene 1
 62
   179
420
  1709851
370
    15
100
AcDbVertex
100
AcDb2dVertex
 10
104.1092352712817
 20
-177.4672037316749
 30
0.0
  0
SEQEND
  5
4FB
330
4F5
100
AcDbEntity
  8
Ebene 1
370
    15
  0
POLYLINE
  5
4FC
330
327
100
AcDbEntity
  8
Ebene 1
 62
   179
420
  1709851
370
    15
100
AcDb2dPolyline
 66
     1
 10
0.0
 20
0.0
 30
0.0
  0
VERTEX
  5
4FD
330
4FC
100
AcDbEntity
  8
Ebene 1
 62
   179
420
  1709851
370
    15
100
AcDbVertex
100
AcDb2dVertex
 10
104.0704779470727
 20
-175.4097927078837
 30
0.0
  0
VERTEX
  5
4FE
330
4FC
100
AcDbEntity
  8
Ebene 1
 62
   179
420
  1709851
370
    15
100
AcDbVertex
100
AcDb2dVertex
 10
104.0704779470727
 20
-174.6918348087576
 30
0.0
  0
VERTEX
  5
4FF
330
4FC
100
AcDbEntity
  8
Ebene 1
 62
   179
420
  1709851
370
    15
100
AcDbVertex
100
AcDb2dVertex
 10
103.6047010374669
 20
-174.6918348087576
 30
0.0
  0
SEQEND
  5
500
330
4FC
100
AcDbEntity
  8
Ebene 1
370
    15
  0
POLYLINE
  5
501
330
327
100
AcDbEntity
  8
Ebene 1
 62
   179
420
  1709851
370
    15
100
AcDb2dPolyline
 66
     1
 10
0.0
 20
0.0
 30
0.0
  0
VERTEX
  5
502
330
501
100
AcDbEntity
  8
Ebene 1
 62
   179
420
  1709851
370
    15
100
AcDbVertex
100
AcDb2dVertex
 10
108.0106336535529
 20
-175.9727213101735
 30
0.0
  0
VERTEX
  5
503
330
501
100
AcDbEntity
  8
Ebene 1
 62
   179
420
  1709851
370
    15
100
AcDbVertex
100
AcDb2dVertex
 10
108.7482285969449
 20
-175.9727213101735
 30
0.0
  0
VERTEX
  5
504
330
501
100
AcDbEntity
  8
Ebene 1
 62
   179
420
  1709851
370
    15
100
AcDbVertex
100
AcDb2dVertex
 10
108.7482285969449
 20
-177.4871852854893
 30
0.0
  0
VERTEX
  5
505
330
501
100
AcDbEntity
  8
Ebene 1
 62
   179
420
  1709851
370
    15
100
AcDbVertex
100
AcDb2dVertex
 10
108.0106336535529
 20
-177.4871852854893
 30
0.0
  0
VERTEX
  5
506
330
501
100
AcDbEntity
  8
Ebene 1
 62
   179
420
  1709851
370
    15
100
AcDbVertex
100
AcDb2dVertex
 10
108.0106336535529
 20
-178.2244357193328
 30
0.0
  0
VERTEX
  5
507
330
501
100
AcDbEntity
  8
Ebene 1
 62
   179
420
  1709851
370
    15
100
AcDbVertex
100
AcDb2dVertex
 10
108.7482285969449
 20
-178.2244357193328
 30
0.0
  0
VERTEX
  5
508
330
501
100
AcDbEntity
  8
Ebene 1
 62
   179
420
  1709851
370
    15
100
AcDbVertex
100
AcDb2dVertex
 10
108.7482285969449
 20
-179.7382106755516
 30
0.0
  0
VERTEX
  5
509
330
501
100
AcDbEntity
  8
Ebene 1
 62
   179
420
  1709851
370
    15
100
AcDbVertex
100
AcDb2dVertex
 10
104.0704779470727
 20
-179.7382106755516
 30
0.0
  0
VERTEX
  5
50A
330
501
100
AcDbEntity
  8
Ebene 1
 62
   179
420
  1709851
370
    15
100
AcDbVertex
100
AcDb2dVertex
 10
104.0704779470727
 20
-178.2244357193328
 30
0.0
  0
VERTEX
  5
50B
330
501
100
AcDbEntity
  8
Ebene 1
 62
   179
420
  1709851
370
    15
100
AcDbVertex
100
AcDb2dVertex
 10
104.8080728904647
 20
-178.2244357193328
 30
0.0
  0
VERTEX
  5
50C
330
501
100
AcDbEntity
  8
Ebene 1
 62
   179
420
  1709851
370
    15
100
AcDbVertex
100
AcDb2dVertex
 10
104.8080728904647
 20
-177.4871852854893
 30
0.0
  0
VERTEX
  5
50D
330
501
100
AcDbEntity
  8
Ebene 1
 62
   179
420
  1709851
370
    15
100
AcDbVertex
100
AcDb2dVertex
 10
104.0704779470727
 20
-177.4871852854893
 30
0.0
  0
SEQEND
  5
50E
330
501
100
AcDbEntity
  8
Ebene 1
370
    15
  0
POLYLINE
  5
50F
330
327
100
AcDbEntity
  8
Ebene 1
 62
   179
420
  1709851
370
    15
100
AcDb2dPolyline
 66
     1
 10
0.0
 20
0.0
 30
0.0
  0
VERTEX
  5
510
330
50F
100
AcDbEntity
  8
Ebene 1
 62
   179
420
  1709851
370
    15
100
AcDbVertex
100
AcDb2dVertex
 10
109.2140055065507
 20
-180.2039875851573
 30
0.0
  0
VERTEX
  5
511
330
50F
100
AcDbEntity
  8
Ebene 1
 62
   179
420
  1709851
370
    15
100
AcDbVertex
100
AcDb2dVertex
 10
109.2140055065507
 20
-174.6918348087576
 30
0.0
  0
SEQEND
  5
512
330
50F
100
AcDbEntity
  8
Ebene 1
370
    15
  0
POLYLINE
  5
513
330
327
100
AcDbEntity
  8
Ebene 1
 62
   179
420
  1709851
370
    15
100
AcDb2dPolyline
 66
     1
 10
0.0
 20
0.0
 30
0.0
  0
VERTEX
  5
514
330
513
100
AcDbEntity
  8
Ebene 1
 62
   179
420
  1709851
370
    15
100
AcDbVertex
100
AcDb2dVertex
 10
109.15578339285
 20
-180.2039875851573
 30
0.0
  0
VERTEX
  5
515
330
513
100
AcDbEntity
  8
Ebene 1
 62
   179
420
  1709851
370
    15
100
AcDbVertex
100
AcDb2dVertex
 10
109.15578339285
 20
-180.378998435808
 30
0.0
  0
SEQEND
  5
516
330
513
100
AcDbEntity
  8
Ebene 1
370
    15
  0
POLYLINE
  5
517
330
327
100
AcDbEntity
  8
Ebene 1
 62
   179
420
  1709851
370
    15
100
AcDb2dPolyline
 66
     1
 10
0.0
 20
0.0
 30
0.0
  0
VERTEX
  5
518
330
517
100
AcDbEntity
  8
Ebene 1
 62
   179
420
  1709851
370
    15
100
AcDbVertex
100
AcDb2dVertex
 10
103.6625786416191
 20
-180.2039875851573
 30
0.0
  0
VERTEX
  5
519
330
517
100
AcDbEntity
  8
Ebene 1
 62
   179
420
  1709851
370
    15
100
AcDbVertex
100
AcDb2dVertex
 10
103.6625786416191
 20
-180.378998435808
 30
0.0
  0
SEQEND
  5
51A
330
517
100
AcDbEntity
  8
Ebene 1
370
    15
  0
POLYLINE
  5
51B
330
327
100
AcDbEntity
  8
Ebene 1
 62
   179
420
  1709851
370
    15
100
AcDb2dPolyline
 66
     1
 10
0.0
 20
0.0
 30
0.0
  0
VERTEX
  5
51C
330
51B
100
AcDbEntity
  8
Ebene 1
 62
   179
420
  1709851
370
    15
100
AcDbVertex
100
AcDb2dVertex
 10
103.6047010374669
 20
-174.6918348087576
 30
0.0
  0
VERTEX
  5
51D
330
51B
100
AcDbEntity
  8
Ebene 1
 62
   179
420
  1709851
370
    15
100
AcDbVertex
100
AcDb2dVertex
 10
103.6047010374669
 20
-180.2039875851573
 30
0.0
  0
VERTEX
  5
51E
330
51B
100
AcDbEntity
  8
Ebene 1
 62
   179
420
  1709851
370
    15
100
AcDbVertex
100
AcDb2dVertex
 10
109.2140055065507
 20
-180.2039875851573
 30
0.0
  0
SEQEND
  5
51F
330
51B
100
AcDbEntity
  8
Ebene 1
370
    15
  0
POLYLINE
  5
520
330
327
100
AcDbEntity
  8
Ebene 1
 62
   179
420
  1709851
370
    15
100
AcDb2dPolyline
 66
     1
 10
0.0
 20
0.0
 30
0.0
  0
VERTEX
  5
521
330
520
100
AcDbEntity
  8
Ebene 1
 62
   179
420
  1709851
370
    15
100
AcDbVertex
100
AcDb2dVertex
 10
102.7506618666735
 20
-180.7476236527298
 30
0.0
  0
VERTEX
  5
522
330
520
100
AcDbEntity
  8
Ebene 1
 62
   179
420
  1709851
370
    15
100
AcDbVertex
100
AcDb2dVertex
 10
103.3716403278897
 20
-180.378998435808
 30
0.0
  0
SEQEND
  5
523
330
520
100
AcDbEntity
  8
Ebene 1
370
    15
  0
POLYLINE
  5
524
330
327
100
AcDbEntity
  8
Ebene 1
 62
   179
420
  1709851
370
    15
100
AcDb2dPolyline
 66
     1
 10
0.0
 20
0.0
 30
0.0
  0
VERTEX
  5
525
330
524
100
AcDbEntity
  8
Ebene 1
 62
   179
420
  1709851
370
    15
100
AcDbVertex
100
AcDb2dVertex
 10
103.3716403278897
 20
-180.378998435808
 30
0.0
  0
VERTEX
  5
526
330
524
100
AcDbEntity
  8
Ebene 1
 62
   179
420
  1709851
370
    15
100
AcDbVertex
100
AcDb2dVertex
 10
109.4472384709021
 20
-180.378998435808
 30
0.0
  0
VERTEX
  5
527
330
524
100
AcDbEntity
  8
Ebene 1
 62
   179
420
  1709851
370
    15
100
AcDbVertex
100
AcDb2dVertex
 10
110.0873372120615
 20
-180.7476236527298
 30
0.0
  0
SEQEND
  5
528
330
524
100
AcDbEntity
  8
Ebene 1
370
    15
  0
POLYLINE
  5
529
330
327
100
AcDbEntity
  8
Ebene 1
 62
   179
420
  1709851
370
    15
100
AcDb2dPolyline
 66
     1
 10
0.0
 20
0.0
 30
0.0
  0
VERTEX
  5
52A
330
529
100
AcDbEntity
  8
Ebene 1
 62
   179
420
  1709851
370
    15
100
AcDbVertex
100
AcDb2dVertex
 10
102.7506618666735
 20
-180.7476236527298
 30
0.0
  0
VERTEX
  5
52B
330
529
100
AcDbEntity
  8
Ebene 1
 62
   179
420
  1709851
370
    15
100
AcDbVertex
100
AcDb2dVertex
 10
110.0873372120615
 20
-180.7476236527298
 30
0.0
  0
SEQEND
  5
52C
330
529
100
AcDbEntity
  8
Ebene 1
370
    15
  0
POLYLINE
  5
52D
330
327
100
AcDbEntity
  8
Ebene 1
 62
   179
420
  1709851
370
    15
100
AcDb2dPolyline
 66
     1
 10
0.0
 20
0.0
 30
0.0
  0
VERTEX
  5
52E
330
52D
100
AcDbEntity
  8
Ebene 1
 62
   179
420
  1709851
370
    15
100
AcDbVertex
100
AcDb2dVertex
 10
110.2620035531637
 20
-182.7657605879891
 30
0.0
  0
VERTEX
  5
52F
330
52D
100
AcDbEntity
  8
Ebene 1
 62
   179
420
  1709851
370
    15
100
AcDbVertex
100
AcDb2dVertex
 10
110.2230739741804
 20
-182.6493163605877
 30
0.0
  0
VERTEX
  5
530
330
52D
100
AcDbEntity
  8
Ebene 1
 62
   179
420
  1709851
370
    15
100
AcDbVertex
100
AcDb2dVertex
 10
110.1262667910448
 20
-182.5914387564355
 30
0.0
  0
VERTEX
  5
531
330
52D
100
AcDbEntity
  8
Ebene 1
 62
   179
420
  1709851
370
    15
100
AcDbVertex
100
AcDb2dVertex
 10
110.0873372120615
 20
-182.5914387564355
 30
0.0
  0
SEQEND
  5
532
330
52D
100
AcDbEntity
  8
Ebene 1
370
    15
  0
POLYLINE
  5
533
330
327
100
AcDbEntity
  8
Ebene 1
 62
   179
420
  1709851
370
    15
100
AcDb2dPolyline
 66
     1
 10
0.0
 20
0.0
 30
0.0
  0
VERTEX
  5
534
330
533
100
AcDbEntity
  8
Ebene 1
 62
   179
420
  1709851
370
    15
100
AcDbVertex
100
AcDb2dVertex
 10
110.0873372120615
 20
-182.5914387564355
 30
0.0
  0
VERTEX
  5
535
330
533
100
AcDbEntity
  8
Ebene 1
 62
   179
420
  1709851
370
    15
100
AcDbVertex
100
AcDb2dVertex
 10
102.7506618666735
 20
-182.5914387564355
 30
0.0
  0
SEQEND
  5
536
330
533
100
AcDbEntity
  8
Ebene 1
370
    15
  0
POLYLINE
  5
537
330
327
100
AcDbEntity
  8
Ebene 1
 62
   179
420
  1709851
370
    15
100
AcDb2dPolyline
 66
     1
 10
0.0
 20
0.0
 30
0.0
  0
VERTEX
  5
538
330
537
100
AcDbEntity
  8
Ebene 1
 62
   179
420
  1709851
370
    15
100
AcDbVertex
100
AcDb2dVertex
 10
102.7506618666735
 20
-182.5914387564355
 30
0.0
  0
VERTEX
  5
539
330
537
100
AcDbEntity
  8
Ebene 1
 62
   179
420
  1709851
370
    15
100
AcDbVertex
100
AcDb2dVertex
 10
102.634217639272
 20
-182.6300238258703
 30
0.0
  0
VERTEX
  5
53A
330
537
100
AcDbEntity
  8
Ebene 1
 62
   179
420
  1709851
370
    15
100
AcDbVertex
100
AcDb2dVertex
 10
102.5563584813054
 20
-182.7271755185543
 30
0.0
  0
VERTEX
  5
53B
330
537
100
AcDbEntity
  8
Ebene 1
 62
   179
420
  1709851
370
    15
100
AcDbVertex
100
AcDb2dVertex
 10
102.5563584813054
 20
-182.7657605879891
 30
0.0
  0
SEQEND
  5
53C
330
537
100
AcDbEntity
  8
Ebene 1
370
    15
  0
POLYLINE
  5
53D
330
327
100
AcDbEntity
  8
Ebene 1
 62
   179
420
  1709851
370
    15
100
AcDb2dPolyline
 66
     1
 10
0.0
 20
0.0
 30
0.0
  0
VERTEX
  5
53E
330
53D
100
AcDbEntity
  8
Ebene 1
 62
   179
420
  1709851
370
    15
100
AcDbVertex
100
AcDb2dVertex
 10
110.0873372120615
 20
-180.7476236527298
 30
0.0
  0
VERTEX
  5
53F
330
53D
100
AcDbEntity
  8
Ebene 1
 62
   179
420
  1709851
370
    15
100
AcDbVertex
100
AcDb2dVertex
 10
110.0873372120615
 20
-182.5914387564355
 30
0.0
  0
SEQEND
  5
540
330
53D
100
AcDbEntity
  8
Ebene 1
370
    15
  0
POLYLINE
  5
541
330
327
100
AcDbEntity
  8
Ebene 1
 62
   179
420
  1709851
370
    15
100
AcDb2dPolyline
 66
     1
 10
0.0
 20
0.0
 30
0.0
  0
VERTEX
  5
542
330
541
100
AcDbEntity
  8
Ebene 1
 62
   179
420
  1709851
370
    15
100
AcDbVertex
100
AcDb2dVertex
 10
102.731369331956
 20
-182.5914387564355
 30
0.0
  0
VERTEX
  5
543
330
541
100
AcDbEntity
  8
Ebene 1
 62
   179
420
  1709851
370
    15
100
AcDbVertex
100
AcDb2dVertex
 10
102.7506618666735
 20
-180.7476236527298
 30
0.0
  0
SEQEND
  5
544
330
541
100
AcDbEntity
  8
Ebene 1
370
    15
  0
POLYLINE
  5
545
330
327
100
AcDbEntity
  8
Ebene 1
 62
   179
420
  1709851
370
    15
100
AcDb2dPolyline
 66
     1
 10
0.0
 20
0.0
 30
0.0
  0
VERTEX
  5
546
330
545
100
AcDbEntity
  8
Ebene 1
 62
   179
420
  1709851
370
    15
100
AcDbVertex
100
AcDb2dVertex
 10
150.9644286731964
 20
-165.899262111303
 30
0.0
  0
VERTEX
  5
547
330
545
100
AcDbEntity
  8
Ebene 1
 62
   179
420
  1709851
370
    15
100
AcDbVertex
100
AcDb2dVertex
 10
155.5453721399331
 20
-151.2252224014298
 30
0.0
  0
VERTEX
  5
548
330
545
100
AcDbEntity
  8
Ebene 1
 62
   179
420
  1709851
370
    15
100
AcDbVertex
100
AcDb2dVertex
 10
160.1259710971213
 20
-165.899262111303
 30
0.0
  0
VERTEX
  5
549
330
545
100
AcDbEntity
  8
Ebene 1
 62
   179
420
  1709851
370
    15
100
AcDbVertex
100
AcDb2dVertex
 10
164.7262070985754
 20
-151.2252224014298
 30
0.0
  0
VERTEX
  5
54A
330
545
100
AcDbEntity
  8
Ebene 1
 62
   179
420
  1709851
370
    15
100
AcDbVertex
100
AcDb2dVertex
 10
169.3068060557636
 20
-165.899262111303
 30
0.0
  0
VERTEX
  5
54B
330
545
100
AcDbEntity
  8
Ebene 1
 62
   179
420
  1709851
370
    15
100
AcDbVertex
100
AcDb2dVertex
 10
173.8877495225003
 20
-151.2252224014298
 30
0.0
  0
VERTEX
  5
54C
330
545
100
AcDbEntity
  8
Ebene 1
 62
   179
420
  1709851
370
    15
100
AcDbVertex
100
AcDb2dVertex
 10
178.46800397014
 20
-165.899262111303
 30
0.0
  0
VERTEX
  5
54D
330
545
100
AcDbEntity
  8
Ebene 1
 62
   179
420
  1709851
370
    15
100
AcDbVertex
100
AcDb2dVertex
 10
183.0489474368767
 20
-151.2252224014298
 30
0.0
  0
VERTEX
  5
54E
330
545
100
AcDbEntity
  8
Ebene 1
 62
   179
420
  1709851
370
    15
100
AcDbVertex
100
AcDb2dVertex
 10
187.6495279478793
 20
-165.899262111303
 30
0.0
  0
VERTEX
  5
54F
330
545
100
AcDbEntity
  8
Ebene 1
 62
   179
420
  1709851
370
    15
100
AcDbVertex
100
AcDb2dVertex
 10
190.3856227822647
 20
-157.0867078600339
 30
0.0
  0
SEQEND
  5
550
330
545
100
AcDbEntity
  8
Ebene 1
370
    15
  0
POLYLINE
  5
551
330
327
100
AcDbEntity
  8
Ebene 1
 62
   179
420
  1709851
370
    15
100
AcDb2dPolyline
 66
     1
 10
0.0
 20
0.0
 30
0.0
  0
VERTEX
  5
552
330
551
100
AcDbEntity
  8
Ebene 1
 62
   179
420
  1709851
370
    15
100
AcDbVertex
100
AcDb2dVertex
 10
36.3493747196453
 20
-151.2252224014298
 30
0.0
  0
VERTEX
  5
553
330
551
100
AcDbEntity
  8
Ebene 1
 62
   179
420
  1709851
370
    15
100
AcDbVertex
100
AcDb2dVertex
 10
40.930318186382
 20
-165.899262111303
 30
0.0
  0
VERTEX
  5
554
330
551
100
AcDbEntity
  8
Ebene 1
 62
   179
420
  1709851
370
    15
100
AcDbVertex
100
AcDb2dVertex
 10
45.51108939834445
 20
-151.2252224014298
 30
0.0
  0
VERTEX
  5
555
330
551
100
AcDbEntity
  8
Ebene 1
 62
   179
420
  1709851
370
    15
100
AcDbVertex
100
AcDb2dVertex
 10
50.11098089025003
 20
-165.899262111303
 30
0.0
  0
VERTEX
  5
556
330
551
100
AcDbEntity
  8
Ebene 1
 62
   179
420
  1709851
370
    15
100
AcDbVertex
100
AcDb2dVertex
 10
54.69175210221248
 20
-151.2252224014298
 30
0.0
  0
VERTEX
  5
557
330
551
100
AcDbEntity
  8
Ebene 1
 62
   179
420
  1709851
370
    15
100
AcDbVertex
100
AcDb2dVertex
 10
59.27252331417493
 20
-165.899262111303
 30
0.0
  0
VERTEX
  5
558
330
551
100
AcDbEntity
  8
Ebene 1
 62
   179
420
  1709851
370
    15
100
AcDbVertex
100
AcDb2dVertex
 10
63.85312227136311
 20
-151.2252224014298
 30
0.0
  0
VERTEX
  5
559
330
551
100
AcDbEntity
  8
Ebene 1
 62
   179
420
  1709851
370
    15
100
AcDbVertex
100
AcDb2dVertex
 10
68.43389348332556
 20
-165.899262111303
 30
0.0
  0
VERTEX
  5
55A
330
551
100
AcDbEntity
  8
Ebene 1
 62
   179
420
  1709851
370
    15
100
AcDbVertex
100
AcDb2dVertex
 10
73.03412948477967
 20
-151.2252224014298
 30
0.0
  0
VERTEX
  5
55B
330
551
100
AcDbEntity
  8
Ebene 1
 62
   179
420
  1709851
370
    15
100
AcDbVertex
100
AcDb2dVertex
 10
77.61490069674211
 20
-165.899262111303
 30
0.0
  0
SEQEND
  5
55C
330
551
100
AcDbEntity
  8
Ebene 1
370
    15
  0
POLYLINE
  5
55D
330
327
100
AcDbEntity
  8
Ebene 1
 62
   179
420
  1709851
370
    15
100
AcDb2dPolyline
 66
     1
 10
0.0
 20
0.0
 30
0.0
  0
VERTEX
  5
55E
330
55D
100
AcDbEntity
  8
Ebene 1
 62
   179
420
  1709851
370
    15
100
AcDbVertex
100
AcDb2dVertex
 10
36.3493747196453
 20
-94.10192190572799
 30
0.0
  0
VERTEX
  5
55F
330
55D
100
AcDbEntity
  8
Ebene 1
 62
   179
420
  1709851
370
    15
100
AcDbVertex
100
AcDb2dVertex
 10
36.3493747196453
 20
-92.54956188007442
 30
0.0
  0
SEQEND
  5
560
330
55D
100
AcDbEntity
  8
Ebene 1
370
    15
  0
POLYLINE
  5
561
330
327
100
AcDbEntity
  8
Ebene 1
 62
   179
420
  1709851
370
    15
100
AcDb2dPolyline
 66
     1
 10
0.0
 20
0.0
 30
0.0
  0
VERTEX
  5
562
330
561
100
AcDbEntity
  8
Ebene 1
 62
   179
420
  1709851
370
    15
100
AcDbVertex
100
AcDb2dVertex
 10
36.3493747196453
 20
-95.9264444747163
 30
0.0
  0
VERTEX
  5
563
330
561
100
AcDbEntity
  8
Ebene 1
 62
   179
420
  1709851
370
    15
100
AcDbVertex
100
AcDb2dVertex
 10
36.3493747196453
 20
-95.01418319022216
 30
0.0
  0
SEQEND
  5
564
330
561
100
AcDbEntity
  8
Ebene 1
370
    15
  0
POLYLINE
  5
565
330
327
100
AcDbEntity
  8
Ebene 1
 62
   179
420
  1709851
370
    15
100
AcDb2dPolyline
 66
     1
 10
0.0
 20
0.0
 30
0.0
  0
VERTEX
  5
566
330
565
100
AcDbEntity
  8
Ebene 1
 62
   179
420
  1709851
370
    15
100
AcDbVertex
100
AcDb2dVertex
 10
36.3493747196453
 20
-103.2638088392014
 30
0.0
  0
VERTEX
  5
567
330
565
100
AcDbEntity
  8
Ebene 1
 62
   179
420
  1709851
370
    15
100
AcDbVertex
100
AcDb2dVertex
 10
36.3493747196453
 20
-96.839050268759
 30
0.0
  0
SEQEND
  5
568
330
565
100
AcDbEntity
  8
Ebene 1
370
    15
  0
POLYLINE
  5
569
330
327
100
AcDbEntity
  8
Ebene 1
 62
   179
420
  1709851
370
    15
100
AcDb2dPolyline
 66
     1
 10
0.0
 20
0.0
 30
0.0
  0
VERTEX
  5
56A
330
569
100
AcDbEntity
  8
Ebene 1
 62
   179
420
  1709851
370
    15
100
AcDbVertex
100
AcDb2dVertex
 10
36.3493747196453
 20
-105.0879868986412
 30
0.0
  0
VERTEX
  5
56B
330
569
100
AcDbEntity
  8
Ebene 1
 62
   179
420
  1709851
370
    15
100
AcDbVertex
100
AcDb2dVertex
 10
36.3493747196453
 20
-104.175725614147
 30
0.0
  0
SEQEND
  5
56C
330
569
100
AcDbEntity
  8
Ebene 1
370
    15
  0
POLYLINE
  5
56D
330
327
100
AcDbEntity
  8
Ebene 1
 62
   179
420
  1709851
370
    15
100
AcDb2dPolyline
 66
     1
 10
0.0
 20
0.0
 30
0.0
  0
VERTEX
  5
56E
330
56D
100
AcDbEntity
  8
Ebene 1
 62
   179
420
  1709851
370
    15
100
AcDbVertex
100
AcDb2dVertex
 10
36.3493747196453
 20
-112.4250067535778
 30
0.0
  0
VERTEX
  5
56F
330
56D
100
AcDbEntity
  8
Ebene 1
 62
   179
420
  1709851
370
    15
100
AcDbVertex
100
AcDb2dVertex
 10
36.3493747196453
 20
-106.0198852274013
 30
0.0
  0
SEQEND
  5
570
330
56D
100
AcDbEntity
  8
Ebene 1
370
    15
  0
POLYLINE
  5
571
330
327
100
AcDbEntity
  8
Ebene 1
 62
   179
420
  1709851
370
    15
100
AcDb2dPolyline
 66
     1
 10
0.0
 20
0.0
 30
0.0
  0
VERTEX
  5
572
330
571
100
AcDbEntity
  8
Ebene 1
 62
   179
420
  1709851
370
    15
100
AcDbVertex
100
AcDb2dVertex
 10
36.3493747196453
 20
-114.2688218572835
 30
0.0
  0
VERTEX
  5
573
330
571
100
AcDbEntity
  8
Ebene 1
 62
   179
420
  1709851
370
    15
100
AcDbVertex
100
AcDb2dVertex
 10
36.3493747196453
 20
-113.3565605727893
 30
0.0
  0
SEQEND
  5
574
330
571
100
AcDbEntity
  8
Ebene 1
370
    15
  0
POLYLINE
  5
575
330
327
100
AcDbEntity
  8
Ebene 1
 62
   179
420
  1709851
370
    15
100
AcDb2dPolyline
 66
     1
 10
0.0
 20
0.0
 30
0.0
  0
VERTEX
  5
576
330
575
100
AcDbEntity
  8
Ebene 1
 62
   179
420
  1709851
370
    15
100
AcDbVertex
100
AcDb2dVertex
 10
36.3493747196453
 20
-121.6054972026715
 30
0.0
  0
VERTEX
  5
577
330
575
100
AcDbEntity
  8
Ebene 1
 62
   179
420
  1709851
370
    15
100
AcDbVertex
100
AcDb2dVertex
 10
36.3493747196453
 20
-115.1810831417776
 30
0.0
  0
SEQEND
  5
578
330
575
100
AcDbEntity
  8
Ebene 1
370
    15
  0
POLYLINE
  5
579
330
327
100
AcDbEntity
  8
Ebene 1
 62
   179
420
  1709851
370
    15
100
AcDb2dPolyline
 66
     1
 10
0.0
 20
0.0
 30
0.0
  0
VERTEX
  5
57A
330
579
100
AcDbEntity
  8
Ebene 1
 62
   179
420
  1709851
370
    15
100
AcDbVertex
100
AcDb2dVertex
 10
36.3493747196453
 20
-123.4303642812084
 30
0.0
  0
VERTEX
  5
57B
330
579
100
AcDbEntity
  8
Ebene 1
 62
   179
420
  1709851
370
    15
100
AcDbVertex
100
AcDb2dVertex
 10
36.3493747196453
 20
-122.5184475062628
 30
0.0
  0
SEQEND
  5
57C
330
579
100
AcDbEntity
  8
Ebene 1
370
    15
  0
POLYLINE
  5
57D
330
327
100
AcDbEntity
  8
Ebene 1
 62
   179
420
  1709851
370
    15
100
AcDb2dPolyline
 66
     1
 10
0.0
 20
0.0
 30
0.0
  0
VERTEX
  5
57E
330
57D
100
AcDbEntity
  8
Ebene 1
 62
   179
420
  1709851
370
    15
100
AcDbVertex
100
AcDb2dVertex
 10
36.3493747196453
 20
-130.767384136145
 30
0.0
  0
VERTEX
  5
57F
330
57D
100
AcDbEntity
  8
Ebene 1
 62
   179
420
  1709851
370
    15
100
AcDbVertex
100
AcDb2dVertex
 10
36.3493747196453
 20
-124.3619181004199
 30
0.0
  0
SEQEND
  5
580
330
57D
100
AcDbEntity
  8
Ebene 1
370
    15
  0
POLYLINE
  5
581
330
327
100
AcDbEntity
  8
Ebene 1
 62
   179
420
  1709851
370
    15
100
AcDb2dPolyline
 66
     1
 10
0.0
 20
0.0
 30
0.0
  0
VERTEX
  5
582
330
581
100
AcDbEntity
  8
Ebene 1
 62
   179
420
  1709851
370
    15
100
AcDbVertex
100
AcDb2dVertex
 10
36.3493747196453
 20
-132.6111992398507
 30
0.0
  0
VERTEX
  5
583
330
581
100
AcDbEntity
  8
Ebene 1
 62
   179
420
  1709851
370
    15
100
AcDbVertex
100
AcDb2dVertex
 10
36.3493747196453
 20
-131.6796454206391
 30
0.0
  0
SEQEND
  5
584
330
581
100
AcDbEntity
  8
Ebene 1
370
    15
  0
POLYLINE
  5
585
330
327
100
AcDbEntity
  8
Ebene 1
 62
   179
420
  1709851
370
    15
100
AcDb2dPolyline
 66
     1
 10
0.0
 20
0.0
 30
0.0
  0
VERTEX
  5
586
330
585
100
AcDbEntity
  8
Ebene 1
 62
   179
420
  1709851
370
    15
100
AcDbVertex
100
AcDb2dVertex
 10
36.3493747196453
 20
-139.9478745852387
 30
0.0
  0
VERTEX
  5
587
330
585
100
AcDbEntity
  8
Ebene 1
 62
   179
420
  1709851
370
    15
100
AcDbVertex
100
AcDb2dVertex
 10
36.3493747196453
 20
-133.5234605243448
 30
0.0
  0
SEQEND
  5
588
330
585
100
AcDbEntity
  8
Ebene 1
370
    15
  0
POLYLINE
  5
589
330
327
100
AcDbEntity
  8
Ebene 1
 62
   179
420
  1709851
370
    15
100
AcDb2dPolyline
 66
     1
 10
0.0
 20
0.0
 30
0.0
  0
VERTEX
  5
58A
330
589
100
AcDbEntity
  8
Ebene 1
 62
   179
420
  1709851
370
    15
100
AcDbVertex
100
AcDb2dVertex
 10
36.3493747196453
 20
-141.772397154227
 30
0.0
  0
VERTEX
  5
58B
330
589
100
AcDbEntity
  8
Ebene 1
 62
   179
420
  1709851
370
    15
100
AcDbVertex
100
AcDb2dVertex
 10
36.3493747196453
 20
-140.8601358697329
 30
0.0
  0
SEQEND
  5
58C
330
589
100
AcDbEntity
  8
Ebene 1
370
    15
  0
POLYLINE
  5
58D
330
327
100
AcDbEntity
  8
Ebene 1
 62
   179
420
  1709851
370
    15
100
AcDb2dPolyline
 66
     1
 10
0.0
 20
0.0
 30
0.0
  0
VERTEX
  5
58E
330
58D
100
AcDbEntity
  8
Ebene 1
 62
   179
420
  1709851
370
    15
100
AcDbVertex
100
AcDb2dVertex
 10
36.3493747196453
 20
-149.1099337734864
 30
0.0
  0
VERTEX
  5
58F
330
58D
100
AcDbEntity
  8
Ebene 1
 62
   179
420
  1709851
370
    15
100
AcDbVertex
100
AcDb2dVertex
 10
36.3493747196453
 20
-142.6846584387212
 30
0.0
  0
SEQEND
  5
590
330
58D
100
AcDbEntity
  8
Ebene 1
370
    15
  0
POLYLINE
  5
591
330
327
100
AcDbEntity
  8
Ebene 1
 62
   179
420
  1709851
370
    15
100
AcDb2dPolyline
 66
     1
 10
0.0
 20
0.0
 30
0.0
  0
VERTEX
  5
592
330
591
100
AcDbEntity
  8
Ebene 1
 62
   179
420
  1709851
370
    15
100
AcDbVertex
100
AcDb2dVertex
 10
36.3493747196453
 20
-150.9344563424747
 30
0.0
  0
VERTEX
  5
593
330
591
100
AcDbEntity
  8
Ebene 1
 62
   179
420
  1709851
370
    15
100
AcDbVertex
100
AcDb2dVertex
 10
36.3493747196453
 20
-150.0221950579806
 30
0.0
  0
SEQEND
  5
594
330
591
100
AcDbEntity
  8
Ebene 1
370
    15
  0
POLYLINE
  5
595
330
327
100
AcDbEntity
  8
Ebene 1
 62
   179
420
  1709851
370
    15
100
AcDb2dPolyline
 66
     1
 10
0.0
 20
0.0
 30
0.0
  0
VERTEX
  5
596
330
595
100
AcDbEntity
  8
Ebene 1
 62
   179
420
  1709851
370
    15
100
AcDbVertex
100
AcDb2dVertex
 10
36.3493747196453
 20
-158.2711316878628
 30
0.0
  0
VERTEX
  5
597
330
595
100
AcDbEntity
  8
Ebene 1
 62
   179
420
  1709851
370
    15
100
AcDbVertex
100
AcDb2dVertex
 10
36.3493747196453
 20
-151.8660101616863
 30
0.0
  0
SEQEND
  5
598
330
595
100
AcDbEntity
  8
Ebene 1
370
    15
  0
POLYLINE
  5
599
330
327
100
AcDbEntity
  8
Ebene 1
 62
   179
420
  1709851
370
    15
100
AcDb2dPolyline
 66
     1
 10
0.0
 20
0.0
 30
0.0
  0
VERTEX
  5
59A
330
599
100
AcDbEntity
  8
Ebene 1
 62
   179
420
  1709851
370
    15
100
AcDbVertex
100
AcDb2dVertex
 10
36.3493747196453
 20
-160.1149467915685
 30
0.0
  0
VERTEX
  5
59B
330
599
100
AcDbEntity
  8
Ebene 1
 62
   179
420
  1709851
370
    15
100
AcDbVertex
100
AcDb2dVertex
 10
36.3493747196453
 20
-159.2026855070743
 30
0.0
  0
SEQEND
  5
59C
330
599
100
AcDbEntity
  8
Ebene 1
370
    15
  0
POLYLINE
  5
59D
330
327
100
AcDbEntity
  8
Ebene 1
 62
   179
420
  1709851
370
    15
100
AcDb2dPolyline
 66
     1
 10
0.0
 20
0.0
 30
0.0
  0
VERTEX
  5
59E
330
59D
100
AcDbEntity
  8
Ebene 1
 62
   179
420
  1709851
370
    15
100
AcDbVertex
100
AcDb2dVertex
 10
36.3493747196453
 20
-167.4516221369566
 30
0.0
  0
VERTEX
  5
59F
330
59D
100
AcDbEntity
  8
Ebene 1
 62
   179
420
  1709851
370
    15
100
AcDbVertex
100
AcDb2dVertex
 10
36.3493747196453
 20
-161.0272080760627
 30
0.0
  0
SEQEND
  5
5A0
330
59D
100
AcDbEntity
  8
Ebene 1
370
    15
  0
POLYLINE
  5
5A1
330
327
100
AcDbEntity
  8
Ebene 1
 62
   179
420
  1709851
370
    15
100
AcDb2dPolyline
 66
     1
 10
0.0
 20
0.0
 30
0.0
  0
VERTEX
  5
5A2
330
5A1
100
AcDbEntity
  8
Ebene 1
 62
   179
420
  1709851
370
    15
100
AcDbVertex
100
AcDb2dVertex
 10
36.3493747196453
 20
-169.2761447059449
 30
0.0
  0
VERTEX
  5
5A3
330
5A1
100
AcDbEntity
  8
Ebene 1
 62
   179
420
  1709851
370
    15
100
AcDbVertex
100
AcDb2dVertex
 10
36.3493747196453
 20
-168.3645724405478
 30
0.0
  0
SEQEND
  5
5A4
330
5A1
100
AcDbEntity
  8
Ebene 1
370
    15
  0
POLYLINE
  5
5A5
330
327
100
AcDbEntity
  8
Ebene 1
 62
   179
420
  1709851
370
    15
100
AcDb2dPolyline
 66
     1
 10
0.0
 20
0.0
 30
0.0
  0
VERTEX
  5
5A6
330
5A5
100
AcDbEntity
  8
Ebene 1
 62
   179
420
  1709851
370
    15
100
AcDbVertex
100
AcDb2dVertex
 10
36.3493747196453
 20
-176.61350907043
 30
0.0
  0
VERTEX
  5
5A7
330
5A5
100
AcDbEntity
  8
Ebene 1
 62
   179
420
  1709851
370
    15
100
AcDbVertex
100
AcDb2dVertex
 10
36.3493747196453
 20
-170.2076985251564
 30
0.0
  0
SEQEND
  5
5A8
330
5A5
100
AcDbEntity
  8
Ebene 1
370
    15
  0
POLYLINE
  5
5A9
330
327
100
AcDbEntity
  8
Ebene 1
 62
   179
420
  1709851
370
    15
100
AcDb2dPolyline
 66
     1
 10
0.0
 20
0.0
 30
0.0
  0
VERTEX
  5
5AA
330
5A9
100
AcDbEntity
  8
Ebene 1
 62
   179
420
  1709851
370
    15
100
AcDbVertex
100
AcDb2dVertex
 10
36.3493747196453
 20
-178.4573241741357
 30
0.0
  0
VERTEX
  5
5AB
330
5A9
100
AcDbEntity
  8
Ebene 1
 62
   179
420
  1709851
370
    15
100
AcDbVertex
100
AcDb2dVertex
 10
36.3493747196453
 20
-177.5257703549241
 30
0.0
  0
SEQEND
  5
5AC
330
5A9
100
AcDbEntity
  8
Ebene 1
370
    15
  0
POLYLINE
  5
5AD
330
327
100
AcDbEntity
  8
Ebene 1
 62
   179
420
  1709851
370
    15
100
AcDb2dPolyline
 66
     1
 10
0.0
 20
0.0
 30
0.0
  0
VERTEX
  5
5AE
330
5AD
100
AcDbEntity
  8
Ebene 1
 62
   179
420
  1709851
370
    15
100
AcDbVertex
100
AcDb2dVertex
 10
36.3493747196453
 20
-185.7939995195237
 30
0.0
  0
VERTEX
  5
5AF
330
5AD
100
AcDbEntity
  8
Ebene 1
 62
   179
420
  1709851
370
    15
100
AcDbVertex
100
AcDb2dVertex
 10
36.3493747196453
 20
-179.3695854586298
 30
0.0
  0
SEQEND
  5
5B0
330
5AD
100
AcDbEntity
  8
Ebene 1
370
    15
  0
POLYLINE
  5
5B1
330
327
100
AcDbEntity
  8
Ebene 1
370
     0
100
AcDb2dPolyline
 66
     1
 10
0.0
 20
0.0
 30
0.0
  0
VERTEX
  5
5B2
330
5B1
100
AcDbEntity
  8
Ebene 1
370
     0
100
AcDbVertex
100
AcDb2dVertex
 10
17.99166666216875
 20
-199.6336371028694
 30
0.0
  0
VERTEX
  5
5B3
330
5B1
100
AcDbEntity
  8
Ebene 1
370
     0
100
AcDbVertex
100
AcDb2dVertex
 10
190.6092094792574
 20
-199.6336371028694
 30
0.0
  0
VERTEX
  5
5B4
330
5B1
100
AcDbEntity
  8
Ebene 1
370
     0
100
AcDbVertex
100
AcDb2dVertex
 10
190.6092094792574
 20
-92.47170272210778
 30
0.0
  0
VERTEX
  5
5B5
330
5B1
100
AcDbEntity
  8
Ebene 1
370
     0
100
AcDbVertex
100
AcDb2dVertex
 10
17.99166666216875
 20
-92.47170272210778
 30
0.0
  0
VERTEX
  5
5B6
330
5B1
100
AcDbEntity
  8
Ebene 1
370
     0
100
AcDbVertex
100
AcDb2dVertex
 10
17.99166666216875
 20
-199.6336371028694
 30
0.0
  0
SEQEND
  5
5B7
330
5B1
100
AcDbEntity
  8
Ebene 1
370
     0
  0
ENDBLK
  5
32A
330
327
100
AcDbEntity
  8
0
100
AcDbBlockEnd
  0
BLOCK
  5
62C
330
62A
100
AcDbEntity
  8
0
100
AcDbBlockBegin
  2
block 4
 70
     0
 71
     0
 10
0.0
 20
0.0
 30
0.0
  3
block 4
  1

  0
MTEXT
  5
62E
330
62A
100
AcDbEntity
  8
Ebene 1
 62
   179
420
  1709851
100
AcDbMText
 10
28.97394205004818
 20
-183.5622666641789
 30
0.0
 40
2.173801112055393
 41
0.0
 71
     7
 72
     1
  1
\fArial|b0|i0|c0|p34;\W1.00413;24.4
 11
-4.371139000186241E-8
 21
0.999999999999999
 31
0.0
 73
     1
 44
1.0
  0
POLYLINE
  5
62F
330
62A
100
AcDbEntity
  8
Ebene 1
370
     0
100
AcDb2dPolyline
 66
     1
 10
0.0
 20
0.0
 30
0.0
  0
VERTEX
  5
630
330
62F
100
AcDbEntity
  8
Ebene 1
370
     0
100
AcDbVertex
100
AcDb2dVertex
 10
17.99166666216875
 20
-199.6336371028694
 30
0.0
  0
VERTEX
  5
631
330
62F
100
AcDbEntity
  8
Ebene 1
370
     0
100
AcDbVertex
100
AcDb2dVertex
 10
190.6092094792574
 20
-199.6336371028694
 30
0.0
  0
VERTEX
  5
632
330
62F
100
AcDbEntity
  8
Ebene 1
370
     0
100
AcDbVertex
100
AcDb2dVertex
 10
190.6092094792574
 20
-92.47170272210778
 30
0.0
  0
VERTEX
  5
633
330
62F
100
AcDbEntity
  8
Ebene 1
370
     0
100
AcDbVertex
100
AcDb2dVertex
 10
17.99166666216875
 20
-92.47170272210778
 30
0.0
  0
VERTEX
  5
634
330
62F
100
AcDbEntity
  8
Ebene 1
370
     0
100
AcDbVertex
100
AcDb2dVertex
 10
17.99166666216875
 20
-199.6336371028694
 30
0.0
  0
SEQEND
  5
635
330
62F
100
AcDbEntity
  8
Ebene 1
370
     0
  0
ENDBLK
  5
62D
330
62A
100
AcDbEntity
  8
0
100
AcDbBlockEnd
  0
BLOCK
  5
64C
330
64A
100
AcDbEntity
  8
0
100
AcDbBlockBegin
  2
block 5
 70
     0
 71
     0
 10
0.0
 20
0.0
 30
0.0
  3
block 5
  1

  0
MTEXT
  5
64E
330
64A
100
AcDbEntity
  8
Ebene 1
 62
   179
420
  1709851
100
AcDbMText
 10
28.95430500578226
 20
-168.6942680784862
 30
0.0
 40
2.173801112055393
 41
0.0
 71
     7
 72
     1
  1
\fArial|b0|i0|c0|p34;\W1.00413;147.6
 11
-4.371139000186241E-8
 21
0.999999999999999
 31
0.0
 73
     1
 44
1.0
  0
POLYLINE
  5
64F
330
64A
100
AcDbEntity
  8
Ebene 1
370
     0
100
AcDb2dPolyline
 66
     1
 10
0.0
 20
0.0
 30
0.0
  0
VERTEX
  5
650
330
64F
100
AcDbEntity
  8
Ebene 1
370
     0
100
AcDbVertex
100
AcDb2dVertex
 10
17.99166666216875
 20
-199.6336371028694
 30
0.0
  0
VERTEX
  5
651
330
64F
100
AcDbEntity
  8
Ebene 1
370
     0
100
AcDbVertex
100
AcDb2dVertex
 10
190.6092094792574
 20
-199.6336371028694
 30
0.0
  0
VERTEX
  5
652
330
64F
100
AcDbEntity
  8
Ebene 1
370
     0
100
AcDbVertex
100
AcDb2dVertex
 10
190.6092094792574
 20
-92.47170272210778
 30
0.0
  0
VERTEX
  5
653
330
64F
100
AcDbEntity
  8
Ebene 1
370
     0
100
AcDbVertex
100
AcDb2dVertex
 10
17.99166666216875
 20
-92.47170272210778
 30
0.0
  0
VERTEX
  5
654
330
64F
100
AcDbEntity
  8
Ebene 1
370
     0
100
AcDbVertex
100
AcDb2dVertex
 10
17.99166666216875
 20
-199.6336371028694
 30
0.0
  0
SEQEND
  5
655
330
64F
100
AcDbEntity
  8
Ebene 1
370
     0
  0
ENDBLK
  5
64D
330
64A
100
AcDbEntity
  8
0
100
AcDbBlockEnd
  0
BLOCK
  5
67C
330
67A
100
AcDbEntity
  8
0
100
AcDbBlockBegin
  2
block 6
 70
     0
 71
     0
 10
0.0
 20
0.0
 30
0.0
  3
block 6
  1

  0
MTEXT
  5
67E
330
67A
100
AcDbEntity
  8
Ebene 1
 62
   179
420
  1709851
100
AcDbMText
 10
32.8365831081103
 20
-182.0092176194283
 30
0.0
 40
2.173801112055393
 41
0.0
 71
     7
 72
     1
  1
\fArial|b0|i0|c0|p34;\W1.00413;57.4
 11
-4.371139000186241E-8
 21
0.999999999999999
 31
0.0
 73
     1
 44
1.0
  0
POLYLINE
  5
67F
330
67A
100
AcDbEntity
  8
Ebene 1
370
     0
100
AcDb2dPolyline
 66
     1
 10
0.0
 20
0.0
 30
0.0
  0
VERTEX
  5
680
330
67F
100
AcDbEntity
  8
Ebene 1
370
     0
100
AcDbVertex
100
AcDb2dVertex
 10
17.99166666216875
 20
-199.6336371028694
 30
0.0
  0
VERTEX
  5
681
330
67F
100
AcDbEntity
  8
Ebene 1
370
     0
100
AcDbVertex
100
AcDb2dVertex
 10
190.6092094792574
 20
-199.6336371028694
 30
0.0
  0
VERTEX
  5
682
330
67F
100
AcDbEntity
  8
Ebene 1
370
     0
100
AcDbVertex
100
AcDb2dVertex
 10
190.6092094792574
 20
-92.47170272210778
 30
0.0
  0
VERTEX
  5
683
330
67F
100
AcDbEntity
  8
Ebene 1
370
     0
100
AcDbVertex
100
AcDb2dVertex
 10
17.99166666216875
 20
-92.47170272210778
 30
0.0
  0
VERTEX
  5
684
330
67F
100
AcDbEntity
  8
Ebene 1
370
     0
100
AcDbVertex
100
AcDb2dVertex
 10
17.99166666216875
 20
-199.6336371028694
 30
0.0
  0
SEQEND
  5
685
330
67F
100
AcDbEntity
  8
Ebene 1
370
     0
  0
ENDBLK
  5
67D
330
67A
100
AcDbEntity
  8
0
100
AcDbBlockEnd
  0
BLOCK
  5
6AC
330
6AA
100
AcDbEntity
  8
0
100
AcDbBlockBegin
  2
block 7
 70
     0
 71
     0
 10
0.0
 20
0.0
 30
0.0
  3
block 7
  1

  0
MTEXT
  5
6AE
330
6AA
100
AcDbEntity
  8
Ebene 1
 62
   179
420
  1709851
100
AcDbMText
 10
95.60760088755644
 20
-183.1936414472572
 30
0.0
 40
2.173801112055393
 41
0.0
 71
     7
 72
     1
  1
\fArial|b0|i0|c0|p34;\W1.00413;14
 11
-4.371139000186241E-8
 21
0.999999999999999
 31
0.0
 73
     1
 44
1.0
  0
POLYLINE
  5
6AF
330
6AA
100
AcDbEntity
  8
Ebene 1
370
     0
100
AcDb2dPolyline
 66
     1
 10
0.0
 20
0.0
 30
0.0
  0
VERTEX
  5
6B0
330
6AF
100
AcDbEntity
  8
Ebene 1
370
     0
100
AcDbVertex
100
AcDb2dVertex
 10
17.99166666216875
 20
-199.6336371028694
 30
0.0
  0
VERTEX
  5
6B1
330
6AF
100
AcDbEntity
  8
Ebene 1
370
     0
100
AcDbVertex
100
AcDb2dVertex
 10
190.6092094792574
 20
-199.6336371028694
 30
0.0
  0
VERTEX
  5
6B2
330
6AF
100
AcDbEntity
  8
Ebene 1
370
     0
100
AcDbVertex
100
AcDb2dVertex
 10
190.6092094792574
 20
-92.47170272210778
 30
0.0
  0
VERTEX
  5
6B3
330
6AF
100
AcDbEntity
  8
Ebene 1
370
     0
100
AcDbVertex
100
AcDb2dVertex
 10
17.99166666216875
 20
-92.47170272210778
 30
0.0
  0
VERTEX
  5
6B4
330
6AF
100
AcDbEntity
  8
Ebene 1
370
     0
100
AcDbVertex
100
AcDb2dVertex
 10
17.99166666216875
 20
-199.6336371028694
 30
0.0
  0
SEQEND
  5
6B5
330
6AF
100
AcDbEntity
  8
Ebene 1
370
     0
  0
ENDBLK
  5
6AD
330
6AA
100
AcDbEntity
  8
0
100
AcDbBlockEnd
  0
ENDSEC
  0
SECTION
  2
ENTITIES
  0
POLYLINE
  5
3C
330
1F
100
AcDbEntity
  8
Ebene 1
370
     0
100
AcDb2dPolyline
 66
     1
 10
0.0
 20
0.0
 30
0.0
  0
VERTEX
  5
3D
330
3C
100
AcDbEntity
  8
Ebene 1
370
     0
100
AcDbVertex
100
AcDb2dVertex
 10
103.6047010374669
 20
-180.2039875851573
 30
0.0
  0
VERTEX
  5
3E
330
3C
100
AcDbEntity
  8
Ebene 1
370
     0
100
AcDbVertex
100
AcDb2dVertex
 10
104.0703056922984
 20
-179.7382106755516
 30
0.0
  0
VERTEX
  5
3F
330
3C
100
AcDbEntity
  8
Ebene 1
370
     0
100
AcDbVertex
100
AcDb2dVertex
 10
103.6047010374669
 20
-174.6918348087576
 30
0.0
  0
VERTEX
  5
40
330
3C
100
AcDbEntity
  8
Ebene 1
370
     0
100
AcDbVertex
100
AcDb2dVertex
 10
103.6047010374669
 20
-180.2039875851573
 30
0.0
  0
SEQEND
  5
41
330
3C
100
AcDbEntity
  8
Ebene 1
370
     0
  0
HATCH
  5
42
330
1F
100
AcDbEntity
  8
Ebene 1
 62
   179
420
  1709851
100
AcDbHatch
 10
0.0
 20
0.0
 30
0.0
210
0.0
220
0.0
230
1.0
  2
SOLID
 70
     1
 71
     0
 91
        1
 92
        1
 93
        3
 72
     1
 10
103.6047010374669
 20
-180.2039875851573
 11
104.0703056922984
 21
-179.7382106755516
 72
     1
 10
104.0703056922984
 20
-179.7382106755516
 11
103.6047010374669
 21
-174.6918348087576
 72
     1
 10
103.6047010374669
 20
-174.6918348087576
 11
103.6047010374669
 21
-180.2039875851573
 97
        0
 75
     2
 76
     1
 98
        0
  0
POLYLINE
  5
43
330
1F
100
AcDbEntity
  8
Ebene 1
370
     0
100
AcDb2dPolyline
 66
     1
 10
0.0
 20
0.0
 30
0.0
  0
VERTEX
  5
44
330
43
100
AcDbEntity
  8
Ebene 1
370
     0
100
AcDbVertex
100
AcDb2dVertex
 10
104.0704779470727
 20
-179.7382106755516
 30
0.0
  0
VERTEX
  5
45
330
43
100
AcDbEntity
  8
Ebene 1
370
     0
100
AcDbVertex
100
AcDb2dVertex
 10
103.6047010374669
 20
-180.2039875851573
 30
0.0
  0
VERTEX
  5
46
330
43
100
AcDbEntity
  8
Ebene 1
370
     0
100
AcDbVertex
100
AcDb2dVertex
 10
109.2140055065507
 20
-180.2039875851573
 30
0.0
  0
VERTEX
  5
47
330
43
100
AcDbEntity
  8
Ebene 1
370
     0
100
AcDbVertex
100
AcDb2dVertex
 10
104.0704779470727
 20
-179.7382106755516
 30
0.0
  0
SEQEND
  5
48
330
43
100
AcDbEntity
  8
Ebene 1
370
     0
  0
HATCH
  5
49
330
1F
100
AcDbEntity
  8
Ebene 1
 62
   179
420
  1709851
100
AcDbHatch
 10
0.0
 20
0.0
 30
0.0
210
0.0
220
0.0
230
1.0
  2
SOLID
 70
     1
 71
     0
 91
        1
 92
        1
 93
        3
 72
     1
 10
104.0704779470727
 20
-179.7382106755516
 11
103.6047010374669
 21
-180.2039875851573
 72
     1
 10
103.6047010374669
 20
-180.2039875851573
 11
109.2140055065507
 21
-180.2039875851573
 72
     1
 10
109.2140055065507
 20
-180.2039875851573
 11
104.0704779470727
 21
-179.7382106755516
 97
        0
 75
     2
 76
     1
 98
        0
  0
POLYLINE
  5
4A
330
1F
100
AcDbEntity
  8
Ebene 1
370
     0
100
AcDb2dPolyline
 66
     1
 10
0.0
 20
0.0
 30
0.0
  0
VERTEX
  5
4B
330
4A
100
AcDbEntity
  8
Ebene 1
370
     0
100
AcDbVertex
100
AcDb2dVertex
 10
104.0704779470727
 20
-179.7382106755516
 30
0.0
  0
VERTEX
  5
4C
330
4A
100
AcDbEntity
  8
Ebene 1
370
     0
100
AcDbVertex
100
AcDb2dVertex
 10
109.2140055065507
 20
-180.2039875851573
 30
0.0
  0
VERTEX
  5
4D
330
4A
100
AcDbEntity
  8
Ebene 1
370
     0
100
AcDbVertex
100
AcDb2dVertex
 10
105.6621120612581
 20
-179.7382106755516
 30
0.0
  0
VERTEX
  5
4E
330
4A
100
AcDbEntity
  8
Ebene 1
370
     0
100
AcDbVertex
100
AcDb2dVertex
 10
104.0704779470727
 20
-179.7382106755516
 30
0.0
  0
SEQEND
  5
4F
330
4A
100
AcDbEntity
  8
Ebene 1
370
     0
  0
HATCH
  5
50
330
1F
100
AcDbEntity
  8
Ebene 1
 62
   179
420
  1709851
100
AcDbHatch
 10
0.0
 20
0.0
 30
0.0
210
0.0
220
0.0
230
1.0
  2
SOLID
 70
     1
 71
     0
 91
        1
 92
        1
 93
        3
 72
     1
 10
104.0704779470727
 20
-179.7382106755516
 11
109.2140055065507
 21
-180.2039875851573
 72
     1
 10
109.2140055065507
 20
-180.2039875851573
 11
105.6621120612581
 21
-179.7382106755516
 72
     1
 10
105.6621120612581
 20
-179.7382106755516
 11
104.0704779470727
 21
-179.7382106755516
 97
        0
 75
     2
 76
     1
 98
        0
  0
SPLINE
  5
51
330
1F
100
AcDbEntity
  8
Ebene 1
370
     0
100
AcDbSpline
210
0.0
220
0.0
230
1.0
 70
    27
 71
     3
 72
    11
 73
     7
 74
     0
 42
0.0000000001
 43
0.0000000001
 40
0.0
 40
0.0
 40
0.0
 40
0.0
 40
1.0
 40
1.0
 40
1.0
 40
2.0
 40
2.0
 40
2.0
 40
2.0
 10
105.6621120612581
 20
-179.7382106755516
 30
0.0
 10
105.6621120612581
 20
-179.7382106755516
 30
0.0
 10
109.2143500160992
 20
-180.2039875851573
 30
0.0
 10
109.2143500160992
 20
-180.2039875851573
 30
0.0
 10
109.2143500160992
 20
-180.2039875851573
 30
0.0
 10
105.6621120612581
 20
-179.7382106755516
 30
0.0
 10
105.6621120612581
 20
-179.7382106755516
 30
0.0
  0
HATCH
  5
52
330
1F
100
AcDbEntity
  8
Ebene 1
 62
   179
420
  1709851
100
AcDbHatch
 10
0.0
 20
0.0
 30
0.0
210
0.0
220
0.0
230
1.0
  2
SOLID
 70
     1
 71
     0
 91
        1
 92
        1
 93
        1
 72
     4
 94
        3
 73
     0
 74
     1
 95
       11
 96
        7
 40
0.0
 40
0.0
 40
0.0
 40
0.0
 40
1.0
 40
1.0
 40
1.0
 40
2.0
 40
2.0
 40
2.0
 40
2.0
 10
105.6621120612581
 20
-179.7382106755516
 10
105.6621120612581
 20
-179.7382106755516
 10
109.2143500160992
 20
-180.2039875851573
 10
109.2143500160992
 20
-180.2039875851573
 10
109.2143500160992
 20
-180.2039875851573
 10
105.6621120612581
 20
-179.7382106755516
 10
105.6621120612581
 20
-179.7382106755516
 97
        0
 75
     2
 76
     1
 98
        0
  0
POLYLINE
  5
53
330
1F
100
AcDbEntity
  8
Ebene 1
370
     0
100
AcDb2dPolyline
 66
     1
 10
0.0
 20
0.0
 30
0.0
  0
VERTEX
  5
54
330
53
100
AcDbEntity
  8
Ebene 1
370
     0
100
AcDbVertex
100
AcDb2dVertex
 10
105.6621120612581
 20
-179.7382106755516
 30
0.0
  0
VERTEX
  5
55
330
53
100
AcDbEntity
  8
Ebene 1
370
     0
100
AcDbVertex
100
AcDb2dVertex
 10
109.2143500160992
 20
-180.2039875851573
 30
0.0
  0
VERTEX
  5
56
330
53
100
AcDbEntity
  8
Ebene 1
370
     0
100
AcDbVertex
100
AcDb2dVertex
 10
106.3997070046501
 20
-179.7382106755516
 30
0.0
  0
VERTEX
  5
57
330
53
100
AcDbEntity
  8
Ebene 1
370
     0
100
AcDbVertex
100
AcDb2dVertex
 10
105.6621120612581
 20
-179.7382106755516
 30
0.0
  0
SEQEND
  5
58
330
53
100
AcDbEntity
  8
Ebene 1
370
     0
  0
HATCH
  5
59
330
1F
100
AcDbEntity
  8
Ebene 1
 62
   179
420
  1709851
100
AcDbHatch
 10
0.0
 20
0.0
 30
0.0
210
0.0
220
0.0
230
1.0
  2
SOLID
 70
     1
 71
     0
 91
        1
 92
        1
 93
        3
 72
     1
 10
105.6621120612581
 20
-179.7382106755516
 11
109.2143500160992
 21
-180.2039875851573
 72
     1
 10
109.2143500160992
 20
-180.2039875851573
 11
106.3997070046501
 21
-179.7382106755516
 72
     1
 10
106.3997070046501
 20
-179.7382106755516
 11
105.6621120612581
 21
-179.7382106755516
 97
        0
 75
     2
 76
     1
 98
        0
  0
POLYLINE
  5
5A
330
1F
100
AcDbEntity
  8
Ebene 1
370
     0
100
AcDb2dPolyline
 66
     1
 10
0.0
 20
0.0
 30
0.0
  0
VERTEX
  5
5B
330
5A
100
AcDbEntity
  8
Ebene 1
370
     0
100
AcDbVertex
100
AcDb2dVertex
 10
106.3997070046501
 20
-179.7382106755516
 30
0.0
  0
VERTEX
  5
5C
330
5A
100
AcDbEntity
  8
Ebene 1
370
     0
100
AcDbVertex
100
AcDb2dVertex
 10
109.2140055065507
 20
-180.2039875851573
 30
0.0
  0
VERTEX
  5
5D
330
5A
100
AcDbEntity
  8
Ebene 1
370
     0
100
AcDbVertex
100
AcDb2dVertex
 10
106.4189995393675
 20
-179.7382106755516
 30
0.0
  0
VERTEX
  5
5E
330
5A
100
AcDbEntity
  8
Ebene 1
370
     0
100
AcDbVertex
100
AcDb2dVertex
 10
106.3997070046501
 20
-179.7382106755516
 30
0.0
  0
SEQEND
  5
5F
330
5A
100
AcDbEntity
  8
Ebene 1
370
     0
  0
HATCH
  5
60
330
1F
100
AcDbEntity
  8
Ebene 1
 62
   179
420
  1709851
100
AcDbHatch
 10
0.0
 20
0.0
 30
0.0
210
0.0
220
0.0
230
1.0
  2
SOLID
 70
     1
 71
     0
 91
        1
 92
        1
 93
        3
 72
     1
 10
106.3997070046501
 20
-179.7382106755516
 11
109.2140055065507
 21
-180.2039875851573
 72
     1
 10
109.2140055065507
 20
-180.2039875851573
 11
106.4189995393675
 21
-179.7382106755516
 72
     1
 10
106.4189995393675
 20
-179.7382106755516
 11
106.3997070046501
 21
-179.7382106755516
 97
        0
 75
     2
 76
     1
 98
        0
  0
POLYLINE
  5
61
330
1F
100
AcDbEntity
  8
Ebene 1
370
     0
100
AcDb2dPolyline
 66
     1
 10
0.0
 20
0.0
 30
0.0
  0
VERTEX
  5
62
330
61
100
AcDbEntity
  8
Ebene 1
370
     0
100
AcDbVertex
100
AcDb2dVertex
 10
106.4189995393675
 20
-179.7382106755516
 30
0.0
  0
VERTEX
  5
63
330
61
100
AcDbEntity
  8
Ebene 1
370
     0
100
AcDbVertex
100
AcDb2dVertex
 10
109.2140055065507
 20
-180.2039875851573
 30
0.0
  0
VERTEX
  5
64
330
61
100
AcDbEntity
  8
Ebene 1
370
     0
100
AcDbVertex
100
AcDb2dVertex
 10
107.1565944827595
 20
-179.7382106755516
 30
0.0
  0
VERTEX
  5
65
330
61
100
AcDbEntity
  8
Ebene 1
370
     0
100
AcDbVertex
100
AcDb2dVertex
 10
106.4189995393675
 20
-179.7382106755516
 30
0.0
  0
SEQEND
  5
66
330
61
100
AcDbEntity
  8
Ebene 1
370
     0
  0
HATCH
  5
67
330
1F
100
AcDbEntity
  8
Ebene 1
 62
   179
420
  1709851
100
AcDbHatch
 10
0.0
 20
0.0
 30
0.0
210
0.0
220
0.0
230
1.0
  2
SOLID
 70
     1
 71
     0
 91
        1
 92
        1
 93
        3
 72
     1
 10
106.4189995393675
 20
-179.7382106755516
 11
109.2140055065507
 21
-180.2039875851573
 72
     1
 10
109.2140055065507
 20
-180.2039875851573
 11
107.1565944827595
 21
-179.7382106755516
 72
     1
 10
107.1565944827595
 20
-179.7382106755516
 11
106.4189995393675
 21
-179.7382106755516
 97
        0
 75
     2
 76
     1
 98
        0
  0
SPLINE
  5
68
330
1F
100
AcDbEntity
  8
Ebene 1
370
     0
100
AcDbSpline
210
0.0
220
0.0
230
1.0
 70
    27
 71
     3
 72
    11
 73
     7
 74
     0
 42
0.0000000001
 43
0.0000000001
 40
0.0
 40
0.0
 40
0.0
 40
0.0
 40
1.0
 40
1.0
 40
1.0
 40
2.0
 40
2.0
 40
2.0
 40
2.0
 10
107.1565944827595
 20
-179.7382106755516
 30
0.0
 10
107.1565944827595
 20
-179.7382106755516
 30
0.0
 10
109.2140055065507
 20
-180.2039875851573
 30
0.0
 10
109.2140055065507
 20
-180.2039875851573
 30
0.0
 10
109.2140055065507
 20
-180.2039875851573
 30
0.0
 10
107.1565944827595
 20
-179.7382106755516
 30
0.0
 10
107.1565944827595
 20
-179.7382106755516
 30
0.0
  0
HATCH
  5
69
330
1F
100
AcDbEntity
  8
Ebene 1
 62
   179
420
  1709851
100
AcDbHatch
 10
0.0
 20
0.0
 30
0.0
210
0.0
220
0.0
230
1.0
  2
SOLID
 70
     1
 71
     0
 91
        1
 92
        1
 93
        1
 72
     4
 94
        3
 73
     0
 74
     1
 95
       11
 96
        7
 40
0.0
 40
0.0
 40
0.0
 40
0.0
 40
1.0
 40
1.0
 40
1.0
 40
2.0
 40
2.0
 40
2.0
 40
2.0
 10
107.1565944827595
 20
-179.7382106755516
 10
107.1565944827595
 20
-179.7382106755516
 10
109.2140055065507
 20
-180.2039875851573
 10
109.2140055065507
 20
-180.2039875851573
 10
109.2140055065507
 20
-180.2039875851573
 10
107.1565944827595
 20
-179.7382106755516
 10
107.1565944827595
 20
-179.7382106755516
 97
        0
 75
     2
 76
     1
 98
        0
  0
POLYLINE
  5
6A
330
1F
100
AcDbEntity
  8
Ebene 1
370
     0
100
AcDb2dPolyline
 66
     1
 10
0.0
 20
0.0
 30
0.0
  0
VERTEX
  5
6B
330
6A
100
AcDbEntity
  8
Ebene 1
370
     0
100
AcDbVertex
100
AcDb2dVertex
 10
107.1565944827595
 20
-179.7382106755516
 30
0.0
  0
VERTEX
  5
6C
330
6A
100
AcDbEntity
  8
Ebene 1
370
     0
100
AcDbVertex
100
AcDb2dVertex
 10
109.2140055065507
 20
-180.2039875851573
 30
0.0
  0
VERTEX
  5
6D
330
6A
100
AcDbEntity
  8
Ebene 1
370
     0
100
AcDbVertex
100
AcDb2dVertex
 10
108.7485731064934
 20
-179.7382106755516
 30
0.0
  0
VERTEX
  5
6E
330
6A
100
AcDbEntity
  8
Ebene 1
370
     0
100
AcDbVertex
100
AcDb2dVertex
 10
107.1565944827595
 20
-179.7382106755516
 30
0.0
  0
SEQEND
  5
6F
330
6A
100
AcDbEntity
  8
Ebene 1
370
     0
  0
HATCH
  5
70
330
1F
100
AcDbEntity
  8
Ebene 1
 62
   179
420
  1709851
100
AcDbHatch
 10
0.0
 20
0.0
 30
0.0
210
0.0
220
0.0
230
1.0
  2
SOLID
 70
     1
 71
     0
 91
        1
 92
        1
 93
        3
 72
     1
 10
107.1565944827595
 20
-179.7382106755516
 11
109.2140055065507
 21
-180.2039875851573
 72
     1
 10
109.2140055065507
 20
-180.2039875851573
 11
108.7485731064934
 21
-179.7382106755516
 72
     1
 10
108.7485731064934
 20
-179.7382106755516
 11
107.1565944827595
 21
-179.7382106755516
 97
        0
 75
     2
 76
     1
 98
        0
  0
POLYLINE
  5
71
330
1F
100
AcDbEntity
  8
Ebene 1
370
     0
100
AcDb2dPolyline
 66
     1
 10
0.0
 20
0.0
 30
0.0
  0
VERTEX
  5
72
330
71
100
AcDbEntity
  8
Ebene 1
370
     0
100
AcDbVertex
100
AcDb2dVertex
 10
108.7482285969449
 20
-179.7382106755516
 30
0.0
  0
VERTEX
  5
73
330
71
100
AcDbEntity
  8
Ebene 1
370
     0
100
AcDbVertex
100
AcDb2dVertex
 10
109.2136609970022
 20
-180.2039875851573
 30
0.0
  0
VERTEX
  5
74
330
71
100
AcDbEntity
  8
Ebene 1
370
     0
100
AcDbVertex
100
AcDb2dVertex
 10
108.7482285969449
 20
-178.2244357193328
 30
0.0
  0
VERTEX
  5
75
330
71
100
AcDbEntity
  8
Ebene 1
370
     0
100
AcDbVertex
100
AcDb2dVertex
 10
108.7482285969449
 20
-179.7382106755516
 30
0.0
  0
SEQEND
  5
76
330
71
100
AcDbEntity
  8
Ebene 1
370
     0
  0
HATCH
  5
77
330
1F
100
AcDbEntity
  8
Ebene 1
 62
   179
420
  1709851
100
AcDbHatch
 10
0.0
 20
0.0
 30
0.0
210
0.0
220
0.0
230
1.0
  2
SOLID
 70
     1
 71
     0
 91
        1
 92
        1
 93
        3
 72
     1
 10
108.7482285969449
 20
-179.7382106755516
 11
109.2136609970022
 21
-180.2039875851573
 72
     1
 10
109.2136609970022
 20
-180.2039875851573
 11
108.7482285969449
 21
-178.2244357193328
 72
     1
 10
108.7482285969449
 20
-178.2244357193328
 11
108.7482285969449
 21
-179.7382106755516
 97
        0
 75
     2
 76
     1
 98
        0
  0
POLYLINE
  5
78
330
1F
100
AcDbEntity
  8
Ebene 1
370
     0
100
AcDb2dPolyline
 66
     1
 10
0.0
 20
0.0
 30
0.0
  0
VERTEX
  5
79
330
78
100
AcDbEntity
  8
Ebene 1
370
     0
100
AcDbVertex
100
AcDb2dVertex
 10
108.7482285969449
 20
-178.2244357193328
 30
0.0
  0
VERTEX
  5
7A
330
78
100
AcDbEntity
  8
Ebene 1
370
     0
100
AcDbVertex
100
AcDb2dVertex
 10
109.2136609970022
 20
-180.2039875851573
 30
0.0
  0
VERTEX
  5
7B
330
78
100
AcDbEntity
  8
Ebene 1
370
     0
100
AcDbVertex
100
AcDb2dVertex
 10
108.7482285969449
 20
-177.4864962663923
 30
0.0
  0
VERTEX
  5
7C
330
78
100
AcDbEntity
  8
Ebene 1
370
     0
100
AcDbVertex
100
AcDb2dVertex
 10
108.7482285969449
 20
-178.2244357193328
 30
0.0
  0
SEQEND
  5
7D
330
78
100
AcDbEntity
  8
Ebene 1
370
     0
  0
HATCH
  5
7E
330
1F
100
AcDbEntity
  8
Ebene 1
 62
   179
420
  1709851
100
AcDbHatch
 10
0.0
 20
0.0
 30
0.0
210
0.0
220
0.0
230
1.0
  2
SOLID
 70
     1
 71
     0
 91
        1
 92
        1
 93
        3
 72
     1
 10
108.7482285969449
 20
-178.2244357193328
 11
109.2136609970022
 21
-180.2039875851573
 72
     1
 10
109.2136609970022
 20
-180.2039875851573
 11
108.7482285969449
 21
-177.4864962663923
 72
     1
 10
108.7482285969449
 20
-177.4864962663923
 11
108.7482285969449
 21
-178.2244357193328
 97
        0
 75
     2
 76
     1
 98
        0
  0
POLYLINE
  5
7F
330
1F
100
AcDbEntity
  8
Ebene 1
370
     0
100
AcDb2dPolyline
 66
     1
 10
0.0
 20
0.0
 30
0.0
  0
VERTEX
  5
80
330
7F
100
AcDbEntity
  8
Ebene 1
370
     0
100
AcDbVertex
100
AcDb2dVertex
 10
108.7482285969449
 20
-177.4864962663923
 30
0.0
  0
VERTEX
  5
81
330
7F
100
AcDbEntity
  8
Ebene 1
370
     0
100
AcDbVertex
100
AcDb2dVertex
 10
109.2136609970022
 20
-180.2039875851573
 30
0.0
  0
VERTEX
  5
82
330
7F
100
AcDbEntity
  8
Ebene 1
370
     0
100
AcDbVertex
100
AcDb2dVertex
 10
108.7482285969449
 20
-175.9727213101735
 30
0.0
  0
VERTEX
  5
83
330
7F
100
AcDbEntity
  8
Ebene 1
370
     0
100
AcDbVertex
100
AcDb2dVertex
 10
108.7482285969449
 20
-177.4864962663923
 30
0.0
  0
SEQEND
  5
84
330
7F
100
AcDbEntity
  8
Ebene 1
370
     0
  0
HATCH
  5
85
330
1F
100
AcDbEntity
  8
Ebene 1
 62
   179
420
  1709851
100
AcDbHatch
 10
0.0
 20
0.0
 30
0.0
210
0.0
220
0.0
230
1.0
  2
SOLID
 70
     1
 71
     0
 91
        1
 92
        1
 93
        3
 72
     1
 10
108.7482285969449
 20
-177.4864962663923
 11
109.2136609970022
 21
-180.2039875851573
 72
     1
 10
109.2136609970022
 20
-180.2039875851573
 11
108.7482285969449
 21
-175.9727213101735
 72
     1
 10
108.7482285969449
 20
-175.9727213101735
 11
108.7482285969449
 21
-177.4864962663923
 97
        0
 75
     2
 76
     1
 98
        0
  0
POLYLINE
  5
86
330
1F
100
AcDbEntity
  8
Ebene 1
370
     0
100
AcDb2dPolyline
 66
     1
 10
0.0
 20
0.0
 30
0.0
  0
VERTEX
  5
87
330
86
100
AcDbEntity
  8
Ebene 1
370
     0
100
AcDbVertex
100
AcDb2dVertex
 10
108.7482285969449
 20
-175.9727213101735
 30
0.0
  0
VERTEX
  5
88
330
86
100
AcDbEntity
  8
Ebene 1
370
     0
100
AcDbVertex
100
AcDb2dVertex
 10
109.2136609970022
 20
-180.2039875851573
 30
0.0
  0
VERTEX
  5
89
330
86
100
AcDbEntity
  8
Ebene 1
370
     0
100
AcDbVertex
100
AcDb2dVertex
 10
108.7482285969449
 20
-175.4097927078837
 30
0.0
  0
VERTEX
  5
8A
330
86
100
AcDbEntity
  8
Ebene 1
370
     0
100
AcDbVertex
100
AcDb2dVertex
 10
108.7482285969449
 20
-175.9727213101735
 30
0.0
  0
SEQEND
  5
8B
330
86
100
AcDbEntity
  8
Ebene 1
370
     0
  0
HATCH
  5
8C
330
1F
100
AcDbEntity
  8
Ebene 1
 62
   179
420
  1709851
100
AcDbHatch
 10
0.0
 20
0.0
 30
0.0
210
0.0
220
0.0
230
1.0
  2
SOLID
 70
     1
 71
     0
 91
        1
 92
        1
 93
        3
 72
     1
 10
108.7482285969449
 20
-175.9727213101735
 11
109.2136609970022
 21
-180.2039875851573
 72
     1
 10
109.2136609970022
 20
-180.2039875851573
 11
108.7482285969449
 21
-175.4097927078837
 72
     1
 10
108.7482285969449
 20
-175.4097927078837
 11
108.7482285969449
 21
-175.9727213101735
 97
        0
 75
     2
 76
     1
 98
        0
  0
POLYLINE
  5
8D
330
1F
100
AcDbEntity
  8
Ebene 1
370
     0
100
AcDb2dPolyline
 66
     1
 10
0.0
 20
0.0
 30
0.0
  0
VERTEX
  5
8E
330
8D
100
AcDbEntity
  8
Ebene 1
370
     0
100
AcDbVertex
100
AcDb2dVertex
 10
108.7482285969449
 20
-175.4097927078837
 30
0.0
  0
VERTEX
  5
8F
330
8D
100
AcDbEntity
  8
Ebene 1
370
     0
100
AcDbVertex
100
AcDb2dVertex
 10
109.2136609970022
 20
-180.2039875851573
 30
0.0
  0
VERTEX
  5
90
330
8D
100
AcDbEntity
  8
Ebene 1
370
     0
100
AcDbVertex
100
AcDb2dVertex
 10
108.7482285969449
 20
-174.6918348087576
 30
0.0
  0
VERTEX
  5
91
330
8D
100
AcDbEntity
  8
Ebene 1
370
     0
100
AcDbVertex
100
AcDb2dVertex
 10
108.7482285969449
 20
-175.4097927078837
 30
0.0
  0
SEQEND
  5
92
330
8D
100
AcDbEntity
  8
Ebene 1
370
     0
  0
HATCH
  5
93
330
1F
100
AcDbEntity
  8
Ebene 1
 62
   179
420
  1709851
100
AcDbHatch
 10
0.0
 20
0.0
 30
0.0
210
0.0
220
0.0
230
1.0
  2
SOLID
 70
     1
 71
     0
 91
        1
 92
        1
 93
        3
 72
     1
 10
108.7482285969449
 20
-175.4097927078837
 11
109.2136609970022
 21
-180.2039875851573
 72
     1
 10
109.2136609970022
 20
-180.2039875851573
 11
108.7482285969449
 21
-174.6918348087576
 72
     1
 10
108.7482285969449
 20
-174.6918348087576
 11
108.7482285969449
 21
-175.4097927078837
 97
        0
 75
     2
 76
     1
 98
        0
  0
POLYLINE
  5
94
330
1F
100
AcDbEntity
  8
Ebene 1
370
     0
100
AcDb2dPolyline
 66
     1
 10
0.0
 20
0.0
 30
0.0
  0
VERTEX
  5
95
330
94
100
AcDbEntity
  8
Ebene 1
370
     0
100
AcDbVertex
100
AcDb2dVertex
 10
108.7482285969449
 20
-174.6918348087576
 30
0.0
  0
VERTEX
  5
96
330
94
100
AcDbEntity
  8
Ebene 1
370
     0
100
AcDbVertex
100
AcDb2dVertex
 10
109.2136609970022
 20
-180.2039875851573
 30
0.0
  0
VERTEX
  5
97
330
94
100
AcDbEntity
  8
Ebene 1
370
     0
100
AcDbVertex
100
AcDb2dVertex
 10
109.2136609970022
 20
-174.6918348087576
 30
0.0
  0
VERTEX
  5
98
330
94
100
AcDbEntity
  8
Ebene 1
370
     0
100
AcDbVertex
100
AcDb2dVertex
 10
108.7482285969449
 20
-174.6918348087576
 30
0.0
  0
SEQEND
  5
99
330
94
100
AcDbEntity
  8
Ebene 1
370
     0
  0
HATCH
  5
9A
330
1F
100
AcDbEntity
  8
Ebene 1
 62
   179
420
  1709851
100
AcDbHatch
 10
0.0
 20
0.0
 30
0.0
210
0.0
220
0.0
230
1.0
  2
SOLID
 70
     1
 71
     0
 91
        1
 92
        1
 93
        3
 72
     1
 10
108.7482285969449
 20
-174.6918348087576
 11
109.2136609970022
 21
-180.2039875851573
 72
     1
 10
109.2136609970022
 20
-180.2039875851573
 11
109.2136609970022
 21
-174.6918348087576
 72
     1
 10
109.2136609970022
 20
-174.6918348087576
 11
108.7482285969449
 21
-174.6918348087576
 97
        0
 75
     2
 76
     1
 98
        0
  0
POLYLINE
  5
9B
330
1F
100
AcDbEntity
  8
Ebene 1
370
     0
100
AcDb2dPolyline
 66
     1
 10
0.0
 20
0.0
 30
0.0
  0
VERTEX
  5
9C
330
9B
100
AcDbEntity
  8
Ebene 1
370
     0
100
AcDbVertex
100
AcDb2dVertex
 10
108.7482285969449
 20
-175.9727213101735
 30
0.0
  0
VERTEX
  5
9D
330
9B
100
AcDbEntity
  8
Ebene 1
370
     0
100
AcDbVertex
100
AcDb2dVertex
 10
108.0106336535529
 20
-175.4097927078837
 30
0.0
  0
VERTEX
  5
9E
330
9B
100
AcDbEntity
  8
Ebene 1
370
     0
100
AcDbVertex
100
AcDb2dVertex
 10
108.0106336535529
 20
-175.9727213101735
 30
0.0
  0
VERTEX
  5
9F
330
9B
100
AcDbEntity
  8
Ebene 1
370
     0
100
AcDbVertex
100
AcDb2dVertex
 10
108.7482285969449
 20
-175.9727213101735
 30
0.0
  0
SEQEND
  5
A0
330
9B
100
AcDbEntity
  8
Ebene 1
370
     0
  0
HATCH
  5
A1
330
1F
100
AcDbEntity
  8
Ebene 1
 62
   179
420
  1709851
100
AcDbHatch
 10
0.0
 20
0.0
 30
0.0
210
0.0
220
0.0
230
1.0
  2
SOLID
 70
     1
 71
     0
 91
        1
 92
        1
 93
        3
 72
     1
 10
108.7482285969449
 20
-175.9727213101735
 11
108.0106336535529
 21
-175.4097927078837
 72
     1
 10
108.0106336535529
 20
-175.4097927078837
 11
108.0106336535529
 21
-175.9727213101735
 72
     1
 10
108.0106336535529
 20
-175.9727213101735
 11
108.7482285969449
 21
-175.9727213101735
 97
        0
 75
     2
 76
     1
 98
        0
  0
POLYLINE
  5
A2
330
1F
100
AcDbEntity
  8
Ebene 1
370
     0
100
AcDb2dPolyline
 66
     1
 10
0.0
 20
0.0
 30
0.0
  0
VERTEX
  5
A3
330
A2
100
AcDbEntity
  8
Ebene 1
370
     0
100
AcDbVertex
100
AcDb2dVertex
 10
108.0106336535529
 20
-175.4097927078837
 30
0.0
  0
VERTEX
  5
A4
330
A2
100
AcDbEntity
  8
Ebene 1
370
     0
100
AcDbVertex
100
AcDb2dVertex
 10
108.7482285969449
 20
-175.9727213101735
 30
0.0
  0
VERTEX
  5
A5
330
A2
100
AcDbEntity
  8
Ebene 1
370
     0
100
AcDbVertex
100
AcDb2dVertex
 10
108.7482285969449
 20
-175.4097927078837
 30
0.0
  0
VERTEX
  5
A6
330
A2
100
AcDbEntity
  8
Ebene 1
370
     0
100
AcDbVertex
100
AcDb2dVertex
 10
108.0106336535529
 20
-175.4097927078837
 30
0.0
  0
SEQEND
  5
A7
330
A2
100
AcDbEntity
  8
Ebene 1
370
     0
  0
HATCH
  5
A8
330
1F
100
AcDbEntity
  8
Ebene 1
 62
   179
420
  1709851
100
AcDbHatch
 10
0.0
 20
0.0
 30
0.0
210
0.0
220
0.0
230
1.0
  2
SOLID
 70
     1
 71
     0
 91
        1
 92
        1
 93
        3
 72
     1
 10
108.0106336535529
 20
-175.4097927078837
 11
108.7482285969449
 21
-175.9727213101735
 72
     1
 10
108.7482285969449
 20
-175.9727213101735
 11
108.7482285969449
 21
-175.4097927078837
 72
     1
 10
108.7482285969449
 20
-175.4097927078837
 11
108.0106336535529
 21
-175.4097927078837
 97
        0
 75
     2
 76
     1
 98
        0
  0
POLYLINE
  5
A9
330
1F
100
AcDbEntity
  8
Ebene 1
370
     0
100
AcDb2dPolyline
 66
     1
 10
0.0
 20
0.0
 30
0.0
  0
VERTEX
  5
AA
330
A9
100
AcDbEntity
  8
Ebene 1
370
     0
100
AcDbVertex
100
AcDb2dVertex
 10
108.7482285969449
 20
-178.2244357193328
 30
0.0
  0
VERTEX
  5
AB
330
A9
100
AcDbEntity
  8
Ebene 1
370
     0
100
AcDbVertex
100
AcDb2dVertex
 10
108.0106336535529
 20
-177.4864962663923
 30
0.0
  0
VERTEX
  5
AC
330
A9
100
AcDbEntity
  8
Ebene 1
370
     0
100
AcDbVertex
100
AcDb2dVertex
 10
108.0106336535529
 20
-178.2244357193328
 30
0.0
  0
VERTEX
  5
AD
330
A9
100
AcDbEntity
  8
Ebene 1
370
     0
100
AcDbVertex
100
AcDb2dVertex
 10
108.7482285969449
 20
-178.2244357193328
 30
0.0
  0
SEQEND
  5
AE
330
A9
100
AcDbEntity
  8
Ebene 1
370
     0
  0
HATCH
  5
AF
330
1F
100
AcDbEntity
  8
Ebene 1
 62
   179
420
  1709851
100
AcDbHatch
 10
0.0
 20
0.0
 30
0.0
210
0.0
220
0.0
230
1.0
  2
SOLID
 70
     1
 71
     0
 91
        1
 92
        1
 93
        3
 72
     1
 10
108.7482285969449
 20
-178.2244357193328
 11
108.0106336535529
 21
-177.4864962663923
 72
     1
 10
108.0106336535529
 20
-177.4864962663923
 11
108.0106336535529
 21
-178.2244357193328
 72
     1
 10
108.0106336535529
 20
-178.2244357193328
 11
108.7482285969449
 21
-178.2244357193328
 97
        0
 75
     2
 76
     1
 98
        0
  0
POLYLINE
  5
B0
330
1F
100
AcDbEntity
  8
Ebene 1
370
     0
100
AcDb2dPolyline
 66
     1
 10
0.0
 20
0.0
 30
0.0
  0
VERTEX
  5
B1
330
B0
100
AcDbEntity
  8
Ebene 1
370
     0
100
AcDbVertex
100
AcDb2dVertex
 10
108.0106336535529
 20
-177.4864962663923
 30
0.0
  0
VERTEX
  5
B2
330
B0
100
AcDbEntity
  8
Ebene 1
370
     0
100
AcDbVertex
100
AcDb2dVertex
 10
108.7482285969449
 20
-178.2244357193328
 30
0.0
  0
VERTEX
  5
B3
330
B0
100
AcDbEntity
  8
Ebene 1
370
     0
100
AcDbVertex
100
AcDb2dVertex
 10
108.7482285969449
 20
-177.4864962663923
 30
0.0
  0
VERTEX
  5
B4
330
B0
100
AcDbEntity
  8
Ebene 1
370
     0
100
AcDbVertex
100
AcDb2dVertex
 10
108.0106336535529
 20
-177.4864962663923
 30
0.0
  0
SEQEND
  5
B5
330
B0
100
AcDbEntity
  8
Ebene 1
370
     0
  0
HATCH
  5
B6
330
1F
100
AcDbEntity
  8
Ebene 1
 62
   179
420
  1709851
100
AcDbHatch
 10
0.0
 20
0.0
 30
0.0
210
0.0
220
0.0
230
1.0
  2
SOLID
 70
     1
 71
     0
 91
        1
 92
        1
 93
        3
 72
     1
 10
108.0106336535529
 20
-177.4864962663923
 11
108.7482285969449
 21
-178.2244357193328
 72
     1
 10
108.7482285969449
 20
-178.2244357193328
 11
108.7482285969449
 21
-177.4864962663923
 72
     1
 10
108.7482285969449
 20
-177.4864962663923
 11
108.0106336535529
 21
-177.4864962663923
 97
        0
 75
     2
 76
     1
 98
        0
  0
POLYLINE
  5
B7
330
1F
100
AcDbEntity
  8
Ebene 1
370
     0
100
AcDb2dPolyline
 66
     1
 10
0.0
 20
0.0
 30
0.0
  0
VERTEX
  5
B8
330
B7
100
AcDbEntity
  8
Ebene 1
370
     0
100
AcDbVertex
100
AcDb2dVertex
 10
104.8079006356904
 20
-178.2244357193328
 30
0.0
  0
VERTEX
  5
B9
330
B7
100
AcDbEntity
  8
Ebene 1
370
     0
100
AcDbVertex
100
AcDb2dVertex
 10
104.0703056922984
 20
-177.4864962663923
 30
0.0
  0
VERTEX
  5
BA
330
B7
100
AcDbEntity
  8
Ebene 1
370
     0
100
AcDbVertex
100
AcDb2dVertex
 10
104.0703056922984
 20
-178.2244357193328
 30
0.0
  0
VERTEX
  5
BB
330
B7
100
AcDbEntity
  8
Ebene 1
370
     0
100
AcDbVertex
100
AcDb2dVertex
 10
104.8079006356904
 20
-178.2244357193328
 30
0.0
  0
SEQEND
  5
BC
330
B7
100
AcDbEntity
  8
Ebene 1
370
     0
  0
HATCH
  5
BD
330
1F
100
AcDbEntity
  8
Ebene 1
 62
   179
420
  1709851
100
AcDbHatch
 10
0.0
 20
0.0
 30
0.0
210
0.0
220
0.0
230
1.0
  2
SOLID
 70
     1
 71
     0
 91
        1
 92
        1
 93
        3
 72
     1
 10
104.8079006356904
 20
-178.2244357193328
 11
104.0703056922984
 21
-177.4864962663923
 72
     1
 10
104.0703056922984
 20
-177.4864962663923
 11
104.0703056922984
 21
-178.2244357193328
 72
     1
 10
104.0703056922984
 20
-178.2244357193328
 11
104.8079006356904
 21
-178.2244357193328
 97
        0
 75
     2
 76
     1
 98
        0
  0
POLYLINE
  5
BE
330
1F
100
AcDbEntity
  8
Ebene 1
370
     0
100
AcDb2dPolyline
 66
     1
 10
0.0
 20
0.0
 30
0.0
  0
VERTEX
  5
BF
330
BE
100
AcDbEntity
  8
Ebene 1
370
     0
100
AcDbVertex
100
AcDb2dVertex
 10
104.0704779470727
 20
-177.4864962663923
 30
0.0
  0
VERTEX
  5
C0
330
BE
100
AcDbEntity
  8
Ebene 1
370
     0
100
AcDbVertex
100
AcDb2dVertex
 10
104.8080728904647
 20
-178.2244357193328
 30
0.0
  0
VERTEX
  5
C1
330
BE
100
AcDbEntity
  8
Ebene 1
370
     0
100
AcDbVertex
100
AcDb2dVertex
 10
104.8080728904647
 20
-177.4864962663923
 30
0.0
  0
VERTEX
  5
C2
330
BE
100
AcDbEntity
  8
Ebene 1
370
     0
100
AcDbVertex
100
AcDb2dVertex
 10
104.0704779470727
 20
-177.4864962663923
 30
0.0
  0
SEQEND
  5
C3
330
BE
100
AcDbEntity
  8
Ebene 1
370
     0
  0
HATCH
  5
C4
330
1F
100
AcDbEntity
  8
Ebene 1
 62
   179
420
  1709851
100
AcDbHatch
 10
0.0
 20
0.0
 30
0.0
210
0.0
220
0.0
230
1.0
  2
SOLID
 70
     1
 71
     0
 91
        1
 92
        1
 93
        3
 72
     1
 10
104.0704779470727
 20
-177.4864962663923
 11
104.8080728904647
 21
-178.2244357193328
 72
     1
 10
104.8080728904647
 20
-178.2244357193328
 11
104.8080728904647
 21
-177.4864962663923
 72
     1
 10
104.8080728904647
 20
-177.4864962663923
 11
104.0704779470727
 21
-177.4864962663923
 97
        0
 75
     2
 76
     1
 98
        0
  0
POLYLINE
  5
C5
330
1F
100
AcDbEntity
  8
Ebene 1
370
     0
100
AcDb2dPolyline
 66
     1
 10
0.0
 20
0.0
 30
0.0
  0
VERTEX
  5
C6
330
C5
100
AcDbEntity
  8
Ebene 1
370
     0
100
AcDbVertex
100
AcDb2dVertex
 10
104.8079006356904
 20
-175.9727213101735
 30
0.0
  0
VERTEX
  5
C7
330
C5
100
AcDbEntity
  8
Ebene 1
370
     0
100
AcDbVertex
100
AcDb2dVertex
 10
104.0703056922984
 20
-175.4097927078837
 30
0.0
  0
VERTEX
  5
C8
330
C5
100
AcDbEntity
  8
Ebene 1
370
     0
100
AcDbVertex
100
AcDb2dVertex
 10
104.0703056922984
 20
-175.9727213101735
 30
0.0
  0
VERTEX
  5
C9
330
C5
100
AcDbEntity
  8
Ebene 1
370
     0
100
AcDbVertex
100
AcDb2dVertex
 10
104.8079006356904
 20
-175.9727213101735
 30
0.0
  0
SEQEND
  5
CA
330
C5
100
AcDbEntity
  8
Ebene 1
370
     0
  0
HATCH
  5
CB
330
1F
100
AcDbEntity
  8
Ebene 1
 62
   179
420
  1709851
100
AcDbHatch
 10
0.0
 20
0.0
 30
0.0
210
0.0
220
0.0
230
1.0
  2
SOLID
 70
     1
 71
     0
 91
        1
 92
        1
 93
        3
 72
     1
 10
104.8079006356904
 20
-175.9727213101735
 11
104.0703056922984
 21
-175.4097927078837
 72
     1
 10
104.0703056922984
 20
-175.4097927078837
 11
104.0703056922984
 21
-175.9727213101735
 72
     1
 10
104.0703056922984
 20
-175.9727213101735
 11
104.8079006356904
 21
-175.9727213101735
 97
        0
 75
     2
 76
     1
 98
        0
  0
POLYLINE
  5
CC
330
1F
100
AcDbEntity
  8
Ebene 1
370
     0
100
AcDb2dPolyline
 66
     1
 10
0.0
 20
0.0
 30
0.0
  0
VERTEX
  5
CD
330
CC
100
AcDbEntity
  8
Ebene 1
370
     0
100
AcDbVertex
100
AcDb2dVertex
 10
104.0704779470727
 20
-175.4097927078837
 30
0.0
  0
VERTEX
  5
CE
330
CC
100
AcDbEntity
  8
Ebene 1
370
     0
100
AcDbVertex
100
AcDb2dVertex
 10
104.8080728904647
 20
-175.9727213101735
 30
0.0
  0
VERTEX
  5
CF
330
CC
100
AcDbEntity
  8
Ebene 1
370
     0
100
AcDbVertex
100
AcDb2dVertex
 10
104.8080728904647
 20
-175.4097927078837
 30
0.0
  0
VERTEX
  5
D0
330
CC
100
AcDbEntity
  8
Ebene 1
370
     0
100
AcDbVertex
100
AcDb2dVertex
 10
104.0704779470727
 20
-175.4097927078837
 30
0.0
  0
SEQEND
  5
D1
330
CC
100
AcDbEntity
  8
Ebene 1
370
     0
  0
HATCH
  5
D2
330
1F
100
AcDbEntity
  8
Ebene 1
 62
   179
420
  1709851
100
AcDbHatch
 10
0.0
 20
0.0
 30
0.0
210
0.0
220
0.0
230
1.0
  2
SOLID
 70
     1
 71
     0
 91
        1
 92
        1
 93
        3
 72
     1
 10
104.0704779470727
 20
-175.4097927078837
 11
104.8080728904647
 21
-175.9727213101735
 72
     1
 10
104.8080728904647
 20
-175.9727213101735
 11
104.8080728904647
 21
-175.4097927078837
 72
     1
 10
104.8080728904647
 20
-175.4097927078837
 11
104.0704779470727
 21
-175.4097927078837
 97
        0
 75
     2
 76
     1
 98
        0
  0
POLYLINE
  5
D3
330
1F
100
AcDbEntity
  8
Ebene 1
370
     0
100
AcDb2dPolyline
 66
     1
 10
0.0
 20
0.0
 30
0.0
  0
VERTEX
  5
D4
330
D3
100
AcDbEntity
  8
Ebene 1
370
     0
100
AcDbVertex
100
AcDb2dVertex
 10
104.0704779470727
 20
-179.7382106755516
 30
0.0
  0
VERTEX
  5
D5
330
D3
100
AcDbEntity
  8
Ebene 1
370
     0
100
AcDbVertex
100
AcDb2dVertex
 10
104.0704779470727
 20
-174.6918348087576
 30
0.0
  0
VERTEX
  5
D6
330
D3
100
AcDbEntity
  8
Ebene 1
370
     0
100
AcDbVertex
100
AcDb2dVertex
 10
103.6047010374669
 20
-174.6918348087576
 30
0.0
  0
VERTEX
  5
D7
330
D3
100
AcDbEntity
  8
Ebene 1
370
     0
100
AcDbVertex
100
AcDb2dVertex
 10
104.0704779470727
 20
-179.7382106755516
 30
0.0
  0
SEQEND
  5
D8
330
D3
100
AcDbEntity
  8
Ebene 1
370
     0
  0
HATCH
  5
D9
330
1F
100
AcDbEntity
  8
Ebene 1
 62
   179
420
  1709851
100
AcDbHatch
 10
0.0
 20
0.0
 30
0.0
210
0.0
220
0.0
230
1.0
  2
SOLID
 70
     1
 71
     0
 91
        1
 92
        1
 93
        3
 72
     1
 10
104.0704779470727
 20
-179.7382106755516
 11
104.0704779470727
 21
-174.6918348087576
 72
     1
 10
104.0704779470727
 20
-174.6918348087576
 11
103.6047010374669
 21
-174.6918348087576
 72
     1
 10
103.6047010374669
 20
-174.6918348087576
 11
104.0704779470727
 21
-179.7382106755516
 97
        0
 75
     2
 76
     1
 98
        0
  0
SPLINE
  5
DA
330
1F
100
AcDbEntity
  8
Ebene 1
370
     0
100
AcDbSpline
210
0.0
220
0.0
230
1.0
 70
    27
 71
     3
 72
    11
 73
     7
 74
     0
 42
0.0000000001
 43
0.0000000001
 40
0.0
 40
0.0
 40
0.0
 40
0.0
 40
1.0
 40
1.0
 40
1.0
 40
2.0
 40
2.0
 40
2.0
 40
2.0
 10
104.0703056922984
 20
-179.7382106755516
 30
0.0
 10
104.0703056922984
 20
-179.7382106755516
 30
0.0
 10
104.0703056922984
 20
-174.6911457896606
 30
0.0
 10
104.0703056922984
 20
-174.6911457896606
 30
0.0
 10
104.0703056922984
 20
-174.6911457896606
 30
0.0
 10
104.0703056922984
 20
-179.7382106755516
 30
0.0
 10
104.0703056922984
 20
-179.7382106755516
 30
0.0
  0
HATCH
  5
DB
330
1F
100
AcDbEntity
  8
Ebene 1
 62
   179
420
  1709851
100
AcDbHatch
 10
0.0
 20
0.0
 30
0.0
210
0.0
220
0.0
230
1.0
  2
SOLID
 70
     1
 71
     0
 91
        1
 92
        1
 93
        1
 72
     4
 94
        3
 73
     0
 74
     1
 95
       11
 96
        7
 40
0.0
 40
0.0
 40
0.0
 40
0.0
 40
1.0
 40
1.0
 40
1.0
 40
2.0
 40
2.0
 40
2.0
 40
2.0
 10
104.0703056922984
 20
-179.7382106755516
 10
104.0703056922984
 20
-179.7382106755516
 10
104.0703056922984
 20
-174.6911457896606
 10
104.0703056922984
 20
-174.6911457896606
 10
104.0703056922984
 20
-174.6911457896606
 10
104.0703056922984
 20
-179.7382106755516
 10
104.0703056922984
 20
-179.7382106755516
 97
        0
 75
     2
 76
     1
 98
        0
  0
SPLINE
  5
DC
330
1F
100
AcDbEntity
  8
Ebene 1
370
     0
100
AcDbSpline
210
0.0
220
0.0
230
1.0
 70
    27
 71
     3
 72
    11
 73
     7
 74
     0
 42
0.0000000001
 43
0.0000000001
 40
0.0
 40
0.0
 40
0.0
 40
0.0
 40
1.0
 40
1.0
 40
1.0
 40
2.0
 40
2.0
 40
2.0
 40
2.0
 10
104.0703056922984
 20
-178.2244357193328
 30
0.0
 10
104.0703056922984
 20
-178.2244357193328
 30
0.0
 10
104.0703056922984
 20
-174.6918348087576
 30
0.0
 10
104.0703056922984
 20
-174.6918348087576
 30
0.0
 10
104.0703056922984
 20
-174.6918348087576
 30
0.0
 10
104.0703056922984
 20
-178.2244357193328
 30
0.0
 10
104.0703056922984
 20
-178.2244357193328
 30
0.0
  0
HATCH
  5
DD
330
1F
100
AcDbEntity
  8
Ebene 1
 62
   179
420
  1709851
100
AcDbHatch
 10
0.0
 20
0.0
 30
0.0
210
0.0
220
0.0
230
1.0
  2
SOLID
 70
     1
 71
     0
 91
        1
 92
        1
 93
        1
 72
     4
 94
        3
 73
     0
 74
     1
 95
       11
 96
        7
 40
0.0
 40
0.0
 40
0.0
 40
0.0
 40
1.0
 40
1.0
 40
1.0
 40
2.0
 40
2.0
 40
2.0
 40
2.0
 10
104.0703056922984
 20
-178.2244357193328
 10
104.0703056922984
 20
-178.2244357193328
 10
104.0703056922984
 20
-174.6918348087576
 10
104.0703056922984
 20
-174.6918348087576
 10
104.0703056922984
 20
-174.6918348087576
 10
104.0703056922984
 20
-178.2244357193328
 10
104.0703056922984
 20
-178.2244357193328
 97
        0
 75
     2
 76
     1
 98
        0
  0
SPLINE
  5
DE
330
1F
100
AcDbEntity
  8
Ebene 1
370
     0
100
AcDbSpline
210
0.0
220
0.0
230
1.0
 70
    27
 71
     3
 72
    11
 73
     7
 74
     0
 42
0.0000000001
 43
0.0000000001
 40
0.0
 40
0.0
 40
0.0
 40
0.0
 40
1.0
 40
1.0
 40
1.0
 40
2.0
 40
2.0
 40
2.0
 40
2.0
 10
104.0703056922984
 20
-177.4864962663923
 30
0.0
 10
104.0703056922984
 20
-177.4864962663923
 30
0.0
 10
104.0703056922984
 20
-174.6918348087576
 30
0.0
 10
104.0703056922984
 20
-174.6918348087576
 30
0.0
 10
104.0703056922984
 20
-174.6918348087576
 30
0.0
 10
104.0703056922984
 20
-177.4864962663923
 30
0.0
 10
104.0703056922984
 20
-177.4864962663923
 30
0.0
  0
HATCH
  5
DF
330
1F
100
AcDbEntity
  8
Ebene 1
 62
   179
420
  1709851
100
AcDbHatch
 10
0.0
 20
0.0
 30
0.0
210
0.0
220
0.0
230
1.0
  2
SOLID
 70
     1
 71
     0
 91
        1
 92
        1
 93
        1
 72
     4
 94
        3
 73
     0
 74
     1
 95
       11
 96
        7
 40
0.0
 40
0.0
 40
0.0
 40
0.0
 40
1.0
 40
1.0
 40
1.0
 40
2.0
 40
2.0
 40
2.0
 40
2.0
 10
104.0703056922984
 20
-177.4864962663923
 10
104.0703056922984
 20
-177.4864962663923
 10
104.0703056922984
 20
-174.6918348087576
 10
104.0703056922984
 20
-174.6918348087576
 10
104.0703056922984
 20
-174.6918348087576
 10
104.0703056922984
 20
-177.4864962663923
 10
104.0703056922984
 20
-177.4864962663923
 97
        0
 75
     2
 76
     1
 98
        0
  0
SPLINE
  5
E0
330
1F
100
AcDbEntity
  8
Ebene 1
370
     0
100
AcDbSpline
210
0.0
220
0.0
230
1.0
 70
    27
 71
     3
 72
    11
 73
     7
 74
     0
 42
0.0000000001
 43
0.0000000001
 40
0.0
 40
0.0
 40
0.0
 40
0.0
 40
1.0
 40
1.0
 40
1.0
 40
2.0
 40
2.0
 40
2.0
 40
2.0
 10
104.0703056922984
 20
-175.9727213101735
 30
0.0
 10
104.0703056922984
 20
-175.9727213101735
 30
0.0
 10
104.0703056922984
 20
-174.6911457896606
 30
0.0
 10
104.0703056922984
 20
-174.6911457896606
 30
0.0
 10
104.0703056922984
 20
-174.6911457896606
 30
0.0
 10
104.0703056922984
 20
-175.9727213101735
 30
0.0
 10
104.0703056922984
 20
-175.9727213101735
 30
0.0
  0
HATCH
  5
E1
330
1F
100
AcDbEntity
  8
Ebene 1
 62
   179
420
  1709851
100
AcDbHatch
 10
0.0
 20
0.0
 30
0.0
210
0.0
220
0.0
230
1.0
  2
SOLID
 70
     1
 71
     0
 91
        1
 92
        1
 93
        1
 72
     4
 94
        3
 73
     0
 74
     1
 95
       11
 96
        7
 40
0.0
 40
0.0
 40
0.0
 40
0.0
 40
1.0
 40
1.0
 40
1.0
 40
2.0
 40
2.0
 40
2.0
 40
2.0
 10
104.0703056922984
 20
-175.9727213101735
 10
104.0703056922984
 20
-175.9727213101735
 10
104.0703056922984
 20
-174.6911457896606
 10
104.0703056922984
 20
-174.6911457896606
 10
104.0703056922984
 20
-174.6911457896606
 10
104.0703056922984
 20
-175.9727213101735
 10
104.0703056922984
 20
-175.9727213101735
 97
        0
 75
     2
 76
     1
 98
        0
  0
POLYLINE
  5
E2
330
1F
100
AcDbEntity
  8
Ebene 1
 62
   179
420
  1709851
370
    15
100
AcDb2dPolyline
 66
     1
 10
0.0
 20
0.0
 30
0.0
  0
VERTEX
  5
E3
330
E2
100
AcDbEntity
  8
Ebene 1
 62
   179
420
  1709851
370
    15
100
AcDbVertex
100
AcDb2dVertex
 10
104.1092352712817
 20
-176.8463975252328
 30
0.0
  0
VERTEX
  5
E4
330
E2
100
AcDbEntity
  8
Ebene 1
 62
   179
420
  1709851
370
    15
100
AcDbVertex
100
AcDb2dVertex
 10
104.9632744420752
 20
-175.9927028639879
 30
0.0
  0
SEQEND
  5
E5
330
E2
100
AcDbEntity
  8
Ebene 1
370
    15
  0
POLYLINE
  5
E6
330
1F
100
AcDbEntity
  8
Ebene 1
 62
   179
420
  1709851
370
    15
100
AcDb2dPolyline
 66
     1
 10
0.0
 20
0.0
 30
0.0
  0
VERTEX
  5
E7
330
E6
100
AcDbEntity
  8
Ebene 1
 62
   179
420
  1709851
370
    15
100
AcDbVertex
100
AcDb2dVertex
 10
104.8080728904647
 20
-177.4672037316749
 30
0.0
  0
VERTEX
  5
E8
330
E6
100
AcDbEntity
  8
Ebene 1
 62
   179
420
  1709851
370
    15
100
AcDbVertex
100
AcDb2dVertex
 10
106.2636257329827
 20
-175.9927028639879
 30
0.0
  0
SEQEND
  5
E9
330
E6
100
AcDbEntity
  8
Ebene 1
370
    15
  0
POLYLINE
  5
EA
330
1F
100
AcDbEntity
  8
Ebene 1
 62
   179
420
  1709851
370
    15
100
AcDb2dPolyline
 66
     1
 10
0.0
 20
0.0
 30
0.0
  0
VERTEX
  5
EB
330
EA
100
AcDbEntity
  8
Ebene 1
 62
   179
420
  1709851
370
    15
100
AcDbVertex
100
AcDb2dVertex
 10
106.0889593918805
 20
-177.4672037316749
 30
0.0
  0
VERTEX
  5
EC
330
EA
100
AcDbEntity
  8
Ebene 1
 62
   179
420
  1709851
370
    15
100
AcDbVertex
100
AcDb2dVertex
 10
107.5641492786645
 20
-175.9927028639879
 30
0.0
  0
SEQEND
  5
ED
330
EA
100
AcDbEntity
  8
Ebene 1
370
    15
  0
POLYLINE
  5
EE
330
1F
100
AcDbEntity
  8
Ebene 1
 62
   179
420
  1709851
370
    15
100
AcDb2dPolyline
 66
     1
 10
0.0
 20
0.0
 30
0.0
  0
VERTEX
  5
EF
330
EE
100
AcDbEntity
  8
Ebene 1
 62
   179
420
  1709851
370
    15
100
AcDbVertex
100
AcDb2dVertex
 10
107.3891384280138
 20
-177.4672037316749
 30
0.0
  0
VERTEX
  5
F0
330
EE
100
AcDbEntity
  8
Ebene 1
 62
   179
420
  1709851
370
    15
100
AcDbVertex
100
AcDb2dVertex
 10
108.7092990179616
 20
-176.1477321608242
 30
0.0
  0
SEQEND
  5
F1
330
EE
100
AcDbEntity
  8
Ebene 1
370
    15
  0
POLYLINE
  5
F2
330
1F
100
AcDbEntity
  8
Ebene 1
 62
   179
420
  1709851
370
    15
100
AcDb2dPolyline
 66
     1
 10
0.0
 20
0.0
 30
0.0
  0
VERTEX
  5
F3
330
F2
100
AcDbEntity
  8
Ebene 1
 62
   179
420
  1709851
370
    15
100
AcDbVertex
100
AcDb2dVertex
 10
104.1092352712817
 20
-176.2056097649764
 30
0.0
  0
VERTEX
  5
F4
330
F2
100
AcDbEntity
  8
Ebene 1
 62
   179
420
  1709851
370
    15
100
AcDbVertex
100
AcDb2dVertex
 10
104.3226589365929
 20
-175.9927028639879
 30
0.0
  0
SEQEND
  5
F5
330
F2
100
AcDbEntity
  8
Ebene 1
370
    15
  0
POLYLINE
  5
F6
330
1F
100
AcDbEntity
  8
Ebene 1
 62
   179
420
  1709851
370
    15
100
AcDb2dPolyline
 66
     1
 10
0.0
 20
0.0
 30
0.0
  0
VERTEX
  5
F7
330
F6
100
AcDbEntity
  8
Ebene 1
 62
   179
420
  1709851
370
    15
100
AcDbVertex
100
AcDb2dVertex
 10
104.1479925954908
 20
-177.4672037316749
 30
0.0
  0
VERTEX
  5
F8
330
F6
100
AcDbEntity
  8
Ebene 1
 62
   179
420
  1709851
370
    15
100
AcDbVertex
100
AcDb2dVertex
 10
105.6231824822748
 20
-175.9927028639879
 30
0.0
  0
SEQEND
  5
F9
330
F6
100
AcDbEntity
  8
Ebene 1
370
    15
  0
POLYLINE
  5
FA
330
1F
100
AcDbEntity
  8
Ebene 1
 62
   179
420
  1709851
370
    15
100
AcDb2dPolyline
 66
     1
 10
0.0
 20
0.0
 30
0.0
  0
VERTEX
  5
FB
330
FA
100
AcDbEntity
  8
Ebene 1
 62
   179
420
  1709851
370
    15
100
AcDbVertex
100
AcDb2dVertex
 10
105.4483438863983
 20
-177.4672037316749
 30
0.0
  0
VERTEX
  5
FC
330
FA
100
AcDbEntity
  8
Ebene 1
 62
   179
420
  1709851
370
    15
100
AcDbVertex
100
AcDb2dVertex
 10
106.9237060279566
 20
-175.9927028639879
 30
0.0
  0
SEQEND
  5
FD
330
FA
100
AcDbEntity
  8
Ebene 1
370
    15
  0
POLYLINE
  5
FE
330
1F
100
AcDbEntity
  8
Ebene 1
 62
   179
420
  1709851
370
    15
100
AcDb2dPolyline
 66
     1
 10
0.0
 20
0.0
 30
0.0
  0
VERTEX
  5
FF
330
FE
100
AcDbEntity
  8
Ebene 1
 62
   179
420
  1709851
370
    15
100
AcDbVertex
100
AcDb2dVertex
 10
106.7490396868544
 20
-177.4672037316749
 30
0.0
  0
VERTEX
  5
100
330
FE
100
AcDbEntity
  8
Ebene 1
 62
   179
420
  1709851
370
    15
100
AcDbVertex
100
AcDb2dVertex
 10
108.2045925293725
 20
-175.9927028639879
 30
0.0
  0
SEQEND
  5
101
330
FE
100
AcDbEntity
  8
Ebene 1
370
    15
  0
POLYLINE
  5
102
330
1F
100
AcDbEntity
  8
Ebene 1
 62
   179
420
  1709851
370
    15
100
AcDb2dPolyline
 66
     1
 10
0.0
 20
0.0
 30
0.0
  0
VERTEX
  5
103
330
102
100
AcDbEntity
  8
Ebene 1
 62
   179
420
  1709851
370
    15
100
AcDbVertex
100
AcDb2dVertex
 10
108.0492187229877
 20
-177.4672037316749
 30
0.0
  0
VERTEX
  5
104
330
102
100
AcDbEntity
  8
Ebene 1
 62
   179
420
  1709851
370
    15
100
AcDbVertex
100
AcDb2dVertex
 10
108.7092990179616
 20
-176.807123436701
 30
0.0
  0
SEQEND
  5
105
330
102
100
AcDbEntity
  8
Ebene 1
370
    15
  0
POLYLINE
  5
106
330
1F
100
AcDbEntity
  8
Ebene 1
370
     0
100
AcDb2dPolyline
 66
     1
 10
0.0
 20
0.0
 30
0.0
  0
VERTEX
  5
107
330
106
100
AcDbEntity
  8
Ebene 1
370
     0
100
AcDbVertex
100
AcDb2dVertex
 10
165.3280652798485
 20
-175.4097927078837
 30
0.0
  0
VERTEX
  5
108
330
106
100
AcDbEntity
  8
Ebene 1
370
     0
100
AcDbVertex
100
AcDb2dVertex
 10
164.5904703364565
 20
-175.9727213101735
 30
0.0
  0
VERTEX
  5
109
330
106
100
AcDbEntity
  8
Ebene 1
370
     0
100
AcDbVertex
100
AcDb2dVertex
 10
164.5904703364565
 20
-175.4097927078837
 30
0.0
  0
VERTEX
  5
10A
330
106
100
AcDbEntity
  8
Ebene 1
370
     0
100
AcDbVertex
100
AcDb2dVertex
 10
165.3280652798485
 20
-175.4097927078837
 30
0.0
  0
SEQEND
  5
10B
330
106
100
AcDbEntity
  8
Ebene 1
370
     0
  0
HATCH
  5
10C
330
1F
100
AcDbEntity
  8
Ebene 1
 62
   179
420
  1709851
100
AcDbHatch
 10
0.0
 20
0.0
 30
0.0
210
0.0
220
0.0
230
1.0
  2
SOLID
 70
     1
 71
     0
 91
        1
 92
        1
 93
        3
 72
     1
 10
165.3280652798485
 20
-175.4097927078837
 11
164.5904703364565
 21
-175.9727213101735
 72
     1
 10
164.5904703364565
 20
-175.9727213101735
 11
164.5904703364565
 21
-175.4097927078837
 72
     1
 10
164.5904703364565
 20
-175.4097927078837
 11
165.3280652798485
 21
-175.4097927078837
 97
        0
 75
     2
 76
     1
 98
        0
  0
POLYLINE
  5
10D
330
1F
100
AcDbEntity
  8
Ebene 1
370
     0
100
AcDb2dPolyline
 66
     1
 10
0.0
 20
0.0
 30
0.0
  0
VERTEX
  5
10E
330
10D
100
AcDbEntity
  8
Ebene 1
370
     0
100
AcDbVertex
100
AcDb2dVertex
 10
164.5904703364565
 20
-175.9727213101735
 30
0.0
  0
VERTEX
  5
10F
330
10D
100
AcDbEntity
  8
Ebene 1
370
     0
100
AcDbVertex
100
AcDb2dVertex
 10
165.3280652798485
 20
-175.4097927078837
 30
0.0
  0
VERTEX
  5
110
330
10D
100
AcDbEntity
  8
Ebene 1
370
     0
100
AcDbVertex
100
AcDb2dVertex
 10
165.3280652798485
 20
-175.9727213101735
 30
0.0
  0
VERTEX
  5
111
330
10D
100
AcDbEntity
  8
Ebene 1
370
     0
100
AcDbVertex
100
AcDb2dVertex
 10
164.5904703364565
 20
-175.9727213101735
 30
0.0
  0
SEQEND
  5
112
330
10D
100
AcDbEntity
  8
Ebene 1
370
     0
  0
HATCH
  5
113
330
1F
100
AcDbEntity
  8
Ebene 1
 62
   179
420
  1709851
100
AcDbHatch
 10
0.0
 20
0.0
 30
0.0
210
0.0
220
0.0
230
1.0
  2
SOLID
 70
     1
 71
     0
 91
        1
 92
        1
 93
        3
 72
     1
 10
164.5904703364565
 20
-175.9727213101735
 11
165.3280652798485
 21
-175.4097927078837
 72
     1
 10
165.3280652798485
 20
-175.4097927078837
 11
165.3280652798485
 21
-175.9727213101735
 72
     1
 10
165.3280652798485
 20
-175.9727213101735
 11
164.5904703364565
 21
-175.9727213101735
 97
        0
 75
     2
 76
     1
 98
        0
  0
POLYLINE
  5
114
330
1F
100
AcDbEntity
  8
Ebene 1
370
     0
100
AcDb2dPolyline
 66
     1
 10
0.0
 20
0.0
 30
0.0
  0
VERTEX
  5
115
330
114
100
AcDbEntity
  8
Ebene 1
370
     0
100
AcDbVertex
100
AcDb2dVertex
 10
165.3280652798485
 20
-177.4864962663923
 30
0.0
  0
VERTEX
  5
116
330
114
100
AcDbEntity
  8
Ebene 1
370
     0
100
AcDbVertex
100
AcDb2dVertex
 10
164.5904703364565
 20
-178.2244357193328
 30
0.0
  0
VERTEX
  5
117
330
114
100
AcDbEntity
  8
Ebene 1
370
     0
100
AcDbVertex
100
AcDb2dVertex
 10
164.5904703364565
 20
-177.4864962663923
 30
0.0
  0
VERTEX
  5
118
330
114
100
AcDbEntity
  8
Ebene 1
370
     0
100
AcDbVertex
100
AcDb2dVertex
 10
165.3280652798485
 20
-177.4864962663923
 30
0.0
  0
SEQEND
  5
119
330
114
100
AcDbEntity
  8
Ebene 1
370
     0
  0
HATCH
  5
11A
330
1F
100
AcDbEntity
  8
Ebene 1
 62
   179
420
  1709851
100
AcDbHatch
 10
0.0
 20
0.0
 30
0.0
210
0.0
220
0.0
230
1.0
  2
SOLID
 70
     1
 71
     0
 91
        1
 92
        1
 93
        3
 72
     1
 10
165.3280652798485
 20
-177.4864962663923
 11
164.5904703364565
 21
-178.2244357193328
 72
     1
 10
164.5904703364565
 20
-178.2244357193328
 11
164.5904703364565
 21
-177.4864962663923
 72
     1
 10
164.5904703364565
 20
-177.4864962663923
 11
165.3280652798485
 21
-177.4864962663923
 97
        0
 75
     2
 76
     1
 98
        0
  0
POLYLINE
  5
11B
330
1F
100
AcDbEntity
  8
Ebene 1
370
     0
100
AcDb2dPolyline
 66
     1
 10
0.0
 20
0.0
 30
0.0
  0
VERTEX
  5
11C
330
11B
100
AcDbEntity
  8
Ebene 1
370
     0
100
AcDbVertex
100
AcDb2dVertex
 10
164.5904703364565
 20
-178.2244357193328
 30
0.0
  0
VERTEX
  5
11D
330
11B
100
AcDbEntity
  8
Ebene 1
370
     0
100
AcDbVertex
100
AcDb2dVertex
 10
165.3280652798485
 20
-177.4864962663923
 30
0.0
  0
VERTEX
  5
11E
330
11B
100
AcDbEntity
  8
Ebene 1
370
     0
100
AcDbVertex
100
AcDb2dVertex
 10
165.3280652798485
 20
-178.2244357193328
 30
0.0
  0
VERTEX
  5
11F
330
11B
100
AcDbEntity
  8
Ebene 1
370
     0
100
AcDbVertex
100
AcDb2dVertex
 10
164.5904703364565
 20
-178.2244357193328
 30
0.0
  0
SEQEND
  5
120
330
11B
100
AcDbEntity
  8
Ebene 1
370
     0
  0
HATCH
  5
121
330
1F
100
AcDbEntity
  8
Ebene 1
 62
   179
420
  1709851
100
AcDbHatch
 10
0.0
 20
0.0
 30
0.0
210
0.0
220
0.0
230
1.0
  2
SOLID
 70
     1
 71
     0
 91
        1
 92
        1
 93
        3
 72
     1
 10
164.5904703364565
 20
-178.2244357193328
 11
165.3280652798485
 21
-177.4864962663923
 72
     1
 10
165.3280652798485
 20
-177.4864962663923
 11
165.3280652798485
 21
-178.2244357193328
 72
     1
 10
165.3280652798485
 20
-178.2244357193328
 11
164.5904703364565
 21
-178.2244357193328
 97
        0
 75
     2
 76
     1
 98
        0
  0
POLYLINE
  5
122
330
1F
100
AcDbEntity
  8
Ebene 1
370
     0
100
AcDb2dPolyline
 66
     1
 10
0.0
 20
0.0
 30
0.0
  0
VERTEX
  5
123
330
122
100
AcDbEntity
  8
Ebene 1
370
     0
100
AcDbVertex
100
AcDb2dVertex
 10
169.733653386386
 20
-174.6918348087576
 30
0.0
  0
VERTEX
  5
124
330
122
100
AcDbEntity
  8
Ebene 1
370
     0
100
AcDbVertex
100
AcDb2dVertex
 10
169.2682209863288
 20
-175.4097927078837
 30
0.0
  0
VERTEX
  5
125
330
122
100
AcDbEntity
  8
Ebene 1
370
     0
100
AcDbVertex
100
AcDb2dVertex
 10
169.2682209863288
 20
-174.6918348087576
 30
0.0
  0
VERTEX
  5
126
330
122
100
AcDbEntity
  8
Ebene 1
370
     0
100
AcDbVertex
100
AcDb2dVertex
 10
169.733653386386
 20
-174.6918348087576
 30
0.0
  0
SEQEND
  5
127
330
122
100
AcDbEntity
  8
Ebene 1
370
     0
  0
HATCH
  5
128
330
1F
100
AcDbEntity
  8
Ebene 1
 62
   179
420
  1709851
100
AcDbHatch
 10
0.0
 20
0.0
 30
0.0
210
0.0
220
0.0
230
1.0
  2
SOLID
 70
     1
 71
     0
 91
        1
 92
        1
 93
        3
 72
     1
 10
169.733653386386
 20
-174.6918348087576
 11
169.2682209863288
 21
-175.4097927078837
 72
     1
 10
169.2682209863288
 20
-175.4097927078837
 11
169.2682209863288
 21
-174.6918348087576
 72
     1
 10
169.2682209863288
 20
-174.6918348087576
 11
169.733653386386
 21
-174.6918348087576
 97
        0
 75
     2
 76
     1
 98
        0
  0
POLYLINE
  5
129
330
1F
100
AcDbEntity
  8
Ebene 1
370
     0
100
AcDb2dPolyline
 66
     1
 10
0.0
 20
0.0
 30
0.0
  0
VERTEX
  5
12A
330
129
100
AcDbEntity
  8
Ebene 1
370
     0
100
AcDbVertex
100
AcDb2dVertex
 10
169.2682209863288
 20
-175.4097927078837
 30
0.0
  0
VERTEX
  5
12B
330
129
100
AcDbEntity
  8
Ebene 1
370
     0
100
AcDbVertex
100
AcDb2dVertex
 10
169.733653386386
 20
-174.6918348087576
 30
0.0
  0
VERTEX
  5
12C
330
129
100
AcDbEntity
  8
Ebene 1
370
     0
100
AcDbVertex
100
AcDb2dVertex
 10
169.2682209863288
 20
-175.9727213101735
 30
0.0
  0
VERTEX
  5
12D
330
129
100
AcDbEntity
  8
Ebene 1
370
     0
100
AcDbVertex
100
AcDb2dVertex
 10
169.2682209863288
 20
-175.4097927078837
 30
0.0
  0
SEQEND
  5
12E
330
129
100
AcDbEntity
  8
Ebene 1
370
     0
  0
HATCH
  5
12F
330
1F
100
AcDbEntity
  8
Ebene 1
 62
   179
420
  1709851
100
AcDbHatch
 10
0.0
 20
0.0
 30
0.0
210
0.0
220
0.0
230
1.0
  2
SOLID
 70
     1
 71
     0
 91
        1
 92
        1
 93
        3
 72
     1
 10
169.2682209863288
 20
-175.4097927078837
 11
169.733653386386
 21
-174.6918348087576
 72
     1
 10
169.733653386386
 20
-174.6918348087576
 11
169.2682209863288
 21
-175.9727213101735
 72
     1
 10
169.2682209863288
 20
-175.9727213101735
 11
169.2682209863288
 21
-175.4097927078837
 97
        0
 75
     2
 76
     1
 98
        0
  0
POLYLINE
  5
130
330
1F
100
AcDbEntity
  8
Ebene 1
370
     0
100
AcDb2dPolyline
 66
     1
 10
0.0
 20
0.0
 30
0.0
  0
VERTEX
  5
131
330
130
100
AcDbEntity
  8
Ebene 1
370
     0
100
AcDbVertex
100
AcDb2dVertex
 10
169.2682209863288
 20
-175.9727213101735
 30
0.0
  0
VERTEX
  5
132
330
130
100
AcDbEntity
  8
Ebene 1
370
     0
100
AcDbVertex
100
AcDb2dVertex
 10
169.733653386386
 20
-174.6918348087576
 30
0.0
  0
VERTEX
  5
133
330
130
100
AcDbEntity
  8
Ebene 1
370
     0
100
AcDbVertex
100
AcDb2dVertex
 10
169.2682209863288
 20
-177.4864962663923
 30
0.0
  0
VERTEX
  5
134
330
130
100
AcDbEntity
  8
Ebene 1
370
     0
100
AcDbVertex
100
AcDb2dVertex
 10
169.2682209863288
 20
-175.9727213101735
 30
0.0
  0
SEQEND
  5
135
330
130
100
AcDbEntity
  8
Ebene 1
370
     0
  0
HATCH
  5
136
330
1F
100
AcDbEntity
  8
Ebene 1
 62
   179
420
  1709851
100
AcDbHatch
 10
0.0
 20
0.0
 30
0.0
210
0.0
220
0.0
230
1.0
  2
SOLID
 70
     1
 71
     0
 91
        1
 92
        1
 93
        3
 72
     1
 10
169.2682209863288
 20
-175.9727213101735
 11
169.733653386386
 21
-174.6918348087576
 72
     1
 10
169.733653386386
 20
-174.6918348087576
 11
169.2682209863288
 21
-177.4864962663923
 72
     1
 10
169.2682209863288
 20
-177.4864962663923
 11
169.2682209863288
 21
-175.9727213101735
 97
        0
 75
     2
 76
     1
 98
        0
  0
POLYLINE
  5
137
330
1F
100
AcDbEntity
  8
Ebene 1
370
     0
100
AcDb2dPolyline
 66
     1
 10
0.0
 20
0.0
 30
0.0
  0
VERTEX
  5
138
330
137
100
AcDbEntity
  8
Ebene 1
370
     0
100
AcDbVertex
100
AcDb2dVertex
 10
169.2682209863288
 20
-177.4864962663923
 30
0.0
  0
VERTEX
  5
139
330
137
100
AcDbEntity
  8
Ebene 1
370
     0
100
AcDbVertex
100
AcDb2dVertex
 10
169.733653386386
 20
-174.6918348087576
 30
0.0
  0
VERTEX
  5
13A
330
137
100
AcDbEntity
  8
Ebene 1
370
     0
100
AcDbVertex
100
AcDb2dVertex
 10
169.2682209863288
 20
-178.2244357193328
 30
0.0
  0
VERTEX
  5
13B
330
137
100
AcDbEntity
  8
Ebene 1
370
     0
100
AcDbVertex
100
AcDb2dVertex
 10
169.2682209863288
 20
-177.4864962663923
 30
0.0
  0
SEQEND
  5
13C
330
137
100
AcDbEntity
  8
Ebene 1
370
     0
  0
HATCH
  5
13D
330
1F
100
AcDbEntity
  8
Ebene 1
 62
   179
420
  1709851
100
AcDbHatch
 10
0.0
 20
0.0
 30
0.0
210
0.0
220
0.0
230
1.0
  2
SOLID
 70
     1
 71
     0
 91
        1
 92
        1
 93
        3
 72
     1
 10
169.2682209863288
 20
-177.4864962663923
 11
169.733653386386
 21
-174.6918348087576
 72
     1
 10
169.733653386386
 20
-174.6918348087576
 11
169.2682209863288
 21
-178.2244357193328
 72
     1
 10
169.2682209863288
 20
-178.2244357193328
 11
169.2682209863288
 21
-177.4864962663923
 97
        0
 75
     2
 76
     1
 98
        0
  0
POLYLINE
  5
13E
330
1F
100
AcDbEntity
  8
Ebene 1
370
     0
100
AcDb2dPolyline
 66
     1
 10
0.0
 20
0.0
 30
0.0
  0
VERTEX
  5
13F
330
13E
100
AcDbEntity
  8
Ebene 1
370
     0
100
AcDbVertex
100
AcDb2dVertex
 10
169.2682209863288
 20
-178.2244357193328
 30
0.0
  0
VERTEX
  5
140
330
13E
100
AcDbEntity
  8
Ebene 1
370
     0
100
AcDbVertex
100
AcDb2dVertex
 10
169.733653386386
 20
-174.6918348087576
 30
0.0
  0
VERTEX
  5
141
330
13E
100
AcDbEntity
  8
Ebene 1
370
     0
100
AcDbVertex
100
AcDb2dVertex
 10
169.2682209863288
 20
-179.7382106755516
 30
0.0
  0
VERTEX
  5
142
330
13E
100
AcDbEntity
  8
Ebene 1
370
     0
100
AcDbVertex
100
AcDb2dVertex
 10
169.2682209863288
 20
-178.2244357193328
 30
0.0
  0
SEQEND
  5
143
330
13E
100
AcDbEntity
  8
Ebene 1
370
     0
  0
HATCH
  5
144
330
1F
100
AcDbEntity
  8
Ebene 1
 62
   179
420
  1709851
100
AcDbHatch
 10
0.0
 20
0.0
 30
0.0
210
0.0
220
0.0
230
1.0
  2
SOLID
 70
     1
 71
     0
 91
        1
 92
        1
 93
        3
 72
     1
 10
169.2682209863288
 20
-178.2244357193328
 11
169.733653386386
 21
-174.6918348087576
 72
     1
 10
169.733653386386
 20
-174.6918348087576
 11
169.2682209863288
 21
-179.7382106755516
 72
     1
 10
169.2682209863288
 20
-179.7382106755516
 11
169.2682209863288
 21
-178.2244357193328
 97
        0
 75
     2
 76
     1
 98
        0
  0
POLYLINE
  5
145
330
1F
100
AcDbEntity
  8
Ebene 1
370
     0
100
AcDb2dPolyline
 66
     1
 10
0.0
 20
0.0
 30
0.0
  0
VERTEX
  5
146
330
145
100
AcDbEntity
  8
Ebene 1
370
     0
100
AcDbVertex
100
AcDb2dVertex
 10
164.5904703364565
 20
-174.6918348087576
 30
0.0
  0
VERTEX
  5
147
330
145
100
AcDbEntity
  8
Ebene 1
370
     0
100
AcDbVertex
100
AcDb2dVertex
 10
164.1439859615682
 20
-180.2039875851573
 30
0.0
  0
VERTEX
  5
148
330
145
100
AcDbEntity
  8
Ebene 1
370
     0
100
AcDbVertex
100
AcDb2dVertex
 10
164.1439859615682
 20
-174.6918348087576
 30
0.0
  0
VERTEX
  5
149
330
145
100
AcDbEntity
  8
Ebene 1
370
     0
100
AcDbVertex
100
AcDb2dVertex
 10
164.5904703364565
 20
-174.6918348087576
 30
0.0
  0
SEQEND
  5
14A
330
145
100
AcDbEntity
  8
Ebene 1
370
     0
  0
HATCH
  5
14B
330
1F
100
AcDbEntity
  8
Ebene 1
 62
   179
420
  1709851
100
AcDbHatch
 10
0.0
 20
0.0
 30
0.0
210
0.0
220
0.0
230
1.0
  2
SOLID
 70
     1
 71
     0
 91
        1
 92
        1
 93
        3
 72
     1
 10
164.5904703364565
 20
-174.6918348087576
 11
164.1439859615682
 21
-180.2039875851573
 72
     1
 10
164.1439859615682
 20
-180.2039875851573
 11
164.1439859615682
 21
-174.6918348087576
 72
     1
 10
164.1439859615682
 20
-174.6918348087576
 11
164.5904703364565
 21
-174.6918348087576
 97
        0
 75
     2
 76
     1
 98
        0
  0
POLYLINE
  5
14C
330
1F
100
AcDbEntity
  8
Ebene 1
370
     0
100
AcDb2dPolyline
 66
     1
 10
0.0
 20
0.0
 30
0.0
  0
VERTEX
  5
14D
330
14C
100
AcDbEntity
  8
Ebene 1
370
     0
100
AcDbVertex
100
AcDb2dVertex
 10
164.1439859615682
 20
-180.2039875851573
 30
0.0
  0
VERTEX
  5
14E
330
14C
100
AcDbEntity
  8
Ebene 1
370
     0
100
AcDbVertex
100
AcDb2dVertex
 10
164.590125826908
 20
-174.6918348087576
 30
0.0
  0
VERTEX
  5
14F
330
14C
100
AcDbEntity
  8
Ebene 1
370
     0
100
AcDbVertex
100
AcDb2dVertex
 10
164.590125826908
 20
-179.7382106755516
 30
0.0
  0
VERTEX
  5
150
330
14C
100
AcDbEntity
  8
Ebene 1
370
     0
100
AcDbVertex
100
AcDb2dVertex
 10
164.1439859615682
 20
-180.2039875851573
 30
0.0
  0
SEQEND
  5
151
330
14C
100
AcDbEntity
  8
Ebene 1
370
     0
  0
HATCH
  5
152
330
1F
100
AcDbEntity
  8
Ebene 1
 62
   179
420
  1709851
100
AcDbHatch
 10
0.0
 20
0.0
 30
0.0
210
0.0
220
0.0
230
1.0
  2
SOLID
 70
     1
 71
     0
 91
        1
 92
        1
 93
        3
 72
     1
 10
164.1439859615682
 20
-180.2039875851573
 11
164.590125826908
 21
-174.6918348087576
 72
     1
 10
164.590125826908
 20
-174.6918348087576
 11
164.590125826908
 21
-179.7382106755516
 72
     1
 10
164.590125826908
 20
-179.7382106755516
 11
164.1439859615682
 21
-180.2039875851573
 97
        0
 75
     2
 76
     1
 98
        0
  0
POLYLINE
  5
153
330
1F
100
AcDbEntity
  8
Ebene 1
370
     0
100
AcDb2dPolyline
 66
     1
 10
0.0
 20
0.0
 30
0.0
  0
VERTEX
  5
154
330
153
100
AcDbEntity
  8
Ebene 1
370
     0
100
AcDbVertex
100
AcDb2dVertex
 10
164.1439859615682
 20
-180.2039875851573
 30
0.0
  0
VERTEX
  5
155
330
153
100
AcDbEntity
  8
Ebene 1
370
     0
100
AcDbVertex
100
AcDb2dVertex
 10
164.590125826908
 20
-179.7382106755516
 30
0.0
  0
VERTEX
  5
156
330
153
100
AcDbEntity
  8
Ebene 1
370
     0
100
AcDbVertex
100
AcDb2dVertex
 10
169.733653386386
 20
-180.2039875851573
 30
0.0
  0
VERTEX
  5
157
330
153
100
AcDbEntity
  8
Ebene 1
370
     0
100
AcDbVertex
100
AcDb2dVertex
 10
164.1439859615682
 20
-180.2039875851573
 30
0.0
  0
SEQEND
  5
158
330
153
100
AcDbEntity
  8
Ebene 1
370
     0
  0
HATCH
  5
159
330
1F
100
AcDbEntity
  8
Ebene 1
 62
   179
420
  1709851
100
AcDbHatch
 10
0.0
 20
0.0
 30
0.0
210
0.0
220
0.0
230
1.0
  2
SOLID
 70
     1
 71
     0
 91
        1
 92
        1
 93
        3
 72
     1
 10
164.1439859615682
 20
-180.2039875851573
 11
164.590125826908
 21
-179.7382106755516
 72
     1
 10
164.590125826908
 20
-179.7382106755516
 11
169.733653386386
 21
-180.2039875851573
 72
     1
 10
169.733653386386
 20
-180.2039875851573
 11
164.1439859615682
 21
-180.2039875851573
 97
        0
 75
     2
 76
     1
 98
        0
  0
SPLINE
  5
15A
330
1F
100
AcDbEntity
  8
Ebene 1
370
     0
100
AcDbSpline
210
0.0
220
0.0
230
1.0
 70
    27
 71
     3
 72
    11
 73
     7
 74
     0
 42
0.0000000001
 43
0.0000000001
 40
0.0
 40
0.0
 40
0.0
 40
0.0
 40
1.0
 40
1.0
 40
1.0
 40
2.0
 40
2.0
 40
2.0
 40
2.0
 10
164.5904703364565
 20
-179.7382106755516
 30
0.0
 10
164.5904703364565
 20
-179.7382106755516
 30
0.0
 10
164.5904703364565
 20
-174.6911457896606
 30
0.0
 10
164.5904703364565
 20
-174.6911457896606
 30
0.0
 10
164.5904703364565
 20
-174.6911457896606
 30
0.0
 10
164.5904703364565
 20
-179.7382106755516
 30
0.0
 10
164.5904703364565
 20
-179.7382106755516
 30
0.0
  0
HATCH
  5
15B
330
1F
100
AcDbEntity
  8
Ebene 1
 62
   179
420
  1709851
100
AcDbHatch
 10
0.0
 20
0.0
 30
0.0
210
0.0
220
0.0
230
1.0
  2
SOLID
 70
     1
 71
     0
 91
        1
 92
        1
 93
        1
 72
     4
 94
        3
 73
     0
 74
     1
 95
       11
 96
        7
 40
0.0
 40
0.0
 40
0.0
 40
0.0
 40
1.0
 40
1.0
 40
1.0
 40
2.0
 40
2.0
 40
2.0
 40
2.0
 10
164.5904703364565
 20
-179.7382106755516
 10
164.5904703364565
 20
-179.7382106755516
 10
164.5904703364565
 20
-174.6911457896606
 10
164.5904703364565
 20
-174.6911457896606
 10
164.5904703364565
 20
-174.6911457896606
 10
164.5904703364565
 20
-179.7382106755516
 10
164.5904703364565
 20
-179.7382106755516
 97
        0
 75
     2
 76
     1
 98
        0
  0
SPLINE
  5
15C
330
1F
100
AcDbEntity
  8
Ebene 1
370
     0
100
AcDbSpline
210
0.0
220
0.0
230
1.0
 70
    27
 71
     3
 72
    11
 73
     7
 74
     0
 42
0.0000000001
 43
0.0000000001
 40
0.0
 40
0.0
 40
0.0
 40
0.0
 40
1.0
 40
1.0
 40
1.0
 40
2.0
 40
2.0
 40
2.0
 40
2.0
 10
164.5904703364565
 20
-179.7382106755516
 30
0.0
 10
164.5904703364565
 20
-179.7382106755516
 30
0.0
 10
164.5904703364565
 20
-175.4097927078837
 30
0.0
 10
164.5904703364565
 20
-175.4097927078837
 30
0.0
 10
164.5904703364565
 20
-175.4097927078837
 30
0.0
 10
164.5904703364565
 20
-179.7382106755516
 30
0.0
 10
164.5904703364565
 20
-179.7382106755516
 30
0.0
  0
HATCH
  5
15D
330
1F
100
AcDbEntity
  8
Ebene 1
 62
   179
420
  1709851
100
AcDbHatch
 10
0.0
 20
0.0
 30
0.0
210
0.0
220
0.0
230
1.0
  2
SOLID
 70
     1
 71
     0
 91
        1
 92
        1
 93
        1
 72
     4
 94
        3
 73
     0
 74
     1
 95
       11
 96
        7
 40
0.0
 40
0.0
 40
0.0
 40
0.0
 40
1.0
 40
1.0
 40
1.0
 40
2.0
 40
2.0
 40
2.0
 40
2.0
 10
164.5904703364565
 20
-179.7382106755516
 10
164.5904703364565
 20
-179.7382106755516
 10
164.5904703364565
 20
-175.4097927078837
 10
164.5904703364565
 20
-175.4097927078837
 10
164.5904703364565
 20
-175.4097927078837
 10
164.5904703364565
 20
-179.7382106755516
 10
164.5904703364565
 20
-179.7382106755516
 97
        0
 75
     2
 76
     1
 98
        0
  0
SPLINE
  5
15E
330
1F
100
AcDbEntity
  8
Ebene 1
370
     0
100
AcDbSpline
210
0.0
220
0.0
230
1.0
 70
    27
 71
     3
 72
    11
 73
     7
 74
     0
 42
0.0000000001
 43
0.0000000001
 40
0.0
 40
0.0
 40
0.0
 40
0.0
 40
1.0
 40
1.0
 40
1.0
 40
2.0
 40
2.0
 40
2.0
 40
2.0
 10
164.5904703364565
 20
-179.7382106755516
 30
0.0
 10
164.5904703364565
 20
-179.7382106755516
 30
0.0
 10
164.5904703364565
 20
-175.9727213101735
 30
0.0
 10
164.5904703364565
 20
-175.9727213101735
 30
0.0
 10
164.5904703364565
 20
-175.9727213101735
 30
0.0
 10
164.5904703364565
 20
-179.7382106755516
 30
0.0
 10
164.5904703364565
 20
-179.7382106755516
 30
0.0
  0
HATCH
  5
15F
330
1F
100
AcDbEntity
  8
Ebene 1
 62
   179
420
  1709851
100
AcDbHatch
 10
0.0
 20
0.0
 30
0.0
210
0.0
220
0.0
230
1.0
  2
SOLID
 70
     1
 71
     0
 91
        1
 92
        1
 93
        1
 72
     4
 94
        3
 73
     0
 74
     1
 95
       11
 96
        7
 40
0.0
 40
0.0
 40
0.0
 40
0.0
 40
1.0
 40
1.0
 40
1.0
 40
2.0
 40
2.0
 40
2.0
 40
2.0
 10
164.5904703364565
 20
-179.7382106755516
 10
164.5904703364565
 20
-179.7382106755516
 10
164.5904703364565
 20
-175.9727213101735
 10
164.5904703364565
 20
-175.9727213101735
 10
164.5904703364565
 20
-175.9727213101735
 10
164.5904703364565
 20
-179.7382106755516
 10
164.5904703364565
 20
-179.7382106755516
 97
        0
 75
     2
 76
     1
 98
        0
  0
SPLINE
  5
160
330
1F
100
AcDbEntity
  8
Ebene 1
370
     0
100
AcDbSpline
210
0.0
220
0.0
230
1.0
 70
    27
 71
     3
 72
    11
 73
     7
 74
     0
 42
0.0000000001
 43
0.0000000001
 40
0.0
 40
0.0
 40
0.0
 40
0.0
 40
1.0
 40
1.0
 40
1.0
 40
2.0
 40
2.0
 40
2.0
 40
2.0
 10
164.5904703364565
 20
-179.7382106755516
 30
0.0
 10
164.5904703364565
 20
-179.7382106755516
 30
0.0
 10
164.5904703364565
 20
-177.4864962663923
 30
0.0
 10
164.5904703364565
 20
-177.4864962663923
 30
0.0
 10
164.5904703364565
 20
-177.4864962663923
 30
0.0
 10
164.5904703364565
 20
-179.7382106755516
 30
0.0
 10
164.5904703364565
 20
-179.7382106755516
 30
0.0
  0
HATCH
  5
161
330
1F
100
AcDbEntity
  8
Ebene 1
 62
   179
420
  1709851
100
AcDbHatch
 10
0.0
 20
0.0
 30
0.0
210
0.0
220
0.0
230
1.0
  2
SOLID
 70
     1
 71
     0
 91
        1
 92
        1
 93
        1
 72
     4
 94
        3
 73
     0
 74
     1
 95
       11
 96
        7
 40
0.0
 40
0.0
 40
0.0
 40
0.0
 40
1.0
 40
1.0
 40
1.0
 40
2.0
 40
2.0
 40
2.0
 40
2.0
 10
164.5904703364565
 20
-179.7382106755516
 10
164.5904703364565
 20
-179.7382106755516
 10
164.5904703364565
 20
-177.4864962663923
 10
164.5904703364565
 20
-177.4864962663923
 10
164.5904703364565
 20
-177.4864962663923
 10
164.5904703364565
 20
-179.7382106755516
 10
164.5904703364565
 20
-179.7382106755516
 97
        0
 75
     2
 76
     1
 98
        0
  0
POLYLINE
  5
162
330
1F
100
AcDbEntity
  8
Ebene 1
370
     0
100
AcDb2dPolyline
 66
     1
 10
0.0
 20
0.0
 30
0.0
  0
VERTEX
  5
163
330
162
100
AcDbEntity
  8
Ebene 1
370
     0
100
AcDbVertex
100
AcDb2dVertex
 10
169.733653386386
 20
-180.2039875851573
 30
0.0
  0
VERTEX
  5
164
330
162
100
AcDbEntity
  8
Ebene 1
370
     0
100
AcDbVertex
100
AcDb2dVertex
 10
164.590125826908
 20
-179.7382106755516
 30
0.0
  0
VERTEX
  5
165
330
162
100
AcDbEntity
  8
Ebene 1
370
     0
100
AcDbVertex
100
AcDb2dVertex
 10
169.2682209863288
 20
-179.7382106755516
 30
0.0
  0
VERTEX
  5
166
330
162
100
AcDbEntity
  8
Ebene 1
370
     0
100
AcDbVertex
100
AcDb2dVertex
 10
169.733653386386
 20
-180.2039875851573
 30
0.0
  0
SEQEND
  5
167
330
162
100
AcDbEntity
  8
Ebene 1
370
     0
  0
HATCH
  5
168
330
1F
100
AcDbEntity
  8
Ebene 1
 62
   179
420
  1709851
100
AcDbHatch
 10
0.0
 20
0.0
 30
0.0
210
0.0
220
0.0
230
1.0
  2
SOLID
 70
     1
 71
     0
 91
        1
 92
        1
 93
        3
 72
     1
 10
169.733653386386
 20
-180.2039875851573
 11
164.590125826908
 21
-179.7382106755516
 72
     1
 10
164.590125826908
 20
-179.7382106755516
 11
169.2682209863288
 21
-179.7382106755516
 72
     1
 10
169.2682209863288
 20
-179.7382106755516
 11
169.733653386386
 21
-180.2039875851573
 97
        0
 75
     2
 76
     1
 98
        0
  0
POLYLINE
  5
169
330
1F
100
AcDbEntity
  8
Ebene 1
370
     0
100
AcDb2dPolyline
 66
     1
 10
0.0
 20
0.0
 30
0.0
  0
VERTEX
  5
16A
330
169
100
AcDbEntity
  8
Ebene 1
370
     0
100
AcDbVertex
100
AcDb2dVertex
 10
169.733653386386
 20
-180.2039875851573
 30
0.0
  0
VERTEX
  5
16B
330
169
100
AcDbEntity
  8
Ebene 1
370
     0
100
AcDbVertex
100
AcDb2dVertex
 10
169.2682209863288
 20
-179.7382106755516
 30
0.0
  0
VERTEX
  5
16C
330
169
100
AcDbEntity
  8
Ebene 1
370
     0
100
AcDbVertex
100
AcDb2dVertex
 10
169.733653386386
 20
-174.6918348087576
 30
0.0
  0
VERTEX
  5
16D
330
169
100
AcDbEntity
  8
Ebene 1
370
     0
100
AcDbVertex
100
AcDb2dVertex
 10
169.733653386386
 20
-180.2039875851573
 30
0.0
  0
SEQEND
  5
16E
330
169
100
AcDbEntity
  8
Ebene 1
370
     0
  0
HATCH
  5
16F
330
1F
100
AcDbEntity
  8
Ebene 1
 62
   179
420
  1709851
100
AcDbHatch
 10
0.0
 20
0.0
 30
0.0
210
0.0
220
0.0
230
1.0
  2
SOLID
 70
     1
 71
     0
 91
        1
 92
        1
 93
        3
 72
     1
 10
169.733653386386
 20
-180.2039875851573
 11
169.2682209863288
 21
-179.7382106755516
 72
     1
 10
169.2682209863288
 20
-179.7382106755516
 11
169.733653386386
 21
-174.6918348087576
 72
     1
 10
169.733653386386
 20
-174.6918348087576
 11
169.733653386386
 21
-180.2039875851573
 97
        0
 75
     2
 76
     1
 98
        0
  0
POLYLINE
  5
170
330
1F
100
AcDbEntity
  8
Ebene 1
370
     0
100
AcDb2dPolyline
 66
     1
 10
0.0
 20
0.0
 30
0.0
  0
VERTEX
  5
171
330
170
100
AcDbEntity
  8
Ebene 1
370
     0
100
AcDbVertex
100
AcDb2dVertex
 10
169.2682209863288
 20
-177.4864962663923
 30
0.0
  0
VERTEX
  5
172
330
170
100
AcDbEntity
  8
Ebene 1
370
     0
100
AcDbVertex
100
AcDb2dVertex
 10
168.5302815333883
 20
-178.2244357193328
 30
0.0
  0
VERTEX
  5
173
330
170
100
AcDbEntity
  8
Ebene 1
370
     0
100
AcDbVertex
100
AcDb2dVertex
 10
168.5302815333883
 20
-177.4864962663923
 30
0.0
  0
VERTEX
  5
174
330
170
100
AcDbEntity
  8
Ebene 1
370
     0
100
AcDbVertex
100
AcDb2dVertex
 10
169.2682209863288
 20
-177.4864962663923
 30
0.0
  0
SEQEND
  5
175
330
170
100
AcDbEntity
  8
Ebene 1
370
     0
  0
HATCH
  5
176
330
1F
100
AcDbEntity
  8
Ebene 1
 62
   179
420
  1709851
100
AcDbHatch
 10
0.0
 20
0.0
 30
0.0
210
0.0
220
0.0
230
1.0
  2
SOLID
 70
     1
 71
     0
 91
        1
 92
        1
 93
        3
 72
     1
 10
169.2682209863288
 20
-177.4864962663923
 11
168.5302815333883
 21
-178.2244357193328
 72
     1
 10
168.5302815333883
 20
-178.2244357193328
 11
168.5302815333883
 21
-177.4864962663923
 72
     1
 10
168.5302815333883
 20
-177.4864962663923
 11
169.2682209863288
 21
-177.4864962663923
 97
        0
 75
     2
 76
     1
 98
        0
  0
POLYLINE
  5
177
330
1F
100
AcDbEntity
  8
Ebene 1
370
     0
100
AcDb2dPolyline
 66
     1
 10
0.0
 20
0.0
 30
0.0
  0
VERTEX
  5
178
330
177
100
AcDbEntity
  8
Ebene 1
370
     0
100
AcDbVertex
100
AcDb2dVertex
 10
168.5302815333883
 20
-178.2244357193328
 30
0.0
  0
VERTEX
  5
179
330
177
100
AcDbEntity
  8
Ebene 1
370
     0
100
AcDbVertex
100
AcDb2dVertex
 10
169.2682209863288
 20
-177.4864962663923
 30
0.0
  0
VERTEX
  5
17A
330
177
100
AcDbEntity
  8
Ebene 1
370
     0
100
AcDbVertex
100
AcDb2dVertex
 10
169.2682209863288
 20
-178.2244357193328
 30
0.0
  0
VERTEX
  5
17B
330
177
100
AcDbEntity
  8
Ebene 1
370
     0
100
AcDbVertex
100
AcDb2dVertex
 10
168.5302815333883
 20
-178.2244357193328
 30
0.0
  0
SEQEND
  5
17C
330
177
100
AcDbEntity
  8
Ebene 1
370
     0
  0
HATCH
  5
17D
330
1F
100
AcDbEntity
  8
Ebene 1
 62
   179
420
  1709851
100
AcDbHatch
 10
0.0
 20
0.0
 30
0.0
210
0.0
220
0.0
230
1.0
  2
SOLID
 70
     1
 71
     0
 91
        1
 92
        1
 93
        3
 72
     1
 10
168.5302815333883
 20
-178.2244357193328
 11
169.2682209863288
 21
-177.4864962663923
 72
     1
 10
169.2682209863288
 20
-177.4864962663923
 11
169.2682209863288
 21
-178.2244357193328
 72
     1
 10
169.2682209863288
 20
-178.2244357193328
 11
168.5302815333883
 21
-178.2244357193328
 97
        0
 75
     2
 76
     1
 98
        0
  0
POLYLINE
  5
17E
330
1F
100
AcDbEntity
  8
Ebene 1
370
     0
100
AcDb2dPolyline
 66
     1
 10
0.0
 20
0.0
 30
0.0
  0
VERTEX
  5
17F
330
17E
100
AcDbEntity
  8
Ebene 1
370
     0
100
AcDbVertex
100
AcDb2dVertex
 10
169.2682209863288
 20
-175.4097927078837
 30
0.0
  0
VERTEX
  5
180
330
17E
100
AcDbEntity
  8
Ebene 1
370
     0
100
AcDbVertex
100
AcDb2dVertex
 10
168.5302815333883
 20
-175.9727213101735
 30
0.0
  0
VERTEX
  5
181
330
17E
100
AcDbEntity
  8
Ebene 1
370
     0
100
AcDbVertex
100
AcDb2dVertex
 10
168.5302815333883
 20
-175.4097927078837
 30
0.0
  0
VERTEX
  5
182
330
17E
100
AcDbEntity
  8
Ebene 1
370
     0
100
AcDbVertex
100
AcDb2dVertex
 10
169.2682209863288
 20
-175.4097927078837
 30
0.0
  0
SEQEND
  5
183
330
17E
100
AcDbEntity
  8
Ebene 1
370
     0
  0
HATCH
  5
184
330
1F
100
AcDbEntity
  8
Ebene 1
 62
   179
420
  1709851
100
AcDbHatch
 10
0.0
 20
0.0
 30
0.0
210
0.0
220
0.0
230
1.0
  2
SOLID
 70
     1
 71
     0
 91
        1
 92
        1
 93
        3
 72
     1
 10
169.2682209863288
 20
-175.4097927078837
 11
168.5302815333883
 21
-175.9727213101735
 72
     1
 10
168.5302815333883
 20
-175.9727213101735
 11
168.5302815333883
 21
-175.4097927078837
 72
     1
 10
168.5302815333883
 20
-175.4097927078837
 11
169.2682209863288
 21
-175.4097927078837
 97
        0
 75
     2
 76
     1
 98
        0
  0
POLYLINE
  5
185
330
1F
100
AcDbEntity
  8
Ebene 1
370
     0
100
AcDb2dPolyline
 66
     1
 10
0.0
 20
0.0
 30
0.0
  0
VERTEX
  5
186
330
185
100
AcDbEntity
  8
Ebene 1
370
     0
100
AcDbVertex
100
AcDb2dVertex
 10
168.5302815333883
 20
-175.9727213101735
 30
0.0
  0
VERTEX
  5
187
330
185
100
AcDbEntity
  8
Ebene 1
370
     0
100
AcDbVertex
100
AcDb2dVertex
 10
169.2682209863288
 20
-175.4097927078837
 30
0.0
  0
VERTEX
  5
188
330
185
100
AcDbEntity
  8
Ebene 1
370
     0
100
AcDbVertex
100
AcDb2dVertex
 10
169.2682209863288
 20
-175.9727213101735
 30
0.0
  0
VERTEX
  5
189
330
185
100
AcDbEntity
  8
Ebene 1
370
     0
100
AcDbVertex
100
AcDb2dVertex
 10
168.5302815333883
 20
-175.9727213101735
 30
0.0
  0
SEQEND
  5
18A
330
185
100
AcDbEntity
  8
Ebene 1
370
     0
  0
HATCH
  5
18B
330
1F
100
AcDbEntity
  8
Ebene 1
 62
   179
420
  1709851
100
AcDbHatch
 10
0.0
 20
0.0
 30
0.0
210
0.0
220
0.0
230
1.0
  2
SOLID
 70
     1
 71
     0
 91
        1
 92
        1
 93
        3
 72
     1
 10
168.5302815333883
 20
-175.9727213101735
 11
169.2682209863288
 21
-175.4097927078837
 72
     1
 10
169.2682209863288
 20
-175.4097927078837
 11
169.2682209863288
 21
-175.9727213101735
 72
     1
 10
169.2682209863288
 20
-175.9727213101735
 11
168.5302815333883
 21
-175.9727213101735
 97
        0
 75
     2
 76
     1
 98
        0
  0
POLYLINE
  5
18C
330
1F
100
AcDbEntity
  8
Ebene 1
 62
   179
420
  1709851
370
    15
100
AcDb2dPolyline
 66
     1
 10
0.0
 20
0.0
 30
0.0
  0
VERTEX
  5
18D
330
18C
100
AcDbEntity
  8
Ebene 1
 62
   179
420
  1709851
370
    15
100
AcDbVertex
100
AcDb2dVertex
 10
164.6483479406087
 20
-177.2735893654038
 30
0.0
  0
VERTEX
  5
18E
330
18C
100
AcDbEntity
  8
Ebene 1
 62
   179
420
  1709851
370
    15
100
AcDbVertex
100
AcDb2dVertex
 10
165.9102864168558
 20
-175.9927028639879
 30
0.0
  0
SEQEND
  5
18F
330
18C
100
AcDbEntity
  8
Ebene 1
370
    15
  0
POLYLINE
  5
190
330
1F
100
AcDbEntity
  8
Ebene 1
 62
   179
420
  1709851
370
    15
100
AcDb2dPolyline
 66
     1
 10
0.0
 20
0.0
 30
0.0
  0
VERTEX
  5
191
330
190
100
AcDbEntity
  8
Ebene 1
 62
   179
420
  1709851
370
    15
100
AcDbVertex
100
AcDb2dVertex
 10
165.7545681009225
 20
-177.4672037316749
 30
0.0
  0
VERTEX
  5
192
330
190
100
AcDbEntity
  8
Ebene 1
 62
   179
420
  1709851
370
    15
100
AcDbVertex
100
AcDb2dVertex
 10
167.2104654529891
 20
-175.9927028639879
 30
0.0
  0
SEQEND
  5
193
330
190
100
AcDbEntity
  8
Ebene 1
370
    15
  0
POLYLINE
  5
194
330
1F
100
AcDbEntity
  8
Ebene 1
 62
   179
420
  1709851
370
    15
100
AcDb2dPolyline
 66
     1
 10
0.0
 20
0.0
 30
0.0
  0
VERTEX
  5
195
330
194
100
AcDbEntity
  8
Ebene 1
 62
   179
420
  1709851
370
    15
100
AcDbVertex
100
AcDb2dVertex
 10
167.0361436214354
 20
-177.4672037316749
 30
0.0
  0
VERTEX
  5
196
330
194
100
AcDbEntity
  8
Ebene 1
 62
   179
420
  1709851
370
    15
100
AcDbVertex
100
AcDb2dVertex
 10
168.5113335082194
 20
-175.9927028639879
 30
0.0
  0
SEQEND
  5
197
330
194
100
AcDbEntity
  8
Ebene 1
370
    15
  0
POLYLINE
  5
198
330
1F
100
AcDbEntity
  8
Ebene 1
 62
   179
420
  1709851
370
    15
100
AcDb2dPolyline
 66
     1
 10
0.0
 20
0.0
 30
0.0
  0
VERTEX
  5
199
330
198
100
AcDbEntity
  8
Ebene 1
 62
   179
420
  1709851
370
    15
100
AcDbVertex
100
AcDb2dVertex
 10
168.3363226575687
 20
-177.4672037316749
 30
0.0
  0
VERTEX
  5
19A
330
198
100
AcDbEntity
  8
Ebene 1
 62
   179
420
  1709851
370
    15
100
AcDbVertex
100
AcDb2dVertex
 10
169.2292914073455
 20
-176.5742349818981
 30
0.0
  0
SEQEND
  5
19B
330
198
100
AcDbEntity
  8
Ebene 1
370
    15
  0
POLYLINE
  5
19C
330
1F
100
AcDbEntity
  8
Ebene 1
 62
   179
420
  1709851
370
    15
100
AcDb2dPolyline
 66
     1
 10
0.0
 20
0.0
 30
0.0
  0
VERTEX
  5
19D
330
19C
100
AcDbEntity
  8
Ebene 1
 62
   179
420
  1709851
370
    15
100
AcDbVertex
100
AcDb2dVertex
 10
164.6483479406087
 20
-176.61350907043
 30
0.0
  0
VERTEX
  5
19E
330
19C
100
AcDbEntity
  8
Ebene 1
 62
   179
420
  1709851
370
    15
100
AcDbVertex
100
AcDb2dVertex
 10
165.2694986565993
 20
-175.9927028639879
 30
0.0
  0
SEQEND
  5
19F
330
19C
100
AcDbEntity
  8
Ebene 1
370
    15
  0
POLYLINE
  5
1A0
330
1F
100
AcDbEntity
  8
Ebene 1
 62
   179
420
  1709851
370
    15
100
AcDb2dPolyline
 66
     1
 10
0.0
 20
0.0
 30
0.0
  0
VERTEX
  5
1A1
330
1A0
100
AcDbEntity
  8
Ebene 1
 62
   179
420
  1709851
370
    15
100
AcDbVertex
100
AcDb2dVertex
 10
165.0944878059486
 20
-177.4672037316749
 30
0.0
  0
VERTEX
  5
1A2
330
1A0
100
AcDbEntity
  8
Ebene 1
 62
   179
420
  1709851
370
    15
100
AcDbVertex
100
AcDb2dVertex
 10
166.5700222022811
 20
-175.9927028639879
 30
0.0
  0
SEQEND
  5
1A3
330
1A0
100
AcDbEntity
  8
Ebene 1
370
    15
  0
POLYLINE
  5
1A4
330
1F
100
AcDbEntity
  8
Ebene 1
 62
   179
420
  1709851
370
    15
100
AcDb2dPolyline
 66
     1
 10
0.0
 20
0.0
 30
0.0
  0
VERTEX
  5
1A5
330
1A4
100
AcDbEntity
  8
Ebene 1
 62
   179
420
  1709851
370
    15
100
AcDbVertex
100
AcDb2dVertex
 10
166.395355861179
 20
-177.4672037316749
 30
0.0
  0
VERTEX
  5
1A6
330
1A4
100
AcDbEntity
  8
Ebene 1
 62
   179
420
  1709851
370
    15
100
AcDbVertex
100
AcDb2dVertex
 10
167.8702012384144
 20
-175.9927028639879
 30
0.0
  0
SEQEND
  5
1A7
330
1A4
100
AcDbEntity
  8
Ebene 1
370
    15
  0
POLYLINE
  5
1A8
330
1F
100
AcDbEntity
  8
Ebene 1
 62
   179
420
  1709851
370
    15
100
AcDb2dPolyline
 66
     1
 10
0.0
 20
0.0
 30
0.0
  0
VERTEX
  5
1A9
330
1A8
100
AcDbEntity
  8
Ebene 1
 62
   179
420
  1709851
370
    15
100
AcDbVertex
100
AcDb2dVertex
 10
167.6955348973122
 20
-177.4672037316749
 30
0.0
  0
VERTEX
  5
1AA
330
1A8
100
AcDbEntity
  8
Ebene 1
 62
   179
420
  1709851
370
    15
100
AcDbVertex
100
AcDb2dVertex
 10
169.1514322493788
 20
-175.9927028639879
 30
0.0
  0
SEQEND
  5
1AB
330
1A8
100
AcDbEntity
  8
Ebene 1
370
    15
  0
POLYLINE
  5
1AC
330
1F
100
AcDbEntity
  8
Ebene 1
 62
   179
420
  1709851
370
    15
100
AcDb2dPolyline
 66
     1
 10
0.0
 20
0.0
 30
0.0
  0
VERTEX
  5
1AD
330
1AC
100
AcDbEntity
  8
Ebene 1
 62
   179
420
  1709851
370
    15
100
AcDbVertex
100
AcDb2dVertex
 10
168.9964029525426
 20
-177.4672037316749
 30
0.0
  0
VERTEX
  5
1AE
330
1AC
100
AcDbEntity
  8
Ebene 1
 62
   179
420
  1709851
370
    15
100
AcDbVertex
100
AcDb2dVertex
 10
169.2292914073455
 20
-177.2150227421546
 30
0.0
  0
SEQEND
  5
1AF
330
1AC
100
AcDbEntity
  8
Ebene 1
370
    15
  0
POLYLINE
  5
1B0
330
1F
100
AcDbEntity
  8
Ebene 1
370
     0
100
AcDb2dPolyline
 66
     1
 10
0.0
 20
0.0
 30
0.0
  0
VERTEX
  5
1B1
330
1B0
100
AcDbEntity
  8
Ebene 1
370
     0
100
AcDbVertex
100
AcDb2dVertex
 10
135.9414007906674
 20
-184.2416394938702
 30
0.0
  0
VERTEX
  5
1B2
330
1B0
100
AcDbEntity
  8
Ebene 1
370
     0
100
AcDbVertex
100
AcDb2dVertex
 10
36.34954697441956
 20
-182.7664496070862
 30
0.0
  0
VERTEX
  5
1B3
330
1B0
100
AcDbEntity
  8
Ebene 1
370
     0
100
AcDbVertex
100
AcDb2dVertex
 10
36.34954697441956
 20
-184.2416394938702
 30
0.0
  0
VERTEX
  5
1B4
330
1B0
100
AcDbEntity
  8
Ebene 1
370
     0
100
AcDbVertex
100
AcDb2dVertex
 10
135.9414007906674
 20
-184.2416394938702
 30
0.0
  0
SEQEND
  5
1B5
330
1B0
100
AcDbEntity
  8
Ebene 1
370
     0
  0
HATCH
  5
1B6
330
1F
100
AcDbEntity
  8
Ebene 1
 62
   254
420
 14803683
100
AcDbHatch
 10
0.0
 20
0.0
 30
0.0
210
0.0
220
0.0
230
1.0
  2
SOLID
 70
     1
 71
     0
 91
        1
 92
        1
 93
        3
 72
     1
 10
135.9414007906674
 20
-184.2416394938702
 11
36.34954697441955
 21
-182.7664496070862
 72
     1
 10
36.34954697441956
 20
-182.7664496070862
 11
36.34954697441956
 21
-184.2416394938702
 72
     1
 10
36.34954697441956
 20
-184.2416394938702
 11
135.9414007906674
 21
-184.2416394938702
 97
        0
 75
     2
 76
     1
 98
        0
  0
POLYLINE
  5
1B7
330
1F
100
AcDbEntity
  8
Ebene 1
370
     0
100
AcDb2dPolyline
 66
     1
 10
0.0
 20
0.0
 30
0.0
  0
VERTEX
  5
1B8
330
1B7
100
AcDbEntity
  8
Ebene 1
370
     0
100
AcDbVertex
100
AcDb2dVertex
 10
36.3493747196453
 20
-182.7664496070862
 30
0.0
  0
VERTEX
  5
1B9
330
1B7
100
AcDbEntity
  8
Ebene 1
370
     0
100
AcDbVertex
100
AcDb2dVertex
 10
135.9410562811189
 20
-184.2416394938702
 30
0.0
  0
VERTEX
  5
1BA
330
1B7
100
AcDbEntity
  8
Ebene 1
370
     0
100
AcDbVertex
100
AcDb2dVertex
 10
135.9410562811189
 20
-182.7664496070862
 30
0.0
  0
VERTEX
  5
1BB
330
1B7
100
AcDbEntity
  8
Ebene 1
370
     0
100
AcDbVertex
100
AcDb2dVertex
 10
36.3493747196453
 20
-182.7664496070862
 30
0.0
  0
SEQEND
  5
1BC
330
1B7
100
AcDbEntity
  8
Ebene 1
370
     0
  0
HATCH
  5
1BD
330
1F
100
AcDbEntity
  8
Ebene 1
 62
   254
420
 14803683
100
AcDbHatch
 10
0.0
 20
0.0
 30
0.0
210
0.0
220
0.0
230
1.0
  2
SOLID
 70
     1
 71
     0
 91
        1
 92
        1
 93
        3
 72
     1
 10
36.3493747196453
 20
-182.7664496070862
 11
135.9410562811189
 21
-184.2416394938702
 72
     1
 10
135.9410562811189
 20
-184.2416394938702
 11
135.9410562811189
 21
-182.7664496070862
 72
     1
 10
135.9410562811189
 20
-182.7664496070862
 11
36.3493747196453
 21
-182.7664496070862
 97
        0
 75
     2
 76
     1
 98
        0
  0
POLYLINE
  5
1BE
330
1F
100
AcDbEntity
  8
Ebene 1
370
     0
100
AcDb2dPolyline
 66
     1
 10
0.0
 20
0.0
 30
0.0
  0
VERTEX
  5
1BF
330
1BE
100
AcDbEntity
  8
Ebene 1
370
     0
100
AcDbVertex
100
AcDb2dVertex
 10
190.3859672918132
 20
-184.2416394938702
 30
0.0
  0
VERTEX
  5
1C0
330
1BE
100
AcDbEntity
  8
Ebene 1
370
     0
100
AcDbVertex
100
AcDb2dVertex
 10
137.3969536331855
 20
-182.7664496070862
 30
0.0
  0
VERTEX
  5
1C1
330
1BE
100
AcDbEntity
  8
Ebene 1
370
     0
100
AcDbVertex
100
AcDb2dVertex
 10
137.3969536331855
 20
-184.2416394938702
 30
0.0
  0
VERTEX
  5
1C2
330
1BE
100
AcDbEntity
  8
Ebene 1
370
     0
100
AcDbVertex
100
AcDb2dVertex
 10
190.3859672918132
 20
-184.2416394938702
 30
0.0
  0
SEQEND
  5
1C3
330
1BE
100
AcDbEntity
  8
Ebene 1
370
     0
  0
HATCH
  5
1C4
330
1F
100
AcDbEntity
  8
Ebene 1
 62
   254
420
 14803683
100
AcDbHatch
 10
0.0
 20
0.0
 30
0.0
210
0.0
220
0.0
230
1.0
  2
SOLID
 70
     1
 71
     0
 91
        1
 92
        1
 93
        3
 72
     1
 10
190.3859672918132
 20
-184.2416394938702
 11
137.3969536331855
 21
-182.7664496070862
 72
     1
 10
137.3969536331855
 20
-182.7664496070862
 11
137.3969536331855
 21
-184.2416394938702
 72
     1
 10
137.3969536331855
 20
-184.2416394938702
 11
190.3859672918132
 21
-184.2416394938702
 97
        0
 75
     2
 76
     1
 98
        0
  0
POLYLINE
  5
1C5
330
1F
100
AcDbEntity
  8
Ebene 1
370
     0
100
AcDb2dPolyline
 66
     1
 10
0.0
 20
0.0
 30
0.0
  0
VERTEX
  5
1C6
330
1C5
100
AcDbEntity
  8
Ebene 1
370
     0
100
AcDbVertex
100
AcDb2dVertex
 10
137.3969536331855
 20
-182.7664496070862
 30
0.0
  0
VERTEX
  5
1C7
330
1C5
100
AcDbEntity
  8
Ebene 1
370
     0
100
AcDbVertex
100
AcDb2dVertex
 10
190.3859672918132
 20
-184.2416394938702
 30
0.0
  0
VERTEX
  5
1C8
330
1C5
100
AcDbEntity
  8
Ebene 1
370
     0
100
AcDbVertex
100
AcDb2dVertex
 10
190.3859672918132
 20
-182.7664496070862
 30
0.0
  0
VERTEX
  5
1C9
330
1C5
100
AcDbEntity
  8
Ebene 1
370
     0
100
AcDbVertex
100
AcDb2dVertex
 10
137.3969536331855
 20
-182.7664496070862
 30
0.0
  0
SEQEND
  5
1CA
330
1C5
100
AcDbEntity
  8
Ebene 1
370
     0
  0
HATCH
  5
1CB
330
1F
100
AcDbEntity
  8
Ebene 1
 62
   254
420
 14803683
100
AcDbHatch
 10
0.0
 20
0.0
 30
0.0
210
0.0
220
0.0
230
1.0
  2
SOLID
 70
     1
 71
     0
 91
        1
 92
        1
 93
        3
 72
     1
 10
137.3969536331855
 20
-182.7664496070862
 11
190.3859672918132
 21
-184.2416394938702
 72
     1
 10
190.3859672918132
 20
-184.2416394938702
 11
190.3859672918132
 21
-182.7664496070862
 72
     1
 10
190.3859672918132
 20
-182.7664496070862
 11
137.3969536331855
 21
-182.7664496070862
 97
        0
 75
     2
 76
     1
 98
        0
  0
POLYLINE
  5
1CC
330
1F
100
AcDbEntity
  8
Ebene 1
 62
   179
420
  1709851
370
    15
100
AcDb2dPolyline
 66
     1
 10
0.0
 20
0.0
 30
0.0
  0
VERTEX
  5
1CD
330
1CC
100
AcDbEntity
  8
Ebene 1
 62
   179
420
  1709851
370
    15
100
AcDbVertex
100
AcDb2dVertex
 10
36.3493747196453
 20
-103.9238891341753
 30
0.0
  0
VERTEX
  5
1CE
330
1CC
100
AcDbEntity
  8
Ebene 1
 62
   179
420
  1709851
370
    15
100
AcDbVertex
100
AcDb2dVertex
 10
44.05519204627787
 20
-96.21755504321992
 30
0.0
  0
SEQEND
  5
1CF
330
1CC
100
AcDbEntity
  8
Ebene 1
370
    15
  0
POLYLINE
  5
1D0
330
1F
100
AcDbEntity
  8
Ebene 1
 62
   179
420
  1709851
370
    15
100
AcDb2dPolyline
 66
     1
 10
0.0
 20
0.0
 30
0.0
  0
VERTEX
  5
1D1
330
1D0
100
AcDbEntity
  8
Ebene 1
 62
   179
420
  1709851
370
    15
100
AcDbVertex
100
AcDb2dVertex
 10
36.3493747196453
 20
-116.8891614833645
 30
0.0
  0
VERTEX
  5
1D2
330
1D0
100
AcDbEntity
  8
Ebene 1
 62
   179
420
  1709851
370
    15
100
AcDbVertex
100
AcDb2dVertex
 10
57.02080890501563
 20
-96.21755504321992
 30
0.0
  0
SEQEND
  5
1D3
330
1D0
100
AcDbEntity
  8
Ebene 1
370
    15
  0
POLYLINE
  5
1D4
330
1F
100
AcDbEntity
  8
Ebene 1
 62
   179
420
  1709851
370
    15
100
AcDb2dPolyline
 66
     1
 10
0.0
 20
0.0
 30
0.0
  0
VERTEX
  5
1D5
330
1D4
100
AcDbEntity
  8
Ebene 1
 62
   179
420
  1709851
370
    15
100
AcDbVertex
100
AcDb2dVertex
 10
36.3493747196453
 20
-129.8551228516508
 30
0.0
  0
VERTEX
  5
1D6
330
1D4
100
AcDbEntity
  8
Ebene 1
 62
   179
420
  1709851
370
    15
100
AcDbVertex
100
AcDb2dVertex
 10
69.98677027330193
 20
-96.21755504321992
 30
0.0
  0
SEQEND
  5
1D7
330
1D4
100
AcDbEntity
  8
Ebene 1
370
    15
  0
POLYLINE
  5
1D8
330
1F
100
AcDbEntity
  8
Ebene 1
 62
   179
420
  1709851
370
    15
100
AcDb2dPolyline
 66
     1
 10
0.0
 20
0.0
 30
0.0
  0
VERTEX
  5
1D9
330
1D8
100
AcDbEntity
  8
Ebene 1
 62
   179
420
  1709851
370
    15
100
AcDbVertex
100
AcDb2dVertex
 10
36.3493747196453
 20
-142.8207397103886
 30
0.0
  0
VERTEX
  5
1DA
330
1D8
100
AcDbEntity
  8
Ebene 1
 62
   179
420
  1709851
370
    15
100
AcDbVertex
100
AcDb2dVertex
 10
82.95238713203969
 20
-96.21755504321992
 30
0.0
  0
SEQEND
  5
1DB
330
1D8
100
AcDbEntity
  8
Ebene 1
370
    15
  0
POLYLINE
  5
1DC
330
1F
100
AcDbEntity
  8
Ebene 1
 62
   179
420
  1709851
370
    15
100
AcDb2dPolyline
 66
     1
 10
0.0
 20
0.0
 30
0.0
  0
VERTEX
  5
1DD
330
1DC
100
AcDbEntity
  8
Ebene 1
 62
   179
420
  1709851
370
    15
100
AcDbVertex
100
AcDb2dVertex
 10
40.91085339689035
 20
-151.2252224014298
 30
0.0
  0
VERTEX
  5
1DE
330
1DC
100
AcDbEntity
  8
Ebene 1
 62
   179
420
  1709851
370
    15
100
AcDbVertex
100
AcDb2dVertex
 10
95.91834850032598
 20
-96.21755504321992
 30
0.0
  0
SEQEND
  5
1DF
330
1DC
100
AcDbEntity
  8
Ebene 1
370
    15
  0
POLYLINE
  5
1E0
330
1F
100
AcDbEntity
  8
Ebene 1
 62
   179
420
  1709851
370
    15
100
AcDb2dPolyline
 66
     1
 10
0.0
 20
0.0
 30
0.0
  0
VERTEX
  5
1E1
330
1E0
100
AcDbEntity
  8
Ebene 1
 62
   179
420
  1709851
370
    15
100
AcDbVertex
100
AcDb2dVertex
 10
53.87647025562811
 20
-151.2252224014298
 30
0.0
  0
VERTEX
  5
1E2
330
1E0
100
AcDbEntity
  8
Ebene 1
 62
   179
420
  1709851
370
    15
100
AcDbVertex
100
AcDb2dVertex
 10
108.9036024033297
 20
-96.21755504321992
 30
0.0
  0
SEQEND
  5
1E3
330
1E0
100
AcDbEntity
  8
Ebene 1
370
    15
  0
POLYLINE
  5
1E4
330
1F
100
AcDbEntity
  8
Ebene 1
 62
   179
420
  1709851
370
    15
100
AcDb2dPolyline
 66
     1
 10
0.0
 20
0.0
 30
0.0
  0
VERTEX
  5
1E5
330
1E4
100
AcDbEntity
  8
Ebene 1
 62
   179
420
  1709851
370
    15
100
AcDbVertex
100
AcDb2dVertex
 10
66.84208711436587
 20
-151.2252224014298
 30
0.0
  0
VERTEX
  5
1E6
330
1E4
100
AcDbEntity
  8
Ebene 1
 62
   179
420
  1709851
370
    15
100
AcDbVertex
100
AcDb2dVertex
 10
121.8688747525189
 20
-96.21755504321992
 30
0.0
  0
SEQEND
  5
1E7
330
1E4
100
AcDbEntity
  8
Ebene 1
370
    15
  0
POLYLINE
  5
1E8
330
1F
100
AcDbEntity
  8
Ebene 1
 62
   179
420
  1709851
370
    15
100
AcDb2dPolyline
 66
     1
 10
0.0
 20
0.0
 30
0.0
  0
VERTEX
  5
1E9
330
1E8
100
AcDbEntity
  8
Ebene 1
 62
   179
420
  1709851
370
    15
100
AcDbVertex
100
AcDb2dVertex
 10
79.80804848265215
 20
-151.2252224014298
 30
0.0
  0
VERTEX
  5
1EA
330
1E8
100
AcDbEntity
  8
Ebene 1
 62
   179
420
  1709851
370
    15
100
AcDbVertex
100
AcDb2dVertex
 10
134.8348361208052
 20
-96.21755504321992
 30
0.0
  0
SEQEND
  5
1EB
330
1E8
100
AcDbEntity
  8
Ebene 1
370
    15
  0
POLYLINE
  5
1EC
330
1F
100
AcDbEntity
  8
Ebene 1
 62
   179
420
  1709851
370
    15
100
AcDb2dPolyline
 66
     1
 10
0.0
 20
0.0
 30
0.0
  0
VERTEX
  5
1ED
330
1EC
100
AcDbEntity
  8
Ebene 1
 62
   179
420
  1709851
370
    15
100
AcDbVertex
100
AcDb2dVertex
 10
92.77366534138991
 20
-151.2252224014298
 30
0.0
  0
VERTEX
  5
1EE
330
1EC
100
AcDbEntity
  8
Ebene 1
 62
   179
420
  1709851
370
    15
100
AcDbVertex
100
AcDb2dVertex
 10
147.8007974890915
 20
-96.21755504321992
 30
0.0
  0
SEQEND
  5
1EF
330
1EC
100
AcDbEntity
  8
Ebene 1
370
    15
  0
POLYLINE
  5
1F0
330
1F
100
AcDbEntity
  8
Ebene 1
 62
   179
420
  1709851
370
    15
100
AcDb2dPolyline
 66
     1
 10
0.0
 20
0.0
 30
0.0
  0
VERTEX
  5
1F1
330
1F0
100
AcDbEntity
  8
Ebene 1
 62
   179
420
  1709851
370
    15
100
AcDbVertex
100
AcDb2dVertex
 10
105.7396267096762
 20
-151.2252224014298
 30
0.0
  0
VERTEX
  5
1F2
330
1F0
100
AcDbEntity
  8
Ebene 1
 62
   179
420
  1709851
370
    15
100
AcDbVertex
100
AcDb2dVertex
 10
160.7664143478292
 20
-96.21755504321992
 30
0.0
  0
SEQEND
  5
1F3
330
1F0
100
AcDbEntity
  8
Ebene 1
370
    15
  0
POLYLINE
  5
1F4
330
1F
100
AcDbEntity
  8
Ebene 1
 62
   179
420
  1709851
370
    15
100
AcDb2dPolyline
 66
     1
 10
0.0
 20
0.0
 30
0.0
  0
VERTEX
  5
1F5
330
1F4
100
AcDbEntity
  8
Ebene 1
 62
   179
420
  1709851
370
    15
100
AcDbVertex
100
AcDb2dVertex
 10
118.7248806126799
 20
-151.2252224014298
 30
0.0
  0
VERTEX
  5
1F6
330
1F4
100
AcDbEntity
  8
Ebene 1
 62
   179
420
  1709851
370
    15
100
AcDbVertex
100
AcDb2dVertex
 10
173.7323757161155
 20
-96.21755504321992
 30
0.0
  0
SEQEND
  5
1F7
330
1F4
100
AcDbEntity
  8
Ebene 1
370
    15
  0
POLYLINE
  5
1F8
330
1F
100
AcDbEntity
  8
Ebene 1
 62
   179
420
  1709851
370
    15
100
AcDb2dPolyline
 66
     1
 10
0.0
 20
0.0
 30
0.0
  0
VERTEX
  5
1F9
330
1F8
100
AcDbEntity
  8
Ebene 1
 62
   179
420
  1709851
370
    15
100
AcDbVertex
100
AcDb2dVertex
 10
131.6904974714177
 20
-151.2252224014298
 30
0.0
  0
VERTEX
  5
1FA
330
1F8
100
AcDbEntity
  8
Ebene 1
 62
   179
420
  1709851
370
    15
100
AcDbVertex
100
AcDb2dVertex
 10
186.6979925748533
 20
-96.21755504321992
 30
0.0
  0
SEQEND
  5
1FB
330
1F8
100
AcDbEntity
  8
Ebene 1
370
    15
  0
POLYLINE
  5
1FC
330
1F
100
AcDbEntity
  8
Ebene 1
 62
   179
420
  1709851
370
    15
100
AcDb2dPolyline
 66
     1
 10
0.0
 20
0.0
 30
0.0
  0
VERTEX
  5
1FD
330
1FC
100
AcDbEntity
  8
Ebene 1
 62
   179
420
  1709851
370
    15
100
AcDbVertex
100
AcDb2dVertex
 10
144.656458839704
 20
-151.2252224014298
 30
0.0
  0
VERTEX
  5
1FE
330
1FC
100
AcDbEntity
  8
Ebene 1
 62
   179
420
  1709851
370
    15
100
AcDbVertex
100
AcDb2dVertex
 10
190.3859672918132
 20
-105.4762491598289
 30
0.0
  0
SEQEND
  5
1FF
330
1FC
100
AcDbEntity
  8
Ebene 1
370
    15
  0
POLYLINE
  5
200
330
1F
100
AcDbEntity
  8
Ebene 1
 62
   179
420
  1709851
370
    15
100
AcDb2dPolyline
 66
     1
 10
0.0
 20
0.0
 30
0.0
  0
VERTEX
  5
201
330
200
100
AcDbEntity
  8
Ebene 1
 62
   179
420
  1709851
370
    15
100
AcDbVertex
100
AcDb2dVertex
 10
157.6220756984417
 20
-151.2252224014298
 30
0.0
  0
VERTEX
  5
202
330
200
100
AcDbEntity
  8
Ebene 1
 62
   179
420
  1709851
370
    15
100
AcDbVertex
100
AcDb2dVertex
 10
190.3859672918132
 20
-118.4418660185666
 30
0.0
  0
SEQEND
  5
203
330
200
100
AcDbEntity
  8
Ebene 1
370
    15
  0
POLYLINE
  5
204
330
1F
100
AcDbEntity
  8
Ebene 1
 62
   179
420
  1709851
370
    15
100
AcDb2dPolyline
 66
     1
 10
0.0
 20
0.0
 30
0.0
  0
VERTEX
  5
205
330
204
100
AcDbEntity
  8
Ebene 1
 62
   179
420
  1709851
370
    15
100
AcDbVertex
100
AcDb2dVertex
 10
170.588037066728
 20
-151.2252224014298
 30
0.0
  0
VERTEX
  5
206
330
204
100
AcDbEntity
  8
Ebene 1
 62
   179
420
  1709851
370
    15
100
AcDbVertex
100
AcDb2dVertex
 10
190.3859672918132
 20
-131.4274644311188
 30
0.0
  0
SEQEND
  5
207
330
204
100
AcDbEntity
  8
Ebene 1
370
    15
  0
POLYLINE
  5
208
330
1F
100
AcDbEntity
  8
Ebene 1
 62
   179
420
  1709851
370
    15
100
AcDb2dPolyline
 66
     1
 10
0.0
 20
0.0
 30
0.0
  0
VERTEX
  5
209
330
208
100
AcDbEntity
  8
Ebene 1
 62
   179
420
  1709851
370
    15
100
AcDbVertex
100
AcDb2dVertex
 10
183.5536539254658
 20
-151.2252224014298
 30
0.0
  0
VERTEX
  5
20A
330
208
100
AcDbEntity
  8
Ebene 1
 62
   179
420
  1709851
370
    15
100
AcDbVertex
100
AcDb2dVertex
 10
190.3859672918132
 20
-144.3930812898566
 30
0.0
  0
SEQEND
  5
20B
330
208
100
AcDbEntity
  8
Ebene 1
370
    15
  0
POLYLINE
  5
20C
330
1F
100
AcDbEntity
  8
Ebene 1
 62
   179
420
  1709851
370
    15
100
AcDb2dPolyline
 66
     1
 10
0.0
 20
0.0
 30
0.0
  0
VERTEX
  5
20D
330
20C
100
AcDbEntity
  8
Ebene 1
 62
   179
420
  1709851
370
    15
100
AcDbVertex
100
AcDb2dVertex
 10
36.3493747196453
 20
-97.44056394048361
 30
0.0
  0
VERTEX
  5
20E
330
20C
100
AcDbEntity
  8
Ebene 1
 62
   179
420
  1709851
370
    15
100
AcDbVertex
100
AcDb2dVertex
 10
37.57255587168325
 20
-96.21755504321992
 30
0.0
  0
SEQEND
  5
20F
330
20C
100
AcDbEntity
  8
Ebene 1
370
    15
  0
POLYLINE
  5
210
330
1F
100
AcDbEntity
  8
Ebene 1
 62
   179
420
  1709851
370
    15
100
AcDb2dPolyline
 66
     1
 10
0.0
 20
0.0
 30
0.0
  0
VERTEX
  5
211
330
210
100
AcDbEntity
  8
Ebene 1
 62
   179
420
  1709851
370
    15
100
AcDbVertex
100
AcDb2dVertex
 10
36.3493747196453
 20
-110.4065253087699
 30
0.0
  0
VERTEX
  5
212
330
210
100
AcDbEntity
  8
Ebene 1
 62
   179
420
  1709851
370
    15
100
AcDbVertex
100
AcDb2dVertex
 10
50.53782822087249
 20
-96.21755504321992
 30
0.0
  0
SEQEND
  5
213
330
210
100
AcDbEntity
  8
Ebene 1
370
    15
  0
POLYLINE
  5
214
330
1F
100
AcDbEntity
  8
Ebene 1
 62
   179
420
  1709851
370
    15
100
AcDb2dPolyline
 66
     1
 10
0.0
 20
0.0
 30
0.0
  0
VERTEX
  5
215
330
214
100
AcDbEntity
  8
Ebene 1
 62
   179
420
  1709851
370
    15
100
AcDbVertex
100
AcDb2dVertex
 10
36.3493747196453
 20
-123.3721421675077
 30
0.0
  0
VERTEX
  5
216
330
214
100
AcDbEntity
  8
Ebene 1
 62
   179
420
  1709851
370
    15
100
AcDbVertex
100
AcDb2dVertex
 10
63.50378958915878
 20
-96.21755504321992
 30
0.0
  0
SEQEND
  5
217
330
214
100
AcDbEntity
  8
Ebene 1
370
    15
  0
POLYLINE
  5
218
330
1F
100
AcDbEntity
  8
Ebene 1
 62
   179
420
  1709851
370
    15
100
AcDb2dPolyline
 66
     1
 10
0.0
 20
0.0
 30
0.0
  0
VERTEX
  5
219
330
218
100
AcDbEntity
  8
Ebene 1
 62
   179
420
  1709851
370
    15
100
AcDbVertex
100
AcDb2dVertex
 10
36.3493747196453
 20
-136.3381035357939
 30
0.0
  0
VERTEX
  5
21A
330
218
100
AcDbEntity
  8
Ebene 1
 62
   179
420
  1709851
370
    15
100
AcDbVertex
100
AcDb2dVertex
 10
76.46940644789655
 20
-96.21755504321992
 30
0.0
  0
SEQEND
  5
21B
330
218
100
AcDbEntity
  8
Ebene 1
370
    15
  0
POLYLINE
  5
21C
330
1F
100
AcDbEntity
  8
Ebene 1
 62
   179
420
  1709851
370
    15
100
AcDb2dPolyline
 66
     1
 10
0.0
 20
0.0
 30
0.0
  0
VERTEX
  5
21D
330
21C
100
AcDbEntity
  8
Ebene 1
 62
   179
420
  1709851
370
    15
100
AcDbVertex
100
AcDb2dVertex
 10
36.3493747196453
 20
-149.3035481397575
 30
0.0
  0
VERTEX
  5
21E
330
21C
100
AcDbEntity
  8
Ebene 1
 62
   179
420
  1709851
370
    15
100
AcDbVertex
100
AcDb2dVertex
 10
89.43536781618283
 20
-96.21755504321992
 30
0.0
  0
SEQEND
  5
21F
330
21C
100
AcDbEntity
  8
Ebene 1
370
    15
  0
POLYLINE
  5
220
330
1F
100
AcDbEntity
  8
Ebene 1
 62
   179
420
  1709851
370
    15
100
AcDb2dPolyline
 66
     1
 10
0.0
 20
0.0
 30
0.0
  0
VERTEX
  5
221
330
220
100
AcDbEntity
  8
Ebene 1
 62
   179
420
  1709851
370
    15
100
AcDbVertex
100
AcDb2dVertex
 10
47.39383408103349
 20
-151.2252224014298
 30
0.0
  0
VERTEX
  5
222
330
220
100
AcDbEntity
  8
Ebene 1
 62
   179
420
  1709851
370
    15
100
AcDbVertex
100
AcDb2dVertex
 10
102.4009846749206
 20
-96.21755504321992
 30
0.0
  0
SEQEND
  5
223
330
220
100
AcDbEntity
  8
Ebene 1
370
    15
  0
POLYLINE
  5
224
330
1F
100
AcDbEntity
  8
Ebene 1
 62
   179
420
  1709851
370
    15
100
AcDb2dPolyline
 66
     1
 10
0.0
 20
0.0
 30
0.0
  0
VERTEX
  5
225
330
224
100
AcDbEntity
  8
Ebene 1
 62
   179
420
  1709851
370
    15
100
AcDbVertex
100
AcDb2dVertex
 10
60.35945093977125
 20
-151.2252224014298
 30
0.0
  0
VERTEX
  5
226
330
224
100
AcDbEntity
  8
Ebene 1
 62
   179
420
  1709851
370
    15
100
AcDbVertex
100
AcDb2dVertex
 10
115.3858940683757
 20
-96.21755504321992
 30
0.0
  0
SEQEND
  5
227
330
224
100
AcDbEntity
  8
Ebene 1
370
    15
  0
POLYLINE
  5
228
330
1F
100
AcDbEntity
  8
Ebene 1
 62
   179
420
  1709851
370
    15
100
AcDb2dPolyline
 66
     1
 10
0.0
 20
0.0
 30
0.0
  0
VERTEX
  5
229
330
228
100
AcDbEntity
  8
Ebene 1
 62
   179
420
  1709851
370
    15
100
AcDbVertex
100
AcDb2dVertex
 10
73.32506779850901
 20
-151.2252224014298
 30
0.0
  0
VERTEX
  5
22A
330
228
100
AcDbEntity
  8
Ebene 1
 62
   179
420
  1709851
370
    15
100
AcDbVertex
100
AcDb2dVertex
 10
128.3521999462106
 20
-96.21755504321992
 30
0.0
  0
SEQEND
  5
22B
330
228
100
AcDbEntity
  8
Ebene 1
370
    15
  0
POLYLINE
  5
22C
330
1F
100
AcDbEntity
  8
Ebene 1
 62
   179
420
  1709851
370
    15
100
AcDb2dPolyline
 66
     1
 10
0.0
 20
0.0
 30
0.0
  0
VERTEX
  5
22D
330
22C
100
AcDbEntity
  8
Ebene 1
 62
   179
420
  1709851
370
    15
100
AcDbVertex
100
AcDb2dVertex
 10
86.29068465724677
 20
-151.2252224014298
 30
0.0
  0
VERTEX
  5
22E
330
22C
100
AcDbEntity
  8
Ebene 1
 62
   179
420
  1709851
370
    15
100
AcDbVertex
100
AcDb2dVertex
 10
141.3178168049483
 20
-96.21755504321992
 30
0.0
  0
SEQEND
  5
22F
330
22C
100
AcDbEntity
  8
Ebene 1
370
    15
  0
POLYLINE
  5
230
330
1F
100
AcDbEntity
  8
Ebene 1
 62
   179
420
  1709851
370
    15
100
AcDb2dPolyline
 66
     1
 10
0.0
 20
0.0
 30
0.0
  0
VERTEX
  5
231
330
230
100
AcDbEntity
  8
Ebene 1
 62
   179
420
  1709851
370
    15
100
AcDbVertex
100
AcDb2dVertex
 10
99.25681828030733
 20
-151.2252224014298
 30
0.0
  0
VERTEX
  5
232
330
230
100
AcDbEntity
  8
Ebene 1
 62
   179
420
  1709851
370
    15
100
AcDbVertex
100
AcDb2dVertex
 10
154.2837781732346
 20
-96.21755504321992
 30
0.0
  0
SEQEND
  5
233
330
230
100
AcDbEntity
  8
Ebene 1
370
    15
  0
POLYLINE
  5
234
330
1F
100
AcDbEntity
  8
Ebene 1
 62
   179
420
  1709851
370
    15
100
AcDb2dPolyline
 66
     1
 10
0.0
 20
0.0
 30
0.0
  0
VERTEX
  5
235
330
234
100
AcDbEntity
  8
Ebene 1
 62
   179
420
  1709851
370
    15
100
AcDbVertex
100
AcDb2dVertex
 10
112.2226073938194
 20
-151.2252224014298
 30
0.0
  0
VERTEX
  5
236
330
234
100
AcDbEntity
  8
Ebene 1
 62
   179
420
  1709851
370
    15
100
AcDbVertex
100
AcDb2dVertex
 10
167.2493950319724
 20
-96.21755504321992
 30
0.0
  0
SEQEND
  5
237
330
234
100
AcDbEntity
  8
Ebene 1
370
    15
  0
POLYLINE
  5
238
330
1F
100
AcDbEntity
  8
Ebene 1
 62
   179
420
  1709851
370
    15
100
AcDb2dPolyline
 66
     1
 10
0.0
 20
0.0
 30
0.0
  0
VERTEX
  5
239
330
238
100
AcDbEntity
  8
Ebene 1
 62
   179
420
  1709851
370
    15
100
AcDbVertex
100
AcDb2dVertex
 10
125.207861296823
 20
-151.2252224014298
 30
0.0
  0
VERTEX
  5
23A
330
238
100
AcDbEntity
  8
Ebene 1
 62
   179
420
  1709851
370
    15
100
AcDbVertex
100
AcDb2dVertex
 10
180.2150118907101
 20
-96.21755504321992
 30
0.0
  0
SEQEND
  5
23B
330
238
100
AcDbEntity
  8
Ebene 1
370
    15
  0
POLYLINE
  5
23C
330
1F
100
AcDbEntity
  8
Ebene 1
 62
   179
420
  1709851
370
    15
100
AcDb2dPolyline
 66
     1
 10
0.0
 20
0.0
 30
0.0
  0
VERTEX
  5
23D
330
23C
100
AcDbEntity
  8
Ebene 1
 62
   179
420
  1709851
370
    15
100
AcDbVertex
100
AcDb2dVertex
 10
138.1734781555608
 20
-151.2252224014298
 30
0.0
  0
VERTEX
  5
23E
330
23C
100
AcDbEntity
  8
Ebene 1
 62
   179
420
  1709851
370
    15
100
AcDbVertex
100
AcDb2dVertex
 10
190.3859672918132
 20
-98.99326847568571
 30
0.0
  0
SEQEND
  5
23F
330
23C
100
AcDbEntity
  8
Ebene 1
370
    15
  0
POLYLINE
  5
240
330
1F
100
AcDbEntity
  8
Ebene 1
 62
   179
420
  1709851
370
    15
100
AcDb2dPolyline
 66
     1
 10
0.0
 20
0.0
 30
0.0
  0
VERTEX
  5
241
330
240
100
AcDbEntity
  8
Ebene 1
 62
   179
420
  1709851
370
    15
100
AcDbVertex
100
AcDb2dVertex
 10
151.1394395238471
 20
-151.2252224014298
 30
0.0
  0
VERTEX
  5
242
330
240
100
AcDbEntity
  8
Ebene 1
 62
   179
420
  1709851
370
    15
100
AcDbVertex
100
AcDb2dVertex
 10
190.3859672918132
 20
-111.959229843972
 30
0.0
  0
SEQEND
  5
243
330
240
100
AcDbEntity
  8
Ebene 1
370
    15
  0
POLYLINE
  5
244
330
1F
100
AcDbEntity
  8
Ebene 1
 62
   179
420
  1709851
370
    15
100
AcDb2dPolyline
 66
     1
 10
0.0
 20
0.0
 30
0.0
  0
VERTEX
  5
245
330
244
100
AcDbEntity
  8
Ebene 1
 62
   179
420
  1709851
370
    15
100
AcDbVertex
100
AcDb2dVertex
 10
164.1050563825848
 20
-151.2252224014298
 30
0.0
  0
VERTEX
  5
246
330
244
100
AcDbEntity
  8
Ebene 1
 62
   179
420
  1709851
370
    15
100
AcDbVertex
100
AcDb2dVertex
 10
190.3859672918132
 20
-124.9444837469757
 30
0.0
  0
SEQEND
  5
247
330
244
100
AcDbEntity
  8
Ebene 1
370
    15
  0
POLYLINE
  5
248
330
1F
100
AcDbEntity
  8
Ebene 1
 62
   179
420
  1709851
370
    15
100
AcDb2dPolyline
 66
     1
 10
0.0
 20
0.0
 30
0.0
  0
VERTEX
  5
249
330
248
100
AcDbEntity
  8
Ebene 1
 62
   179
420
  1709851
370
    15
100
AcDbVertex
100
AcDb2dVertex
 10
177.0710177508711
 20
-151.2252224014298
 30
0.0
  0
VERTEX
  5
24A
330
248
100
AcDbEntity
  8
Ebene 1
 62
   179
420
  1709851
370
    15
100
AcDbVertex
100
AcDb2dVertex
 10
190.3859672918132
 20
-137.910445115262
 30
0.0
  0
SEQEND
  5
24B
330
248
100
AcDbEntity
  8
Ebene 1
370
    15
  0
POLYLINE
  5
24C
330
1F
100
AcDbEntity
  8
Ebene 1
 62
   179
420
  1709851
370
    15
100
AcDb2dPolyline
 66
     1
 10
0.0
 20
0.0
 30
0.0
  0
VERTEX
  5
24D
330
24C
100
AcDbEntity
  8
Ebene 1
 62
   179
420
  1709851
370
    15
100
AcDbVertex
100
AcDb2dVertex
 10
190.0366346096089
 20
-151.2252224014298
 30
0.0
  0
VERTEX
  5
24E
330
24C
100
AcDbEntity
  8
Ebene 1
 62
   179
420
  1709851
370
    15
100
AcDbVertex
100
AcDb2dVertex
 10
190.3859672918132
 20
-150.8758897192255
 30
0.0
  0
SEQEND
  5
24F
330
24C
100
AcDbEntity
  8
Ebene 1
370
    15
  0
POLYLINE
  5
250
330
1F
100
AcDbEntity
  8
Ebene 1
370
     0
100
AcDb2dPolyline
 66
     1
 10
0.0
 20
0.0
 30
0.0
  0
VERTEX
  5
251
330
250
100
AcDbEntity
  8
Ebene 1
370
     0
100
AcDbVertex
100
AcDb2dVertex
 10
90.81357826505703
 20
-163.6089626327089
 30
0.0
  0
VERTEX
  5
252
330
250
100
AcDbEntity
  8
Ebene 1
370
     0
100
AcDbVertex
100
AcDb2dVertex
 10
90.09527585638243
 20
-165.0834635003958
 30
0.0
  0
VERTEX
  5
253
330
250
100
AcDbEntity
  8
Ebene 1
370
     0
100
AcDbVertex
100
AcDb2dVertex
 10
90.09527585638243
 20
-164.3462130665523
 30
0.0
  0
VERTEX
  5
254
330
250
100
AcDbEntity
  8
Ebene 1
370
     0
100
AcDbVertex
100
AcDb2dVertex
 10
90.81357826505703
 20
-163.6089626327089
 30
0.0
  0
SEQEND
  5
255
330
250
100
AcDbEntity
  8
Ebene 1
370
     0
  0
HATCH
  5
256
330
1F
100
AcDbEntity
  8
Ebene 1
 62
   139
420
  4081750
100
AcDbHatch
 10
0.0
 20
0.0
 30
0.0
210
0.0
220
0.0
230
1.0
  2
SOLID
 70
     1
 71
     0
 91
        1
 92
        1
 93
        3
 72
     1
 10
90.81357826505703
 20
-163.6089626327089
 11
90.09527585638243
 21
-165.0834635003958
 72
     1
 10
90.09527585638243
 20
-165.0834635003958
 11
90.09527585638243
 21
-164.3462130665523
 72
     1
 10
90.09527585638243
 20
-164.3462130665523
 11
90.81357826505703
 21
-163.6089626327089
 97
        0
 75
     2
 76
     1
 98
        0
  0
POLYLINE
  5
257
330
1F
100
AcDbEntity
  8
Ebene 1
370
     0
100
AcDb2dPolyline
 66
     1
 10
0.0
 20
0.0
 30
0.0
  0
VERTEX
  5
258
330
257
100
AcDbEntity
  8
Ebene 1
370
     0
100
AcDbVertex
100
AcDb2dVertex
 10
90.09527585638243
 20
-165.0834635003958
 30
0.0
  0
VERTEX
  5
259
330
257
100
AcDbEntity
  8
Ebene 1
370
     0
100
AcDbVertex
100
AcDb2dVertex
 10
90.81357826505703
 20
-163.6089626327089
 30
0.0
  0
VERTEX
  5
25A
330
257
100
AcDbEntity
  8
Ebene 1
370
     0
100
AcDbVertex
100
AcDb2dVertex
 10
90.4642455828527
 20
-165.0834635003958
 30
0.0
  0
VERTEX
  5
25B
330
257
100
AcDbEntity
  8
Ebene 1
370
     0
100
AcDbVertex
100
AcDb2dVertex
 10
90.09527585638243
 20
-165.0834635003958
 30
0.0
  0
SEQEND
  5
25C
330
257
100
AcDbEntity
  8
Ebene 1
370
     0
  0
HATCH
  5
25D
330
1F
100
AcDbEntity
  8
Ebene 1
 62
   139
420
  4081750
100
AcDbHatch
 10
0.0
 20
0.0
 30
0.0
210
0.0
220
0.0
230
1.0
  2
SOLID
 70
     1
 71
     0
 91
        1
 92
        1
 93
        3
 72
     1
 10
90.09527585638243
 20
-165.0834635003958
 11
90.81357826505703
 21
-163.6089626327089
 72
     1
 10
90.81357826505703
 20
-163.6089626327089
 11
90.4642455828527
 21
-165.0834635003958
 72
     1
 10
90.4642455828527
 20
-165.0834635003958
 11
90.09527585638243
 21
-165.0834635003958
 97
        0
 75
     2
 76
     1
 98
        0
  0
POLYLINE
  5
25E
330
1F
100
AcDbEntity
  8
Ebene 1
370
     0
100
AcDb2dPolyline
 66
     1
 10
0.0
 20
0.0
 30
0.0
  0
VERTEX
  5
25F
330
25E
100
AcDbEntity
  8
Ebene 1
370
     0
100
AcDbVertex
100
AcDb2dVertex
 10
90.4642455828527
 20
-165.0834635003958
 30
0.0
  0
VERTEX
  5
260
330
25E
100
AcDbEntity
  8
Ebene 1
370
     0
100
AcDbVertex
100
AcDb2dVertex
 10
90.4642455828527
 20
-173.3330891493751
 30
0.0
  0
VERTEX
  5
261
330
25E
100
AcDbEntity
  8
Ebene 1
370
     0
100
AcDbVertex
100
AcDb2dVertex
 10
90.81340601028276
 20
-163.6089626327089
 30
0.0
  0
VERTEX
  5
262
330
25E
100
AcDbEntity
  8
Ebene 1
370
     0
100
AcDbVertex
100
AcDb2dVertex
 10
90.4642455828527
 20
-165.0834635003958
 30
0.0
  0
SEQEND
  5
263
330
25E
100
AcDbEntity
  8
Ebene 1
370
     0
  0
HATCH
  5
264
330
1F
100
AcDbEntity
  8
Ebene 1
 62
   139
420
  4081750
100
AcDbHatch
 10
0.0
 20
0.0
 30
0.0
210
0.0
220
0.0
230
1.0
  2
SOLID
 70
     1
 71
     0
 91
        1
 92
        1
 93
        3
 72
     1
 10
90.4642455828527
 20
-165.0834635003958
 11
90.4642455828527
 21
-173.3330891493751
 72
     1
 10
90.4642455828527
 20
-173.3330891493751
 11
90.81340601028276
 21
-163.6089626327089
 72
     1
 10
90.81340601028276
 20
-163.6089626327089
 11
90.4642455828527
 21
-165.0834635003958
 97
        0
 75
     2
 76
     1
 98
        0
  0
POLYLINE
  5
265
330
1F
100
AcDbEntity
  8
Ebene 1
370
     0
100
AcDb2dPolyline
 66
     1
 10
0.0
 20
0.0
 30
0.0
  0
VERTEX
  5
266
330
265
100
AcDbEntity
  8
Ebene 1
370
     0
100
AcDbVertex
100
AcDb2dVertex
 10
90.46407332807843
 20
-173.3330891493751
 30
0.0
  0
VERTEX
  5
267
330
265
100
AcDbEntity
  8
Ebene 1
370
     0
100
AcDbVertex
100
AcDb2dVertex
 10
83.30171981424402
 20
-173.7017143662968
 30
0.0
  0
VERTEX
  5
268
330
265
100
AcDbEntity
  8
Ebene 1
370
     0
100
AcDbVertex
100
AcDb2dVertex
 10
83.30171981424402
 20
-173.3330891493751
 30
0.0
  0
VERTEX
  5
269
330
265
100
AcDbEntity
  8
Ebene 1
370
     0
100
AcDbVertex
100
AcDb2dVertex
 10
90.46407332807843
 20
-173.3330891493751
 30
0.0
  0
SEQEND
  5
26A
330
265
100
AcDbEntity
  8
Ebene 1
370
     0
  0
HATCH
  5
26B
330
1F
100
AcDbEntity
  8
Ebene 1
 62
   139
420
  4081750
100
AcDbHatch
 10
0.0
 20
0.0
 30
0.0
210
0.0
220
0.0
230
1.0
  2
SOLID
 70
     1
 71
     0
 91
        1
 92
        1
 93
        3
 72
     1
 10
90.46407332807843
 20
-173.3330891493751
 11
83.30171981424402
 21
-173.7017143662968
 72
     1
 10
83.30171981424402
 20
-173.7017143662968
 11
83.30171981424402
 21
-173.3330891493751
 72
     1
 10
83.30171981424402
 20
-173.3330891493751
 11
90.46407332807843
 21
-173.3330891493751
 97
        0
 75
     2
 76
     1
 98
        0
  0
POLYLINE
  5
26C
330
1F
100
AcDbEntity
  8
Ebene 1
370
     0
100
AcDb2dPolyline
 66
     1
 10
0.0
 20
0.0
 30
0.0
  0
VERTEX
  5
26D
330
26C
100
AcDbEntity
  8
Ebene 1
370
     0
100
AcDbVertex
100
AcDb2dVertex
 10
83.30189206901828
 20
-173.7017143662968
 30
0.0
  0
VERTEX
  5
26E
330
26C
100
AcDbEntity
  8
Ebene 1
370
     0
100
AcDbVertex
100
AcDb2dVertex
 10
90.4642455828527
 20
-173.3330891493751
 30
0.0
  0
VERTEX
  5
26F
330
26C
100
AcDbEntity
  8
Ebene 1
370
     0
100
AcDbVertex
100
AcDb2dVertex
 10
97.97558726934291
 20
-173.7017143662968
 30
0.0
  0
VERTEX
  5
270
330
26C
100
AcDbEntity
  8
Ebene 1
370
     0
100
AcDbVertex
100
AcDb2dVertex
 10
83.30189206901828
 20
-173.7017143662968
 30
0.0
  0
SEQEND
  5
271
330
26C
100
AcDbEntity
  8
Ebene 1
370
     0
  0
HATCH
  5
272
330
1F
100
AcDbEntity
  8
Ebene 1
 62
   139
420
  4081750
100
AcDbHatch
 10
0.0
 20
0.0
 30
0.0
210
0.0
220
0.0
230
1.0
  2
SOLID
 70
     1
 71
     0
 91
        1
 92
        1
 93
        3
 72
     1
 10
83.30189206901828
 20
-173.7017143662968
 11
90.4642455828527
 21
-173.3330891493751
 72
     1
 10
90.4642455828527
 20
-173.3330891493751
 11
97.97558726934291
 21
-173.7017143662968
 72
     1
 10
97.97558726934291
 20
-173.7017143662968
 11
83.30189206901828
 21
-173.7017143662968
 97
        0
 75
     2
 76
     1
 98
        0
  0
POLYLINE
  5
273
330
1F
100
AcDbEntity
  8
Ebene 1
370
     0
100
AcDb2dPolyline
 66
     1
 10
0.0
 20
0.0
 30
0.0
  0
VERTEX
  5
274
330
273
100
AcDbEntity
  8
Ebene 1
370
     0
100
AcDbVertex
100
AcDb2dVertex
 10
97.97558726934291
 20
-173.7017143662968
 30
0.0
  0
VERTEX
  5
275
330
273
100
AcDbEntity
  8
Ebene 1
370
     0
100
AcDbVertex
100
AcDb2dVertex
 10
90.4642455828527
 20
-173.3330891493751
 30
0.0
  0
VERTEX
  5
276
330
273
100
AcDbEntity
  8
Ebene 1
370
     0
100
AcDbVertex
100
AcDb2dVertex
 10
90.81357826505703
 20
-173.3330891493751
 30
0.0
  0
VERTEX
  5
277
330
273
100
AcDbEntity
  8
Ebene 1
370
     0
100
AcDbVertex
100
AcDb2dVertex
 10
97.97558726934291
 20
-173.7017143662968
 30
0.0
  0
SEQEND
  5
278
330
273
100
AcDbEntity
  8
Ebene 1
370
     0
  0
HATCH
  5
279
330
1F
100
AcDbEntity
  8
Ebene 1
 62
   139
420
  4081750
100
AcDbHatch
 10
0.0
 20
0.0
 30
0.0
210
0.0
220
0.0
230
1.0
  2
SOLID
 70
     1
 71
     0
 91
        1
 92
        1
 93
        3
 72
     1
 10
97.97558726934291
 20
-173.7017143662968
 11
90.4642455828527
 21
-173.3330891493751
 72
     1
 10
90.4642455828527
 20
-173.3330891493751
 11
90.81357826505703
 21
-173.3330891493751
 72
     1
 10
90.81357826505703
 20
-173.3330891493751
 11
97.97558726934291
 21
-173.7017143662968
 97
        0
 75
     2
 76
     1
 98
        0
  0
POLYLINE
  5
27A
330
1F
100
AcDbEntity
  8
Ebene 1
370
     0
100
AcDb2dPolyline
 66
     1
 10
0.0
 20
0.0
 30
0.0
  0
VERTEX
  5
27B
330
27A
100
AcDbEntity
  8
Ebene 1
370
     0
100
AcDbVertex
100
AcDb2dVertex
 10
90.4642455828527
 20
-173.3330891493751
 30
0.0
  0
VERTEX
  5
27C
330
27A
100
AcDbEntity
  8
Ebene 1
370
     0
100
AcDbVertex
100
AcDb2dVertex
 10
90.81340601028276
 20
-173.3330891493751
 30
0.0
  0
VERTEX
  5
27D
330
27A
100
AcDbEntity
  8
Ebene 1
370
     0
100
AcDbVertex
100
AcDb2dVertex
 10
90.81340601028276
 20
-163.6089626327089
 30
0.0
  0
VERTEX
  5
27E
330
27A
100
AcDbEntity
  8
Ebene 1
370
     0
100
AcDbVertex
100
AcDb2dVertex
 10
90.4642455828527
 20
-173.3330891493751
 30
0.0
  0
SEQEND
  5
27F
330
27A
100
AcDbEntity
  8
Ebene 1
370
     0
  0
HATCH
  5
280
330
1F
100
AcDbEntity
  8
Ebene 1
 62
   139
420
  4081750
100
AcDbHatch
 10
0.0
 20
0.0
 30
0.0
210
0.0
220
0.0
230
1.0
  2
SOLID
 70
     1
 71
     0
 91
        1
 92
        1
 93
        3
 72
     1
 10
90.4642455828527
 20
-173.3330891493751
 11
90.81340601028276
 21
-173.3330891493751
 72
     1
 10
90.81340601028276
 20
-173.3330891493751
 11
90.81340601028276
 21
-163.6089626327089
 72
     1
 10
90.81340601028276
 20
-163.6089626327089
 11
90.4642455828527
 21
-173.3330891493751
 97
        0
 75
     2
 76
     1
 98
        0
  0
POLYLINE
  5
281
330
1F
100
AcDbEntity
  8
Ebene 1
370
     0
100
AcDb2dPolyline
 66
     1
 10
0.0
 20
0.0
 30
0.0
  0
VERTEX
  5
282
330
281
100
AcDbEntity
  8
Ebene 1
370
     0
100
AcDbVertex
100
AcDb2dVertex
 10
97.97558726934291
 20
-173.7017143662968
 30
0.0
  0
VERTEX
  5
283
330
281
100
AcDbEntity
  8
Ebene 1
370
     0
100
AcDbVertex
100
AcDb2dVertex
 10
90.81357826505703
 20
-173.3330891493751
 30
0.0
  0
VERTEX
  5
284
330
281
100
AcDbEntity
  8
Ebene 1
370
     0
100
AcDbVertex
100
AcDb2dVertex
 10
97.97558726934291
 20
-173.3330891493751
 30
0.0
  0
VERTEX
  5
285
330
281
100
AcDbEntity
  8
Ebene 1
370
     0
100
AcDbVertex
100
AcDb2dVertex
 10
97.97558726934291
 20
-173.7017143662968
 30
0.0
  0
SEQEND
  5
286
330
281
100
AcDbEntity
  8
Ebene 1
370
     0
  0
HATCH
  5
287
330
1F
100
AcDbEntity
  8
Ebene 1
 62
   139
420
  4081750
100
AcDbHatch
 10
0.0
 20
0.0
 30
0.0
210
0.0
220
0.0
230
1.0
  2
SOLID
 70
     1
 71
     0
 91
        1
 92
        1
 93
        3
 72
     1
 10
97.97558726934291
 20
-173.7017143662968
 11
90.81357826505703
 21
-173.3330891493751
 72
     1
 10
90.81357826505703
 20
-173.3330891493751
 11
97.97558726934291
 21
-173.3330891493751
 72
     1
 10
97.97558726934291
 20
-173.3330891493751
 11
97.97558726934291
 21
-173.7017143662968
 97
        0
 75
     2
 76
     1
 98
        0
  0
INSERT
  5
289
330
1F
100
AcDbEntity
  8
Ebene 1
100
AcDbBlockReference
  2
block 2
 10
0.0
 20
0.0
 30
0.0
  0
POLYLINE
  5
2F7
330
1F
100
AcDbEntity
  8
Ebene 1
 62
   179
420
  1709851
370
    20
100
AcDb2dPolyline
 66
     1
 10
0.0
 20
0.0
 30
0.0
  0
VERTEX
  5
2F8
330
2F7
100
AcDbEntity
  8
Ebene 1
 62
   179
420
  1709851
370
    20
100
AcDbVertex
100
AcDb2dVertex
 10
135.9414007906674
 20
-182.7664496070862
 30
0.0
  0
VERTEX
  5
2F9
330
2F7
100
AcDbEntity
  8
Ebene 1
 62
   179
420
  1709851
370
    20
100
AcDbVertex
100
AcDb2dVertex
 10
36.34954697441956
 20
-182.7664496070862
 30
0.0
  0
SEQEND
  5
2FA
330
2F7
100
AcDbEntity
  8
Ebene 1
370
    20
  0
POLYLINE
  5
2FB
330
1F
100
AcDbEntity
  8
Ebene 1
 62
   179
420
  1709851
370
    20
100
AcDb2dPolyline
 66
     1
 10
0.0
 20
0.0
 30
0.0
  0
VERTEX
  5
2FC
330
2FB
100
AcDbEntity
  8
Ebene 1
 62
   179
420
  1709851
370
    20
100
AcDbVertex
100
AcDb2dVertex
 10
36.34954697441956
 20
-184.2416394938702
 30
0.0
  0
VERTEX
  5
2FD
330
2FB
100
AcDbEntity
  8
Ebene 1
 62
   179
420
  1709851
370
    20
100
AcDbVertex
100
AcDb2dVertex
 10
135.9414007906674
 20
-184.2416394938702
 30
0.0
  0
SEQEND
  5
2FE
330
2FB
100
AcDbEntity
  8
Ebene 1
370
    20
  0
POLYLINE
  5
2FF
330
1F
100
AcDbEntity
  8
Ebene 1
 62
   179
420
  1709851
370
    20
100
AcDb2dPolyline
 66
     1
 10
0.0
 20
0.0
 30
0.0
  0
VERTEX
  5
300
330
2FF
100
AcDbEntity
  8
Ebene 1
 62
   179
420
  1709851
370
    20
100
AcDbVertex
100
AcDb2dVertex
 10
135.9414007906674
 20
-184.2416394938702
 30
0.0
  0
VERTEX
  5
301
330
2FF
100
AcDbEntity
  8
Ebene 1
 62
   179
420
  1709851
370
    20
100
AcDbVertex
100
AcDb2dVertex
 10
135.9414007906674
 20
-182.7664496070862
 30
0.0
  0
SEQEND
  5
302
330
2FF
100
AcDbEntity
  8
Ebene 1
370
    20
  0
POLYLINE
  5
303
330
1F
100
AcDbEntity
  8
Ebene 1
 62
   179
420
  1709851
370
    15
100
AcDb2dPolyline
 66
     1
 10
0.0
 20
0.0
 30
0.0
  0
VERTEX
  5
304
330
303
100
AcDbEntity
  8
Ebene 1
 62
   179
420
  1709851
370
    15
100
AcDbVertex
100
AcDb2dVertex
 10
168.5302815333883
 20
-175.8948621522069
 30
0.0
  0
VERTEX
  5
305
330
303
100
AcDbEntity
  8
Ebene 1
 62
   179
420
  1709851
370
    15
100
AcDbVertex
100
AcDb2dVertex
 10
165.3280652798485
 20
-175.8948621522069
 30
0.0
  0
SEQEND
  5
306
330
303
100
AcDbEntity
  8
Ebene 1
370
    15
  0
POLYLINE
  5
307
330
1F
100
AcDbEntity
  8
Ebene 1
 62
   179
420
  1709851
370
    15
100
AcDb2dPolyline
 66
     1
 10
0.0
 20
0.0
 30
0.0
  0
VERTEX
  5
308
330
307
100
AcDbEntity
  8
Ebene 1
 62
   179
420
  1709851
370
    15
100
AcDbVertex
100
AcDb2dVertex
 10
168.5302815333883
 20
-177.5450628896415
 30
0.0
  0
VERTEX
  5
309
330
307
100
AcDbEntity
  8
Ebene 1
 62
   179
420
  1709851
370
    15
100
AcDbVertex
100
AcDb2dVertex
 10
165.3280652798485
 20
-177.5450628896415
 30
0.0
  0
SEQEND
  5
30A
330
307
100
AcDbEntity
  8
Ebene 1
370
    15
  0
POLYLINE
  5
30B
330
1F
100
AcDbEntity
  8
Ebene 1
 62
   179
420
  1709851
370
    15
100
AcDb2dPolyline
 66
     1
 10
0.0
 20
0.0
 30
0.0
  0
VERTEX
  5
30C
330
30B
100
AcDbEntity
  8
Ebene 1
 62
   179
420
  1709851
370
    15
100
AcDbVertex
100
AcDb2dVertex
 10
164.5904703364565
 20
-178.282313323485
 30
0.0
  0
VERTEX
  5
30D
330
30B
100
AcDbEntity
  8
Ebene 1
 62
   179
420
  1709851
370
    15
100
AcDbVertex
100
AcDb2dVertex
 10
169.2678764767803
 20
-178.282313323485
 30
0.0
  0
SEQEND
  5
30E
330
30B
100
AcDbEntity
  8
Ebene 1
370
    15
  0
POLYLINE
  5
30F
330
1F
100
AcDbEntity
  8
Ebene 1
 62
   179
420
  1709851
370
    15
100
AcDb2dPolyline
 66
     1
 10
0.0
 20
0.0
 30
0.0
  0
VERTEX
  5
310
330
30F
100
AcDbEntity
  8
Ebene 1
 62
   179
420
  1709851
370
    15
100
AcDbVertex
100
AcDb2dVertex
 10
36.3493747196453
 20
-175.8948621522069
 30
0.0
  0
VERTEX
  5
311
330
30F
100
AcDbEntity
  8
Ebene 1
 62
   179
420
  1709851
370
    15
100
AcDbVertex
100
AcDb2dVertex
 10
103.6047010374669
 20
-175.8948621522069
 30
0.0
  0
SEQEND
  5
312
330
30F
100
AcDbEntity
  8
Ebene 1
370
    15
  0
POLYLINE
  5
313
330
1F
100
AcDbEntity
  8
Ebene 1
 62
   179
420
  1709851
370
    15
100
AcDb2dPolyline
 66
     1
 10
0.0
 20
0.0
 30
0.0
  0
VERTEX
  5
314
330
313
100
AcDbEntity
  8
Ebene 1
 62
   179
420
  1709851
370
    15
100
AcDbVertex
100
AcDb2dVertex
 10
36.3493747196453
 20
-177.5450628896415
 30
0.0
  0
VERTEX
  5
315
330
313
100
AcDbEntity
  8
Ebene 1
 62
   179
420
  1709851
370
    15
100
AcDbVertex
100
AcDb2dVertex
 10
103.6047010374669
 20
-177.5450628896415
 30
0.0
  0
SEQEND
  5
316
330
313
100
AcDbEntity
  8
Ebene 1
370
    15
  0
POLYLINE
  5
317
330
1F
100
AcDbEntity
  8
Ebene 1
 62
   179
420
  1709851
370
    15
100
AcDb2dPolyline
 66
     1
 10
0.0
 20
0.0
 30
0.0
  0
VERTEX
  5
318
330
317
100
AcDbEntity
  8
Ebene 1
 62
   179
420
  1709851
370
    15
100
AcDbVertex
100
AcDb2dVertex
 10
36.3493747196453
 20
-178.282313323485
 30
0.0
  0
VERTEX
  5
319
330
317
100
AcDbEntity
  8
Ebene 1
 62
   179
420
  1709851
370
    15
100
AcDbVertex
100
AcDb2dVertex
 10
103.6047010374669
 20
-178.282313323485
 30
0.0
  0
SEQEND
  5
31A
330
317
100
AcDbEntity
  8
Ebene 1
370
    15
  0
POLYLINE
  5
31B
330
1F
100
AcDbEntity
  8
Ebene 1
 62
   179
420
  1709851
370
    20
100
AcDb2dPolyline
 66
     1
 10
0.0
 20
0.0
 30
0.0
  0
VERTEX
  5
31C
330
31B
100
AcDbEntity
  8
Ebene 1
 62
   179
420
  1709851
370
    20
100
AcDbVertex
100
AcDb2dVertex
 10
137.3969536331855
 20
-182.7664496070862
 30
0.0
  0
VERTEX
  5
31D
330
31B
100
AcDbEntity
  8
Ebene 1
 62
   179
420
  1709851
370
    20
100
AcDbVertex
100
AcDb2dVertex
 10
190.3859672918132
 20
-182.7664496070862
 30
0.0
  0
SEQEND
  5
31E
330
31B
100
AcDbEntity
  8
Ebene 1
370
    20
  0
POLYLINE
  5
31F
330
1F
100
AcDbEntity
  8
Ebene 1
 62
   179
420
  1709851
370
    20
100
AcDb2dPolyline
 66
     1
 10
0.0
 20
0.0
 30
0.0
  0
VERTEX
  5
320
330
31F
100
AcDbEntity
  8
Ebene 1
 62
   179
420
  1709851
370
    20
100
AcDbVertex
100
AcDb2dVertex
 10
190.3859672918132
 20
-184.2416394938702
 30
0.0
  0
VERTEX
  5
321
330
31F
100
AcDbEntity
  8
Ebene 1
 62
   179
420
  1709851
370
    20
100
AcDbVertex
100
AcDb2dVertex
 10
137.3969536331855
 20
-184.2416394938702
 30
0.0
  0
SEQEND
  5
322
330
31F
100
AcDbEntity
  8
Ebene 1
370
    20
  0
POLYLINE
  5
323
330
1F
100
AcDbEntity
  8
Ebene 1
 62
   179
420
  1709851
370
    20
100
AcDb2dPolyline
 66
     1
 10
0.0
 20
0.0
 30
0.0
  0
VERTEX
  5
324
330
323
100
AcDbEntity
  8
Ebene 1
 62
   179
420
  1709851
370
    20
100
AcDbVertex
100
AcDb2dVertex
 10
137.3969536331855
 20
-184.2416394938702
 30
0.0
  0
VERTEX
  5
325
330
323
100
AcDbEntity
  8
Ebene 1
 62
   179
420
  1709851
370
    20
100
AcDbVertex
100
AcDb2dVertex
 10
137.3969536331855
 20
-182.7664496070862
 30
0.0
  0
SEQEND
  5
326
330
323
100
AcDbEntity
  8
Ebene 1
370
    20
  0
INSERT
  5
328
330
1F
100
AcDbEntity
  8
Ebene 1
100
AcDbBlockReference
  2
block 3
 10
0.0
 20
0.0
 30
0.0
  0
POLYLINE
  5
5B8
330
1F
100
AcDbEntity
  8
Ebene 1
 62
   179
420
  1709851
370
    30
100
AcDb2dPolyline
 66
     1
 10
0.0
 20
0.0
 30
0.0
  0
VERTEX
  5
5B9
330
5B8
100
AcDbEntity
  8
Ebene 1
 62
   179
420
  1709851
370
    30
100
AcDbVertex
100
AcDb2dVertex
 10
87.37795679239163
 20
-139.9482190947872
 30
0.0
  0
VERTEX
  5
5BA
330
5B8
100
AcDbEntity
  8
Ebene 1
 62
   179
420
  1709851
370
    30
100
AcDbVertex
100
AcDb2dVertex
 10
87.37795679239163
 20
-133.5238050338934
 30
0.0
  0
SEQEND
  5
5BB
330
5B8
100
AcDbEntity
  8
Ebene 1
370
    30
  0
POLYLINE
  5
5BC
330
1F
100
AcDbEntity
  8
Ebene 1
 62
   179
420
  1709851
370
    30
100
AcDb2dPolyline
 66
     1
 10
0.0
 20
0.0
 30
0.0
  0
VERTEX
  5
5BD
330
5BC
100
AcDbEntity
  8
Ebene 1
 62
   179
420
  1709851
370
    30
100
AcDbVertex
100
AcDb2dVertex
 10
87.37795679239163
 20
-141.7727416637756
 30
0.0
  0
VERTEX
  5
5BE
330
5BC
100
AcDbEntity
  8
Ebene 1
 62
   179
420
  1709851
370
    30
100
AcDbVertex
100
AcDb2dVertex
 10
87.37795679239163
 20
-140.8604803792814
 30
0.0
  0
SEQEND
  5
5BF
330
5BC
100
AcDbEntity
  8
Ebene 1
370
    30
  0
POLYLINE
  5
5C0
330
1F
100
AcDbEntity
  8
Ebene 1
 62
   179
420
  1709851
370
    30
100
AcDb2dPolyline
 66
     1
 10
0.0
 20
0.0
 30
0.0
  0
VERTEX
  5
5C1
330
5C0
100
AcDbEntity
  8
Ebene 1
 62
   179
420
  1709851
370
    30
100
AcDbVertex
100
AcDb2dVertex
 10
87.37795679239163
 20
-149.1092447543894
 30
0.0
  0
VERTEX
  5
5C2
330
5C0
100
AcDbEntity
  8
Ebene 1
 62
   179
420
  1709851
370
    30
100
AcDbVertex
100
AcDb2dVertex
 10
87.37795679239163
 20
-142.6850029482697
 30
0.0
  0
SEQEND
  5
5C3
330
5C0
100
AcDbEntity
  8
Ebene 1
370
    30
  0
POLYLINE
  5
5C4
330
1F
100
AcDbEntity
  8
Ebene 1
 62
   179
420
  1709851
370
    30
100
AcDb2dPolyline
 66
     1
 10
0.0
 20
0.0
 30
0.0
  0
VERTEX
  5
5C5
330
5C4
100
AcDbEntity
  8
Ebene 1
 62
   179
420
  1709851
370
    30
100
AcDbVertex
100
AcDb2dVertex
 10
87.37795679239163
 20
-150.9337673233777
 30
0.0
  0
VERTEX
  5
5C6
330
5C4
100
AcDbEntity
  8
Ebene 1
 62
   179
420
  1709851
370
    30
100
AcDbVertex
100
AcDb2dVertex
 10
87.37795679239163
 20
-150.0221950579806
 30
0.0
  0
SEQEND
  5
5C7
330
5C4
100
AcDbEntity
  8
Ebene 1
370
    30
  0
POLYLINE
  5
5C8
330
1F
100
AcDbEntity
  8
Ebene 1
 62
   179
420
  1709851
370
    30
100
AcDb2dPolyline
 66
     1
 10
0.0
 20
0.0
 30
0.0
  0
VERTEX
  5
5C9
330
5C8
100
AcDbEntity
  8
Ebene 1
 62
   179
420
  1709851
370
    30
100
AcDbVertex
100
AcDb2dVertex
 10
87.37795679239163
 20
-153.7869954042616
 30
0.0
  0
VERTEX
  5
5CA
330
5C8
100
AcDbEntity
  8
Ebene 1
 62
   179
420
  1709851
370
    30
100
AcDbVertex
100
AcDb2dVertex
 10
87.37795679239163
 20
-153.7869954042616
 30
0.0
  0
VERTEX
  5
5CB
330
5C8
100
AcDbEntity
  8
Ebene 1
 62
   179
420
  1709851
370
    30
100
AcDbVertex
100
AcDb2dVertex
 10
87.37795679239163
 20
-151.8653211425892
 30
0.0
  0
SEQEND
  5
5CC
330
5C8
100
AcDbEntity
  8
Ebene 1
370
    30
  0
POLYLINE
  5
5CD
330
1F
100
AcDbEntity
  8
Ebene 1
 62
   179
420
  1709851
370
    15
100
AcDb2dPolyline
 66
     1
 10
0.0
 20
0.0
 30
0.0
  0
VERTEX
  5
5CE
330
5CD
100
AcDbEntity
  8
Ebene 1
 62
   179
420
  1709851
370
    15
100
AcDbVertex
100
AcDb2dVertex
 10
24.87841253718318
 20
-182.7664496070862
 30
0.0
  0
VERTEX
  5
5CF
330
5CD
100
AcDbEntity
  8
Ebene 1
 62
   179
420
  1709851
370
    15
100
AcDbVertex
100
AcDb2dVertex
 10
26.23698594179145
 20
-182.7664496070862
 30
0.0
  0
SEQEND
  5
5D0
330
5CD
100
AcDbEntity
  8
Ebene 1
370
    15
  0
POLYLINE
  5
5D1
330
1F
100
AcDbEntity
  8
Ebene 1
 62
   179
420
  1709851
370
    15
100
AcDb2dPolyline
 66
     1
 10
0.0
 20
0.0
 30
0.0
  0
VERTEX
  5
5D2
330
5D1
100
AcDbEntity
  8
Ebene 1
 62
   179
420
  1709851
370
    15
100
AcDbVertex
100
AcDb2dVertex
 10
24.87841253718318
 20
-182.7664496070862
 30
0.0
  0
VERTEX
  5
5D3
330
5D1
100
AcDbEntity
  8
Ebene 1
 62
   179
420
  1709851
370
    15
100
AcDbVertex
100
AcDb2dVertex
 10
23.50002983353471
 20
-182.7664496070862
 30
0.0
  0
SEQEND
  5
5D4
330
5D1
100
AcDbEntity
  8
Ebene 1
370
    15
  0
POLYLINE
  5
5D5
330
1F
100
AcDbEntity
  8
Ebene 1
 62
   179
420
  1709851
370
    15
100
AcDb2dPolyline
 66
     1
 10
0.0
 20
0.0
 30
0.0
  0
VERTEX
  5
5D6
330
5D5
100
AcDbEntity
  8
Ebene 1
 62
   179
420
  1709851
370
    15
100
AcDbVertex
100
AcDb2dVertex
 10
24.87841253718318
 20
-184.2416394938702
 30
0.0
  0
VERTEX
  5
5D7
330
5D5
100
AcDbEntity
  8
Ebene 1
 62
   179
420
  1709851
370
    15
100
AcDbVertex
100
AcDb2dVertex
 10
26.23698594179145
 20
-184.2416394938702
 30
0.0
  0
SEQEND
  5
5D8
330
5D5
100
AcDbEntity
  8
Ebene 1
370
    15
  0
POLYLINE
  5
5D9
330
1F
100
AcDbEntity
  8
Ebene 1
 62
   179
420
  1709851
370
    15
100
AcDb2dPolyline
 66
     1
 10
0.0
 20
0.0
 30
0.0
  0
VERTEX
  5
5DA
330
5D9
100
AcDbEntity
  8
Ebene 1
 62
   179
420
  1709851
370
    15
100
AcDbVertex
100
AcDb2dVertex
 10
24.87841253718318
 20
-184.2416394938702
 30
0.0
  0
VERTEX
  5
5DB
330
5D9
100
AcDbEntity
  8
Ebene 1
 62
   179
420
  1709851
370
    15
100
AcDbVertex
100
AcDb2dVertex
 10
23.50002983353471
 20
-184.2416394938702
 30
0.0
  0
SEQEND
  5
5DC
330
5D9
100
AcDbEntity
  8
Ebene 1
370
    15
  0
POLYLINE
  5
5DD
330
1F
100
AcDbEntity
  8
Ebene 1
 62
   179
420
  1709851
370
    15
100
AcDb2dPolyline
 66
     1
 10
0.0
 20
0.0
 30
0.0
  0
VERTEX
  5
5DE
330
5DD
100
AcDbEntity
  8
Ebene 1
 62
   179
420
  1709851
370
    15
100
AcDbVertex
100
AcDb2dVertex
 10
24.87841253718318
 20
-184.2416394938702
 30
0.0
  0
VERTEX
  5
5DF
330
5DD
100
AcDbEntity
  8
Ebene 1
 62
   179
420
  1709851
370
    15
100
AcDbVertex
100
AcDb2dVertex
 10
24.87841253718318
 20
-185.6196776879701
 30
0.0
  0
SEQEND
  5
5E0
330
5DD
100
AcDbEntity
  8
Ebene 1
370
    15
  0
POLYLINE
  5
5E1
330
1F
100
AcDbEntity
  8
Ebene 1
 62
   179
420
  1709851
370
    15
100
AcDb2dPolyline
 66
     1
 10
0.0
 20
0.0
 30
0.0
  0
VERTEX
  5
5E2
330
5E1
100
AcDbEntity
  8
Ebene 1
 62
   179
420
  1709851
370
    15
100
AcDbVertex
100
AcDb2dVertex
 10
25.69334987421902
 20
-183.6008517336137
 30
0.0
  0
VERTEX
  5
5E3
330
5E1
100
AcDbEntity
  8
Ebene 1
 62
   179
420
  1709851
370
    15
100
AcDbVertex
100
AcDb2dVertex
 10
24.04366590110714
 20
-181.9513400152761
 30
0.0
  0
SEQEND
  5
5E4
330
5E1
100
AcDbEntity
  8
Ebene 1
370
    15
  0
POLYLINE
  5
5E5
330
1F
100
AcDbEntity
  8
Ebene 1
 62
   179
420
  1709851
370
    15
100
AcDb2dPolyline
 66
     1
 10
0.0
 20
0.0
 30
0.0
  0
VERTEX
  5
5E6
330
5E5
100
AcDbEntity
  8
Ebene 1
 62
   179
420
  1709851
370
    15
100
AcDbVertex
100
AcDb2dVertex
 10
25.69334987421902
 20
-185.0567490856803
 30
0.0
  0
VERTEX
  5
5E7
330
5E5
100
AcDbEntity
  8
Ebene 1
 62
   179
420
  1709851
370
    15
100
AcDbVertex
100
AcDb2dVertex
 10
24.04366590110714
 20
-183.4072373673426
 30
0.0
  0
SEQEND
  5
5E8
330
5E5
100
AcDbEntity
  8
Ebene 1
370
    15
  0
POLYLINE
  5
5E9
330
1F
100
AcDbEntity
  8
Ebene 1
 62
   179
420
  1709851
370
    15
100
AcDb2dPolyline
 66
     1
 10
0.0
 20
0.0
 30
0.0
  0
VERTEX
  5
5EA
330
5E9
100
AcDbEntity
  8
Ebene 1
 62
   179
420
  1709851
370
    15
100
AcDbVertex
100
AcDb2dVertex
 10
91.27918291988854
 20
-170.4798610684911
 30
0.0
  0
VERTEX
  5
5EB
330
5E9
100
AcDbEntity
  8
Ebene 1
 62
   179
420
  1709851
370
    15
100
AcDbVertex
100
AcDb2dVertex
 10
91.27918291988854
 20
-151.2252224014298
 30
0.0
  0
SEQEND
  5
5EC
330
5E9
100
AcDbEntity
  8
Ebene 1
370
    15
  0
POLYLINE
  5
5ED
330
1F
100
AcDbEntity
  8
Ebene 1
 62
   179
420
  1709851
370
    15
100
AcDb2dPolyline
 66
     1
 10
0.0
 20
0.0
 30
0.0
  0
VERTEX
  5
5EE
330
5ED
100
AcDbEntity
  8
Ebene 1
 62
   179
420
  1709851
370
    15
100
AcDbVertex
100
AcDb2dVertex
 10
90.81357826505703
 20
-152.8754231388645
 30
0.0
  0
VERTEX
  5
5EF
330
5ED
100
AcDbEntity
  8
Ebene 1
 62
   179
420
  1709851
370
    15
100
AcDbVertex
100
AcDb2dVertex
 10
90.81357826505703
 20
-170.4798610684911
 30
0.0
  0
SEQEND
  5
5F0
330
5ED
100
AcDbEntity
  8
Ebene 1
370
    15
  0
POLYLINE
  5
5F1
330
1F
100
AcDbEntity
  8
Ebene 1
 62
   179
420
  1709851
370
    15
100
AcDb2dPolyline
 66
     1
 10
0.0
 20
0.0
 30
0.0
  0
VERTEX
  5
5F2
330
5F1
100
AcDbEntity
  8
Ebene 1
 62
   179
420
  1709851
370
    15
100
AcDbVertex
100
AcDb2dVertex
 10
90.81357826505703
 20
-170.4798610684911
 30
0.0
  0
VERTEX
  5
5F3
330
5F1
100
AcDbEntity
  8
Ebene 1
 62
   179
420
  1709851
370
    15
100
AcDbVertex
100
AcDb2dVertex
 10
91.27918291988854
 20
-170.4798610684911
 30
0.0
  0
SEQEND
  5
5F4
330
5F1
100
AcDbEntity
  8
Ebene 1
370
    15
  0
POLYLINE
  5
5F5
330
1F
100
AcDbEntity
  8
Ebene 1
 62
   179
420
  1709851
370
    15
100
AcDb2dPolyline
 66
     1
 10
0.0
 20
0.0
 30
0.0
  0
VERTEX
  5
5F6
330
5F5
100
AcDbEntity
  8
Ebene 1
 62
   179
420
  1709851
370
    15
100
AcDbVertex
100
AcDb2dVertex
 10
91.35686982308093
 20
-151.2252224014298
 30
0.0
  0
VERTEX
  5
5F7
330
5F5
100
AcDbEntity
  8
Ebene 1
 62
   179
420
  1709851
370
    15
100
AcDbVertex
100
AcDb2dVertex
 10
95.95710582453503
 20
-165.899262111303
 30
0.0
  0
SEQEND
  5
5F8
330
5F5
100
AcDbEntity
  8
Ebene 1
370
    15
  0
POLYLINE
  5
5F9
330
1F
100
AcDbEntity
  8
Ebene 1
 62
   179
420
  1709851
370
    15
100
AcDb2dPolyline
 66
     1
 10
0.0
 20
0.0
 30
0.0
  0
VERTEX
  5
5FA
330
5F9
100
AcDbEntity
  8
Ebene 1
 62
   179
420
  1709851
370
    15
100
AcDbVertex
100
AcDb2dVertex
 10
86.77644312066701
 20
-165.899262111303
 30
0.0
  0
VERTEX
  5
5FB
330
5F9
100
AcDbEntity
  8
Ebene 1
 62
   179
420
  1709851
370
    15
100
AcDbVertex
100
AcDb2dVertex
 10
90.81357826505703
 20
-152.9525932777341
 30
0.0
  0
SEQEND
  5
5FC
330
5F9
100
AcDbEntity
  8
Ebene 1
370
    15
  0
POLYLINE
  5
5FD
330
1F
100
AcDbEntity
  8
Ebene 1
 62
   179
420
  1709851
370
    15
100
AcDb2dPolyline
 66
     1
 10
0.0
 20
0.0
 30
0.0
  0
VERTEX
  5
5FE
330
5FD
100
AcDbEntity
  8
Ebene 1
 62
   179
420
  1709851
370
    15
100
AcDbVertex
100
AcDb2dVertex
 10
90.81357826505703
 20
-163.6089626327089
 30
0.0
  0
VERTEX
  5
5FF
330
5FD
100
AcDbEntity
  8
Ebene 1
 62
   179
420
  1709851
370
    15
100
AcDbVertex
100
AcDb2dVertex
 10
90.09527585638243
 20
-164.3462130665523
 30
0.0
  0
SEQEND
  5
600
330
5FD
100
AcDbEntity
  8
Ebene 1
370
    15
  0
POLYLINE
  5
601
330
1F
100
AcDbEntity
  8
Ebene 1
 62
   179
420
  1709851
370
    15
100
AcDb2dPolyline
 66
     1
 10
0.0
 20
0.0
 30
0.0
  0
VERTEX
  5
602
330
601
100
AcDbEntity
  8
Ebene 1
 62
   179
420
  1709851
370
    15
100
AcDbVertex
100
AcDb2dVertex
 10
90.09527585638243
 20
-164.3462130665523
 30
0.0
  0
VERTEX
  5
603
330
601
100
AcDbEntity
  8
Ebene 1
 62
   179
420
  1709851
370
    15
100
AcDbVertex
100
AcDb2dVertex
 10
90.09527585638243
 20
-165.0834635003958
 30
0.0
  0
VERTEX
  5
604
330
601
100
AcDbEntity
  8
Ebene 1
 62
   179
420
  1709851
370
    15
100
AcDbVertex
100
AcDb2dVertex
 10
90.46407332807843
 20
-165.0834635003958
 30
0.0
  0
SEQEND
  5
605
330
601
100
AcDbEntity
  8
Ebene 1
370
    15
  0
POLYLINE
  5
606
330
1F
100
AcDbEntity
  8
Ebene 1
 62
   179
420
  1709851
370
    15
100
AcDb2dPolyline
 66
     1
 10
0.0
 20
0.0
 30
0.0
  0
VERTEX
  5
607
330
606
100
AcDbEntity
  8
Ebene 1
 62
   179
420
  1709851
370
    15
100
AcDbVertex
100
AcDb2dVertex
 10
92.19161645915696
 20
-167.7237846802913
 30
0.0
  0
VERTEX
  5
608
330
606
100
AcDbEntity
  8
Ebene 1
 62
   179
420
  1709851
370
    15
100
AcDbVertex
100
AcDb2dVertex
 10
89.45466035090023
 20
-167.7237846802913
 30
0.0
  0
SEQEND
  5
609
330
606
100
AcDbEntity
  8
Ebene 1
370
    15
  0
POLYLINE
  5
60A
330
1F
100
AcDbEntity
  8
Ebene 1
 62
   179
420
  1709851
370
    15
100
AcDb2dPolyline
 66
     1
 10
0.0
 20
0.0
 30
0.0
  0
VERTEX
  5
60B
330
60A
100
AcDbEntity
  8
Ebene 1
 62
   179
420
  1709851
370
    15
100
AcDbVertex
100
AcDb2dVertex
 10
29.34256726696992
 20
-178.282313323485
 30
0.0
  0
VERTEX
  5
60C
330
60A
100
AcDbEntity
  8
Ebene 1
 62
   179
420
  1709851
370
    15
100
AcDbVertex
100
AcDb2dVertex
 10
30.72060546106985
 20
-178.282313323485
 30
0.0
  0
SEQEND
  5
60D
330
60A
100
AcDbEntity
  8
Ebene 1
370
    15
  0
POLYLINE
  5
60E
330
1F
100
AcDbEntity
  8
Ebene 1
 62
   179
420
  1709851
370
    15
100
AcDb2dPolyline
 66
     1
 10
0.0
 20
0.0
 30
0.0
  0
VERTEX
  5
60F
330
60E
100
AcDbEntity
  8
Ebene 1
 62
   179
420
  1709851
370
    15
100
AcDbVertex
100
AcDb2dVertex
 10
29.34256726696992
 20
-178.282313323485
 30
0.0
  0
VERTEX
  5
610
330
60E
100
AcDbEntity
  8
Ebene 1
 62
   179
420
  1709851
370
    15
100
AcDbVertex
100
AcDb2dVertex
 10
27.96435681809572
 20
-178.282313323485
 30
0.0
  0
SEQEND
  5
611
330
60E
100
AcDbEntity
  8
Ebene 1
370
    15
  0
POLYLINE
  5
612
330
1F
100
AcDbEntity
  8
Ebene 1
 62
   179
420
  1709851
370
    15
100
AcDb2dPolyline
 66
     1
 10
0.0
 20
0.0
 30
0.0
  0
VERTEX
  5
613
330
612
100
AcDbEntity
  8
Ebene 1
 62
   179
420
  1709851
370
    15
100
AcDbVertex
100
AcDb2dVertex
 10
29.34256726696992
 20
-182.7664496070862
 30
0.0
  0
VERTEX
  5
614
330
612
100
AcDbEntity
  8
Ebene 1
 62
   179
420
  1709851
370
    15
100
AcDbVertex
100
AcDb2dVertex
 10
30.72060546106985
 20
-182.7664496070862
 30
0.0
  0
SEQEND
  5
615
330
612
100
AcDbEntity
  8
Ebene 1
370
    15
  0
POLYLINE
  5
616
330
1F
100
AcDbEntity
  8
Ebene 1
 62
   179
420
  1709851
370
    15
100
AcDb2dPolyline
 66
     1
 10
0.0
 20
0.0
 30
0.0
  0
VERTEX
  5
617
330
616
100
AcDbEntity
  8
Ebene 1
 62
   179
420
  1709851
370
    15
100
AcDbVertex
100
AcDb2dVertex
 10
29.34256726696992
 20
-182.7664496070862
 30
0.0
  0
VERTEX
  5
618
330
616
100
AcDbEntity
  8
Ebene 1
 62
   179
420
  1709851
370
    15
100
AcDbVertex
100
AcDb2dVertex
 10
27.96435681809572
 20
-182.7664496070862
 30
0.0
  0
SEQEND
  5
619
330
616
100
AcDbEntity
  8
Ebene 1
370
    15
  0
POLYLINE
  5
61A
330
1F
100
AcDbEntity
  8
Ebene 1
 62
   179
420
  1709851
370
    15
100
AcDb2dPolyline
 66
     1
 10
0.0
 20
0.0
 30
0.0
  0
VERTEX
  5
61B
330
61A
100
AcDbEntity
  8
Ebene 1
 62
   179
420
  1709851
370
    15
100
AcDbVertex
100
AcDb2dVertex
 10
29.34256726696992
 20
-182.7664496070862
 30
0.0
  0
VERTEX
  5
61C
330
61A
100
AcDbEntity
  8
Ebene 1
 62
   179
420
  1709851
370
    15
100
AcDbVertex
100
AcDb2dVertex
 10
29.34256726696992
 20
-184.143798782089
 30
0.0
  0
SEQEND
  5
61D
330
61A
100
AcDbEntity
  8
Ebene 1
370
    15
  0
POLYLINE
  5
61E
330
1F
100
AcDbEntity
  8
Ebene 1
 62
   179
420
  1709851
370
    15
100
AcDb2dPolyline
 66
     1
 10
0.0
 20
0.0
 30
0.0
  0
VERTEX
  5
61F
330
61E
100
AcDbEntity
  8
Ebene 1
 62
   179
420
  1709851
370
    15
100
AcDbVertex
100
AcDb2dVertex
 10
30.15784911355429
 20
-179.1167154500125
 30
0.0
  0
VERTEX
  5
620
330
61E
100
AcDbEntity
  8
Ebene 1
 62
   179
420
  1709851
370
    15
100
AcDbVertex
100
AcDb2dVertex
 10
28.50799288566814
 20
-177.4672037316749
 30
0.0
  0
SEQEND
  5
621
330
61E
100
AcDbEntity
  8
Ebene 1
370
    15
  0
POLYLINE
  5
622
330
1F
100
AcDbEntity
  8
Ebene 1
 62
   179
420
  1709851
370
    15
100
AcDb2dPolyline
 66
     1
 10
0.0
 20
0.0
 30
0.0
  0
VERTEX
  5
623
330
622
100
AcDbEntity
  8
Ebene 1
 62
   179
420
  1709851
370
    15
100
AcDbVertex
100
AcDb2dVertex
 10
30.15784911355429
 20
-183.6008517336137
 30
0.0
  0
VERTEX
  5
624
330
622
100
AcDbEntity
  8
Ebene 1
 62
   179
420
  1709851
370
    15
100
AcDbVertex
100
AcDb2dVertex
 10
28.50799288566814
 20
-181.9513400152761
 30
0.0
  0
SEQEND
  5
625
330
622
100
AcDbEntity
  8
Ebene 1
370
    15
  0
POLYLINE
  5
626
330
1F
100
AcDbEntity
  8
Ebene 1
 62
   179
420
  1709851
370
    15
100
AcDb2dPolyline
 66
     1
 10
0.0
 20
0.0
 30
0.0
  0
VERTEX
  5
627
330
626
100
AcDbEntity
  8
Ebene 1
 62
   179
420
  1709851
370
    15
100
AcDbVertex
100
AcDb2dVertex
 10
24.87824028240891
 20
-165.899262111303
 30
0.0
  0
VERTEX
  5
628
330
626
100
AcDbEntity
  8
Ebene 1
 62
   179
420
  1709851
370
    15
100
AcDbVertex
100
AcDb2dVertex
 10
24.87824028240891
 20
-151.2252224014298
 30
0.0
  0
SEQEND
  5
629
330
626
100
AcDbEntity
  8
Ebene 1
370
    15
  0
INSERT
  5
62B
330
1F
100
AcDbEntity
  8
Ebene 1
100
AcDbBlockReference
  2
block 4
 10
0.0
 20
0.0
 30
0.0
  0
POLYLINE
  5
636
330
1F
100
AcDbEntity
  8
Ebene 1
 62
   179
420
  1709851
370
    15
100
AcDb2dPolyline
 66
     1
 10
0.0
 20
0.0
 30
0.0
  0
VERTEX
  5
637
330
636
100
AcDbEntity
  8
Ebene 1
 62
   179
420
  1709851
370
    15
100
AcDbVertex
100
AcDb2dVertex
 10
29.34256726696992
 20
-151.2252224014298
 30
0.0
  0
VERTEX
  5
638
330
636
100
AcDbEntity
  8
Ebene 1
 62
   179
420
  1709851
370
    15
100
AcDbVertex
100
AcDb2dVertex
 10
30.72060546106985
 20
-151.2252224014298
 30
0.0
  0
SEQEND
  5
639
330
636
100
AcDbEntity
  8
Ebene 1
370
    15
  0
POLYLINE
  5
63A
330
1F
100
AcDbEntity
  8
Ebene 1
 62
   179
420
  1709851
370
    15
100
AcDb2dPolyline
 66
     1
 10
0.0
 20
0.0
 30
0.0
  0
VERTEX
  5
63B
330
63A
100
AcDbEntity
  8
Ebene 1
 62
   179
420
  1709851
370
    15
100
AcDbVertex
100
AcDb2dVertex
 10
29.34256726696992
 20
-151.2252224014298
 30
0.0
  0
VERTEX
  5
63C
330
63A
100
AcDbEntity
  8
Ebene 1
 62
   179
420
  1709851
370
    15
100
AcDbVertex
100
AcDb2dVertex
 10
27.96418456332146
 20
-151.2252224014298
 30
0.0
  0
SEQEND
  5
63D
330
63A
100
AcDbEntity
  8
Ebene 1
370
    15
  0
POLYLINE
  5
63E
330
1F
100
AcDbEntity
  8
Ebene 1
 62
   179
420
  1709851
370
    15
100
AcDb2dPolyline
 66
     1
 10
0.0
 20
0.0
 30
0.0
  0
VERTEX
  5
63F
330
63E
100
AcDbEntity
  8
Ebene 1
 62
   179
420
  1709851
370
    15
100
AcDbVertex
100
AcDb2dVertex
 10
29.34256726696992
 20
-151.2252224014298
 30
0.0
  0
VERTEX
  5
640
330
63E
100
AcDbEntity
  8
Ebene 1
 62
   179
420
  1709851
370
    15
100
AcDbVertex
100
AcDb2dVertex
 10
29.34256726696992
 20
-149.8471842073299
 30
0.0
  0
SEQEND
  5
641
330
63E
100
AcDbEntity
  8
Ebene 1
370
    15
  0
POLYLINE
  5
642
330
1F
100
AcDbEntity
  8
Ebene 1
 62
   179
420
  1709851
370
    15
100
AcDb2dPolyline
 66
     1
 10
0.0
 20
0.0
 30
0.0
  0
VERTEX
  5
643
330
642
100
AcDbEntity
  8
Ebene 1
 62
   179
420
  1709851
370
    15
100
AcDbVertex
100
AcDb2dVertex
 10
30.15784911355429
 20
-152.0596245279573
 30
0.0
  0
VERTEX
  5
644
330
642
100
AcDbEntity
  8
Ebene 1
 62
   179
420
  1709851
370
    15
100
AcDbVertex
100
AcDb2dVertex
 10
28.50782063089388
 20
-150.4101128096197
 30
0.0
  0
SEQEND
  5
645
330
642
100
AcDbEntity
  8
Ebene 1
370
    15
  0
POLYLINE
  5
646
330
1F
100
AcDbEntity
  8
Ebene 1
 62
   179
420
  1709851
370
    15
100
AcDb2dPolyline
 66
     1
 10
0.0
 20
0.0
 30
0.0
  0
VERTEX
  5
647
330
646
100
AcDbEntity
  8
Ebene 1
 62
   179
420
  1709851
370
    15
100
AcDbVertex
100
AcDb2dVertex
 10
29.34256726696992
 20
-182.7664496070862
 30
0.0
  0
VERTEX
  5
648
330
646
100
AcDbEntity
  8
Ebene 1
 62
   179
420
  1709851
370
    15
100
AcDbVertex
100
AcDb2dVertex
 10
29.34256726696992
 20
-178.282313323485
 30
0.0
  0
SEQEND
  5
649
330
646
100
AcDbEntity
  8
Ebene 1
370
    15
  0
INSERT
  5
64B
330
1F
100
AcDbEntity
  8
Ebene 1
100
AcDbBlockReference
  2
block 5
 10
0.0
 20
0.0
 30
0.0
  0
POLYLINE
  5
656
330
1F
100
AcDbEntity
  8
Ebene 1
 62
   179
420
  1709851
370
    15
100
AcDb2dPolyline
 66
     1
 10
0.0
 20
0.0
 30
0.0
  0
VERTEX
  5
657
330
656
100
AcDbEntity
  8
Ebene 1
 62
   179
420
  1709851
370
    15
100
AcDbVertex
100
AcDb2dVertex
 10
33.20520832503203
 20
-173.7017143662968
 30
0.0
  0
VERTEX
  5
658
330
656
100
AcDbEntity
  8
Ebene 1
 62
   179
420
  1709851
370
    15
100
AcDbVertex
100
AcDb2dVertex
 10
34.58307426435771
 20
-173.7017143662968
 30
0.0
  0
SEQEND
  5
659
330
656
100
AcDbEntity
  8
Ebene 1
370
    15
  0
POLYLINE
  5
65A
330
1F
100
AcDbEntity
  8
Ebene 1
 62
   179
420
  1709851
370
    15
100
AcDb2dPolyline
 66
     1
 10
0.0
 20
0.0
 30
0.0
  0
VERTEX
  5
65B
330
65A
100
AcDbEntity
  8
Ebene 1
 62
   179
420
  1709851
370
    15
100
AcDbVertex
100
AcDb2dVertex
 10
33.20520832503203
 20
-173.7017143662968
 30
0.0
  0
VERTEX
  5
65C
330
65A
100
AcDbEntity
  8
Ebene 1
 62
   179
420
  1709851
370
    15
100
AcDbVertex
100
AcDb2dVertex
 10
31.82682562138357
 20
-173.7017143662968
 30
0.0
  0
SEQEND
  5
65D
330
65A
100
AcDbEntity
  8
Ebene 1
370
    15
  0
POLYLINE
  5
65E
330
1F
100
AcDbEntity
  8
Ebene 1
 62
   179
420
  1709851
370
    15
100
AcDb2dPolyline
 66
     1
 10
0.0
 20
0.0
 30
0.0
  0
VERTEX
  5
65F
330
65E
100
AcDbEntity
  8
Ebene 1
 62
   179
420
  1709851
370
    15
100
AcDbVertex
100
AcDb2dVertex
 10
33.20520832503203
 20
-184.2416394938702
 30
0.0
  0
VERTEX
  5
660
330
65E
100
AcDbEntity
  8
Ebene 1
 62
   179
420
  1709851
370
    15
100
AcDbVertex
100
AcDb2dVertex
 10
34.58307426435771
 20
-184.2416394938702
 30
0.0
  0
SEQEND
  5
661
330
65E
100
AcDbEntity
  8
Ebene 1
370
    15
  0
POLYLINE
  5
662
330
1F
100
AcDbEntity
  8
Ebene 1
 62
   179
420
  1709851
370
    15
100
AcDb2dPolyline
 66
     1
 10
0.0
 20
0.0
 30
0.0
  0
VERTEX
  5
663
330
662
100
AcDbEntity
  8
Ebene 1
 62
   179
420
  1709851
370
    15
100
AcDbVertex
100
AcDb2dVertex
 10
33.20520832503203
 20
-184.2416394938702
 30
0.0
  0
VERTEX
  5
664
330
662
100
AcDbEntity
  8
Ebene 1
 62
   179
420
  1709851
370
    15
100
AcDbVertex
100
AcDb2dVertex
 10
31.82682562138357
 20
-184.2416394938702
 30
0.0
  0
SEQEND
  5
665
330
662
100
AcDbEntity
  8
Ebene 1
370
    15
  0
POLYLINE
  5
666
330
1F
100
AcDbEntity
  8
Ebene 1
 62
   179
420
  1709851
370
    15
100
AcDb2dPolyline
 66
     1
 10
0.0
 20
0.0
 30
0.0
  0
VERTEX
  5
667
330
666
100
AcDbEntity
  8
Ebene 1
 62
   179
420
  1709851
370
    15
100
AcDbVertex
100
AcDb2dVertex
 10
33.20520832503203
 20
-173.7017143662968
 30
0.0
  0
VERTEX
  5
668
330
666
100
AcDbEntity
  8
Ebene 1
 62
   179
420
  1709851
370
    15
100
AcDbVertex
100
AcDb2dVertex
 10
33.20520832503203
 20
-172.3236761721969
 30
0.0
  0
SEQEND
  5
669
330
666
100
AcDbEntity
  8
Ebene 1
370
    15
  0
POLYLINE
  5
66A
330
1F
100
AcDbEntity
  8
Ebene 1
 62
   179
420
  1709851
370
    15
100
AcDb2dPolyline
 66
     1
 10
0.0
 20
0.0
 30
0.0
  0
VERTEX
  5
66B
330
66A
100
AcDbEntity
  8
Ebene 1
 62
   179
420
  1709851
370
    15
100
AcDbVertex
100
AcDb2dVertex
 10
33.20520832503203
 20
-184.2416394938702
 30
0.0
  0
VERTEX
  5
66C
330
66A
100
AcDbEntity
  8
Ebene 1
 62
   179
420
  1709851
370
    15
100
AcDbVertex
100
AcDb2dVertex
 10
33.20520832503203
 20
-185.6196776879701
 30
0.0
  0
SEQEND
  5
66D
330
66A
100
AcDbEntity
  8
Ebene 1
370
    15
  0
POLYLINE
  5
66E
330
1F
100
AcDbEntity
  8
Ebene 1
 62
   179
420
  1709851
370
    15
100
AcDb2dPolyline
 66
     1
 10
0.0
 20
0.0
 30
0.0
  0
VERTEX
  5
66F
330
66E
100
AcDbEntity
  8
Ebene 1
 62
   179
420
  1709851
370
    15
100
AcDbVertex
100
AcDb2dVertex
 10
34.0397827063338
 20
-174.5168239581069
 30
0.0
  0
VERTEX
  5
670
330
66E
100
AcDbEntity
  8
Ebene 1
 62
   179
420
  1709851
370
    15
100
AcDbVertex
100
AcDb2dVertex
 10
32.38992647844766
 20
-172.8673122397693
 30
0.0
  0
SEQEND
  5
671
330
66E
100
AcDbEntity
  8
Ebene 1
370
    15
  0
POLYLINE
  5
672
330
1F
100
AcDbEntity
  8
Ebene 1
 62
   179
420
  1709851
370
    15
100
AcDb2dPolyline
 66
     1
 10
0.0
 20
0.0
 30
0.0
  0
VERTEX
  5
673
330
672
100
AcDbEntity
  8
Ebene 1
 62
   179
420
  1709851
370
    15
100
AcDbVertex
100
AcDb2dVertex
 10
34.0397827063338
 20
-185.0567490856803
 30
0.0
  0
VERTEX
  5
674
330
672
100
AcDbEntity
  8
Ebene 1
 62
   179
420
  1709851
370
    15
100
AcDbVertex
100
AcDb2dVertex
 10
32.38992647844766
 20
-183.4065483482456
 30
0.0
  0
SEQEND
  5
675
330
672
100
AcDbEntity
  8
Ebene 1
370
    15
  0
POLYLINE
  5
676
330
1F
100
AcDbEntity
  8
Ebene 1
 62
   179
420
  1709851
370
    15
100
AcDb2dPolyline
 66
     1
 10
0.0
 20
0.0
 30
0.0
  0
VERTEX
  5
677
330
676
100
AcDbEntity
  8
Ebene 1
 62
   179
420
  1709851
370
    15
100
AcDbVertex
100
AcDb2dVertex
 10
29.34256726696992
 20
-178.282313323485
 30
0.0
  0
VERTEX
  5
678
330
676
100
AcDbEntity
  8
Ebene 1
 62
   179
420
  1709851
370
    15
100
AcDbVertex
100
AcDb2dVertex
 10
29.34256726696992
 20
-151.2252224014298
 30
0.0
  0
SEQEND
  5
679
330
676
100
AcDbEntity
  8
Ebene 1
370
    15
  0
INSERT
  5
67B
330
1F
100
AcDbEntity
  8
Ebene 1
100
AcDbBlockReference
  2
block 6
 10
0.0
 20
0.0
 30
0.0
  0
POLYLINE
  5
686
330
1F
100
AcDbEntity
  8
Ebene 1
 62
   179
420
  1709851
370
    15
100
AcDb2dPolyline
 66
     1
 10
0.0
 20
0.0
 30
0.0
  0
VERTEX
  5
687
330
686
100
AcDbEntity
  8
Ebene 1
 62
   179
420
  1709851
370
    15
100
AcDbVertex
100
AcDb2dVertex
 10
97.89824487569905
 20
-180.2039875851573
 30
0.0
  0
VERTEX
  5
688
330
686
100
AcDbEntity
  8
Ebene 1
 62
   179
420
  1709851
370
    15
100
AcDbVertex
100
AcDb2dVertex
 10
99.27611081502472
 20
-180.2039875851573
 30
0.0
  0
SEQEND
  5
689
330
686
100
AcDbEntity
  8
Ebene 1
370
    15
  0
POLYLINE
  5
68A
330
1F
100
AcDbEntity
  8
Ebene 1
 62
   179
420
  1709851
370
    15
100
AcDb2dPolyline
 66
     1
 10
0.0
 20
0.0
 30
0.0
  0
VERTEX
  5
68B
330
68A
100
AcDbEntity
  8
Ebene 1
 62
   179
420
  1709851
370
    15
100
AcDbVertex
100
AcDb2dVertex
 10
97.89824487569905
 20
-180.2039875851573
 30
0.0
  0
VERTEX
  5
68C
330
68A
100
AcDbEntity
  8
Ebene 1
 62
   179
420
  1709851
370
    15
100
AcDbVertex
100
AcDb2dVertex
 10
96.53932696154226
 20
-180.2039875851573
 30
0.0
  0
SEQEND
  5
68D
330
68A
100
AcDbEntity
  8
Ebene 1
370
    15
  0
POLYLINE
  5
68E
330
1F
100
AcDbEntity
  8
Ebene 1
 62
   179
420
  1709851
370
    15
100
AcDb2dPolyline
 66
     1
 10
0.0
 20
0.0
 30
0.0
  0
VERTEX
  5
68F
330
68E
100
AcDbEntity
  8
Ebene 1
 62
   179
420
  1709851
370
    15
100
AcDbVertex
100
AcDb2dVertex
 10
97.89824487569905
 20
-182.7664496070862
 30
0.0
  0
VERTEX
  5
690
330
68E
100
AcDbEntity
  8
Ebene 1
 62
   179
420
  1709851
370
    15
100
AcDbVertex
100
AcDb2dVertex
 10
99.27611081502472
 20
-182.7664496070862
 30
0.0
  0
SEQEND
  5
691
330
68E
100
AcDbEntity
  8
Ebene 1
370
    15
  0
POLYLINE
  5
692
330
1F
100
AcDbEntity
  8
Ebene 1
 62
   179
420
  1709851
370
    15
100
AcDb2dPolyline
 66
     1
 10
0.0
 20
0.0
 30
0.0
  0
VERTEX
  5
693
330
692
100
AcDbEntity
  8
Ebene 1
 62
   179
420
  1709851
370
    15
100
AcDbVertex
100
AcDb2dVertex
 10
97.89824487569905
 20
-182.7664496070862
 30
0.0
  0
VERTEX
  5
694
330
692
100
AcDbEntity
  8
Ebene 1
 62
   179
420
  1709851
370
    15
100
AcDbVertex
100
AcDb2dVertex
 10
96.53932696154226
 20
-182.7664496070862
 30
0.0
  0
SEQEND
  5
695
330
692
100
AcDbEntity
  8
Ebene 1
370
    15
  0
POLYLINE
  5
696
330
1F
100
AcDbEntity
  8
Ebene 1
 62
   179
420
  1709851
370
    15
100
AcDb2dPolyline
 66
     1
 10
0.0
 20
0.0
 30
0.0
  0
VERTEX
  5
697
330
696
100
AcDbEntity
  8
Ebene 1
 62
   179
420
  1709851
370
    15
100
AcDbVertex
100
AcDb2dVertex
 10
97.89824487569905
 20
-180.2039875851573
 30
0.0
  0
VERTEX
  5
698
330
696
100
AcDbEntity
  8
Ebene 1
 62
   179
420
  1709851
370
    15
100
AcDbVertex
100
AcDb2dVertex
 10
97.89824487569905
 20
-178.8259493910574
 30
0.0
  0
SEQEND
  5
699
330
696
100
AcDbEntity
  8
Ebene 1
370
    15
  0
POLYLINE
  5
69A
330
1F
100
AcDbEntity
  8
Ebene 1
 62
   179
420
  1709851
370
    15
100
AcDb2dPolyline
 66
     1
 10
0.0
 20
0.0
 30
0.0
  0
VERTEX
  5
69B
330
69A
100
AcDbEntity
  8
Ebene 1
 62
   179
420
  1709851
370
    15
100
AcDbVertex
100
AcDb2dVertex
 10
97.89824487569905
 20
-182.7664496070862
 30
0.0
  0
VERTEX
  5
69C
330
69A
100
AcDbEntity
  8
Ebene 1
 62
   179
420
  1709851
370
    15
100
AcDbVertex
100
AcDb2dVertex
 10
97.89824487569905
 20
-184.143798782089
 30
0.0
  0
SEQEND
  5
69D
330
69A
100
AcDbEntity
  8
Ebene 1
370
    15
  0
POLYLINE
  5
69E
330
1F
100
AcDbEntity
  8
Ebene 1
 62
   179
420
  1709851
370
    15
100
AcDb2dPolyline
 66
     1
 10
0.0
 20
0.0
 30
0.0
  0
VERTEX
  5
69F
330
69E
100
AcDbEntity
  8
Ebene 1
 62
   179
420
  1709851
370
    15
100
AcDbVertex
100
AcDb2dVertex
 10
98.73299151177508
 20
-181.0197861960645
 30
0.0
  0
VERTEX
  5
6A0
330
69E
100
AcDbEntity
  8
Ebene 1
 62
   179
420
  1709851
370
    15
100
AcDbVertex
100
AcDb2dVertex
 10
97.08296302911468
 20
-179.3695854586298
 30
0.0
  0
SEQEND
  5
6A1
330
69E
100
AcDbEntity
  8
Ebene 1
370
    15
  0
POLYLINE
  5
6A2
330
1F
100
AcDbEntity
  8
Ebene 1
 62
   179
420
  1709851
370
    15
100
AcDb2dPolyline
 66
     1
 10
0.0
 20
0.0
 30
0.0
  0
VERTEX
  5
6A3
330
6A2
100
AcDbEntity
  8
Ebene 1
 62
   179
420
  1709851
370
    15
100
AcDbVertex
100
AcDb2dVertex
 10
98.73299151177508
 20
-183.6008517336137
 30
0.0
  0
VERTEX
  5
6A4
330
6A2
100
AcDbEntity
  8
Ebene 1
 62
   179
420
  1709851
370
    15
100
AcDbVertex
100
AcDb2dVertex
 10
97.08296302911468
 20
-181.9513400152761
 30
0.0
  0
SEQEND
  5
6A5
330
6A2
100
AcDbEntity
  8
Ebene 1
370
    15
  0
POLYLINE
  5
6A6
330
1F
100
AcDbEntity
  8
Ebene 1
 62
   179
420
  1709851
370
    15
100
AcDb2dPolyline
 66
     1
 10
0.0
 20
0.0
 30
0.0
  0
VERTEX
  5
6A7
330
6A6
100
AcDbEntity
  8
Ebene 1
 62
   179
420
  1709851
370
    15
100
AcDbVertex
100
AcDb2dVertex
 10
33.20520832503203
 20
-184.2416394938702
 30
0.0
  0
VERTEX
  5
6A8
330
6A6
100
AcDbEntity
  8
Ebene 1
 62
   179
420
  1709851
370
    15
100
AcDbVertex
100
AcDb2dVertex
 10
33.20520832503203
 20
-173.7017143662968
 30
0.0
  0
SEQEND
  5
6A9
330
6A6
100
AcDbEntity
  8
Ebene 1
370
    15
  0
INSERT
  5
6AB
330
1F
100
AcDbEntity
  8
Ebene 1
100
AcDbBlockReference
  2
block 7
 10
0.0
 20
0.0
 30
0.0
  0
POLYLINE
  5
6B6
330
1F
100
AcDbEntity
  8
Ebene 1
 62
   179
420
  1709851
370
    15
100
AcDb2dPolyline
 66
     1
 10
0.0
 20
0.0
 30
0.0
  0
VERTEX
  5
6B7
330
6B6
100
AcDbEntity
  8
Ebene 1
 62
   179
420
  1709851
370
    15
100
AcDbVertex
100
AcDb2dVertex
 10
97.8980726209248
 20
-182.7664496070862
 30
0.0
  0
VERTEX
  5
6B8
330
6B6
100
AcDbEntity
  8
Ebene 1
 62
   179
420
  1709851
370
    15
100
AcDbVertex
100
AcDb2dVertex
 10
97.8980726209248
 20
-180.2039875851573
 30
0.0
  0
SEQEND
  5
6B9
330
6B6
100
AcDbEntity
  8
Ebene 1
370
    15
  0
POLYLINE
  5
6BA
330
1F
100
AcDbEntity
  8
Ebene 1
370
     0
100
AcDb2dPolyline
 66
     1
 10
0.0
 20
0.0
 30
0.0
  0
VERTEX
  5
6BB
330
6BA
100
AcDbEntity
  8
Ebene 1
370
     0
100
AcDbVertex
100
AcDb2dVertex
 10
17.99166666216875
 20
-187.2368055087464
 30
0.0
  0
VERTEX
  5
6BC
330
6BA
100
AcDbEntity
  8
Ebene 1
370
     0
100
AcDbVertex
100
AcDb2dVertex
 10
34.67212998265141
 20
-187.2368055087464
 30
0.0
  0
VERTEX
  5
6BD
330
6BA
100
AcDbEntity
  8
Ebene 1
370
     0
100
AcDbVertex
100
AcDb2dVertex
 10
34.67212998265141
 20
-145.6391723268715
 30
0.0
  0
VERTEX
  5
6BE
330
6BA
100
AcDbEntity
  8
Ebene 1
370
     0
100
AcDbVertex
100
AcDb2dVertex
 10
17.99166666216875
 20
-145.6391723268715
 30
0.0
  0
VERTEX
  5
6BF
330
6BA
100
AcDbEntity
  8
Ebene 1
370
     0
100
AcDbVertex
100
AcDb2dVertex
 10
17.99166666216875
 20
-187.2368055087464
 30
0.0
  0
SEQEND
  5
6C0
330
6BA
100
AcDbEntity
  8
Ebene 1
370
     0
  0
ENDSEC
  0
SECTION
  2
OBJECTS
  0
DICTIONARY
  5
C
330
0
100
AcDbDictionary
281
     1
  3
ACAD_GROUP
350
D
  3
ACAD_LAYOUT
350
1A
  3
ACAD_MLINESTYLE
350
17
  3
ACAD_PLOTSETTINGS
350
19
  3
ACAD_PLOTSTYLENAME
350
E
  3
ACAD_TABLESTYLE
350
6C1
  3
ACAD_VISUALSTYLE
350
2A
  0
DICTIONARY
  5
D
102
{ACAD_REACTORS
330
C
102
}
330
C
100
AcDbDictionary
281
     1
  0
DICTIONARY
  5
1A
102
{ACAD_REACTORS
330
C
102
}
330
C
100
AcDbDictionary
281
     1
  3
Layout1
350
1E
  3
Layout2
350
26
  3
Model
350
22
  0
DICTIONARY
  5
17
102
{ACAD_REACTORS
330
C
102
}
330
C
100
AcDbDictionary
281
     1
  3
Standard
350
18
  0
DICTIONARY
  5
19
102
{ACAD_REACTORS
330
C
102
}
330
C
100
AcDbDictionary
281
     1
  0
ACDBDICTIONARYWDFLT
  5
E
102
{ACAD_REACTORS
330
C
102
}
330
C
100
AcDbDictionary
281
     1
  3
Normal
350
F
100
AcDbDictionaryWithDefault
340
F
  0
DICTIONARY
  5
6C1
102
{ACAD_REACTORS
330
C
102
}
330
C
100
AcDbDictionary
281
     1
  0
DICTIONARY
  5
2A
102
{ACAD_REACTORS
330
C
102
}
330
C
100
AcDbDictionary
281
     1
  3
2dWireframe
350
2F
  3
3D Hidden
350
31
  3
3dWireframe
350
30
  3
Basic
350
32
  3
Brighten
350
36
  3
ColorChange
350
3A
  3
Conceptual
350
34
  3
Dim
350
35
  3
Facepattern
350
39
  3
Flat
350
2B
  3
FlatWithEdges
350
2C
  3
Gouraud
350
2D
  3
GouraudWithEdges
350
2E
  3
Linepattern
350
38
  3
Realistic
350
33
  3
Thicken
350
37
  0
LAYOUT
  5
1E
102
{ACAD_REACTORS
330
1A
102
}
330
1A
100
AcDbPlotSettings
  1

  2
none_device
  4

  6

 40
0.0
 41
0.0
 42
0.0
 43
0.0
 44
0.0
 45
0.0
 46
0.0
 47
0.0
 48
0.0
 49
0.0
140
0.0
141
0.0
142
1.0
143
1.0
 70
   688
 72
     0
 73
     0
 74
     5
  7

 75
    16
 76
     0
 77
     2
 78
   300
147
1.0
148
0.0
149
0.0
100
AcDbLayout
  1
Layout1
 70
     1
 71
     1
 10
0.0
 20
0.0
 11
12.0
 21
9.0
 12
0.0
 22
0.0
 32
0.0
 14
1.000000000000000E+20
 24
1.000000000000000E+20
 34
1.000000000000000E+20
 15
-1.000000000000000E+20
 25
-1.000000000000000E+20
 35
-1.000000000000000E+20
146
0.0
 13
0.0
 23
0.0
 33
0.0
 16
1.0
 26
0.0
 36
0.0
 17
0.0
 27
1.0
 37
0.0
 76
     0
330
1B
  0
LAYOUT
  5
26
102
{ACAD_REACTORS
330
1A
102
}
330
1A
100
AcDbPlotSettings
  1

  2
none_device
  4

  6

 40
0.0
 41
0.0
 42
0.0
 43
0.0
 44
0.0
 45
0.0
 46
0.0
 47
0.0
 48
0.0
 49
0.0
140
0.0
141
0.0
142
1.0
143
1.0
 70
   688
 72
     0
 73
     0
 74
     5
  7

 75
    16
 76
     0
 77
     2
 78
   300
147
1.0
148
0.0
149
0.0
100
AcDbLayout
  1
Layout2
 70
     1
 71
     2
 10
0.0
 20
0.0
 11
0.0
 21
0.0
 12
0.0
 22
0.0
 32
0.0
 14
0.0
 24
0.0
 34
0.0
 15
0.0
 25
0.0
 35
0.0
146
0.0
 13
0.0
 23
0.0
 33
0.0
 16
1.0
 26
0.0
 36
0.0
 17
0.0
 27
1.0
 37
0.0
 76
     0
330
23
  0
LAYOUT
  5
22
102
{ACAD_REACTORS
330
1A
102
}
330
1A
100
AcDbPlotSettings
  1

  2
none_device
  4

  6

 40
0.0
 41
0.0
 42
0.0
 43
0.0
 44
0.0
 45
0.0
 46
0.0
 47
0.0
 48
0.0
 49
0.0
140
0.0
141
0.0
142
1.0
143
1.0
 70
  1712
 72
     0
 73
     0
 74
     0
  7

 75
     0
 76
     0
 77
     2
 78
   300
147
1.0
148
0.0
149
0.0
100
AcDbLayout
  1
Model
 70
     1
 71
     0
 10
0.0
 20
0.0
 11
12.0
 21
9.0
 12
0.0
 22
0.0
 32
0.0
 14
1.000000000000000E+20
 24
1.000000000000000E+20
 34
1.000000000000000E+20
 15
-1.000000000000000E+20
 25
-1.000000000000000E+20
 35
-1.000000000000000E+20
146
0.0
 13
0.0
 23
0.0
 33
0.0
 16
1.0
 26
0.0
 36
0.0
 17
0.0
 27
1.0
 37
0.0
 76
     0
330
1F
331
29
  0
MLINESTYLE
  5
18
102
{ACAD_REACTORS
330
17
102
}
330
17
100
AcDbMlineStyle
  2
Standard
 70
     0
  3

 62
   256
 51
90.0
 52
90.0
 71
     2
 49
0.5
 62
   256
  6
BYLAYER
 49
-0.5
 62
   256
  6
BYLAYER
  0
ACDBPLACEHOLDER
  5
F
102
{ACAD_REACTORS
330
E
102
}
330
E
  0
VISUALSTYLE
  5
2F
102
{ACAD_REACTORS
330
2A
102
}
330
2A
100
AcDbVisualStyle
  2
2dWireframe
 70
     4
 71
     0
 72
     2
 73
     0
 90
        0
 40
-0.6
 41
-30.0
 62
     5
 63
     7
421
 16777215
 74
     1
 91
        4
 64
     7
 65
   257
 75
     1
175
     1
 42
1.0
 92
        0
 66
   257
 43
1.0
 76
     1
 77
     6
 78
     2
 67
     7
 79
     5
170
     0
171
     0
290
     0
174
     0
 93
        1
 44
0.0
173
     0
291
     0
 45
0.0
1001
ACAD
1000
AcDbSavedByObjectVersion
1070
     0
  0
VISUALSTYLE
  5
31
102
{ACAD_REACTORS
330
2A
102
}
330
2A
100
AcDbVisualStyle
  2
3D Hidden
 70
     6
 71
     1
 72
     2
 73
     2
 90
        0
 40
-0.6
 41
-30.0
 62
     5
 63
     7
421
 16777215
 74
     2
 91
        2
 64
     7
 65
   257
 75
     2
175
     1
 42
40.0
 92
        0
 66
   257
 43
1.0
 76
     1
 77
     6
 78
     2
 67
     7
 79
     3
170
     0
171
     0
290
     0
174
     0
 93
        1
 44
0.0
173
     0
291
     0
 45
0.0
1001
ACAD
1000
AcDbSavedByObjectVersion
1070
     0
  0
VISUALSTYLE
  5
30
102
{ACAD_REACTORS
330
2A
102
}
330
2A
100
AcDbVisualStyle
  2
3dWireframe
 70
     5
 71
     0
 72
     2
 73
     0
 90
        0
 40
-0.6
 41
-30.0
 62
     5
 63
     7
421
 16777215
 74
     1
 91
        4
 64
     7
 65
   257
 75
     1
175
     1
 42
1.0
 92
        0
 66
   257
 43
1.0
 76
     1
 77
     6
 78
     2
 67
     7
 79
     5
170
     0
171
     0
290
     0
174
     0
 93
        1
 44
0.0
173
     0
291
     0
 45
0.0
1001
ACAD
1000
AcDbSavedByObjectVersion
1070
     0
  0
VISUALSTYLE
  5
32
102
{ACAD_REACTORS
330
2A
102
}
330
2A
100
AcDbVisualStyle
  2
Basic
 70
     7
 71
     1
 72
     0
 73
     1
 90
        0
 40
-0.6
 41
-30.0
 62
     5
 63
     7
421
 16777215
 74
     0
 91
        4
 64
     7
 65
   257
 75
     1
175
     1
 42
1.0
 92
        8
 66
     7
 43
1.0
 76
     1
 77
     6
 78
     2
 67
     7
 79
     5
170
     0
171
     0
290
     0
174
     0
 93
        1
 44
0.0
173
     0
291
     1
 45
0.0
1001
ACAD
1000
AcDbSavedByObjectVersion
1070
     0
  0
VISUALSTYLE
  5
36
102
{ACAD_REACTORS
330
2A
102
}
330
2A
100
AcDbVisualStyle
  2
Brighten
 70
    12
 71
     2
 72
     2
 73
     0
 90
        0
 40
-0.6
 41
-30.0
 62
     5
 63
     7
421
 16777215
 74
     1
 91
        4
 64
     7
 65
   257
 75
     1
175
     1
 42
1.0
 92
        8
 66
     7
 43
1.0
 76
     1
 77
     6
 78
     2
 67
     7
 79
     5
170
     0
171
     0
290
     0
174
     0
 93
        1
 44
50.0
173
     0
291
     1
 45
0.0
1001
ACAD
1000
AcDbSavedByObjectVersion
1070
     0
  0
VISUALSTYLE
  5
3A
102
{ACAD_REACTORS
330
2A
102
}
330
2A
100
AcDbVisualStyle
  2
ColorChange
 70
    16
 71
     2
 72
     2
 73
     3
 90
        0
 40
-0.6
 41
-30.0
 62
     5
 63
     8
421
  8421504
 74
     1
 91
        4
 64
     7
 65
   257
 75
     1
175
     1
 42
1.0
 92
        8
 66
     8
424
  8421504
 43
1.0
 76
     1
 77
     6
 78
     2
 67
     7
 79
     5
170
     0
171
     0
290
     0
174
     0
 93
        1
 44
0.0
173
     0
291
     1
 45
0.0
1001
ACAD
1000
AcDbSavedByObjectVersion
1070
     0
  0
VISUALSTYLE
  5
34
102
{ACAD_REACTORS
330
2A
102
}
330
2A
100
AcDbVisualStyle
  2
Conceptual
 70
     9
 71
     3
 72
     2
 73
     0
 90
        0
 40
-0.6
 41
-30.0
 62
     5
 63
     7
421
 16777215
 74
     2
 91
        2
 64
     7
 65
   257
 75
     1
175
     1
 42
40.0
 92
        8
 66
     7
 43
1.0
 76
     1
 77
     6
 78
     2
 67
     7
 79
     3
170
     0
171
     0
290
     0
174
     0
 93
        1
 44
0.0
173
     0
291
     0
 45
0.0
1001
ACAD
1000
AcDbSavedByObjectVersion
1070
     0
  0
VISUALSTYLE
  5
35
102
{ACAD_REACTORS
330
2A
102
}
330
2A
100
AcDbVisualStyle
  2
Dim
 70
    11
 71
     2
 72
     2
 73
     0
 90
        0
 40
-0.6
 41
-30.0
 62
     5
 63
     7
421
 16777215
 74
     1
 91
        4
 64
     7
 65
   257
 75
     1
175
     1
 42
1.0
 92
        8
 66
     7
 43
1.0
 76
     1
 77
     6
 78
     2
 67
     7
 79
     5
170
     0
171
     0
290
     0
174
     0
 93
        1
 44
-50.0
173
     0
291
     1
 45
0.0
1001
ACAD
1000
AcDbSavedByObjectVersion
1070
     0
  0
VISUALSTYLE
  5
39
102
{ACAD_REACTORS
330
2A
102
}
330
2A
100
AcDbVisualStyle
  2
Facepattern
 70
    15
 71
     2
 72
     2
 73
     0
 90
        0
 40
-0.6
 41
-30.0
 62
     5
 63
     7
421
 16777215
 74
     1
 91
        4
 64
     7
 65
   257
 75
     1
175
     1
 42
1.0
 92
        8
 66
     7
 43
1.0
 76
     1
 77
     6
 78
     2
 67
     7
 79
     5
170
     0
171
     0
290
     0
174
     0
 93
        1
 44
0.0
173
     0
291
     1
 45
0.0
1001
ACAD
1000
AcDbSavedByObjectVersion
1070
     0
  0
VISUALSTYLE
  5
2B
102
{ACAD_REACTORS
330
2A
102
}
330
2A
100
AcDbVisualStyle
  2
Flat
 70
     0
 71
     2
 72
     1
 73
     1
 90
        2
 40
-0.6
 41
30.0
 62
     5
 63
     7
421
 16777215
 74
     0
 91
        4
 64
     7
 65
   257
 75
     1
175
     1
 42
1.0
 92
        8
 66
     7
 43
1.0
 76
     1
 77
     6
 78
     2
 67
     7
 79
     5
170
     0
171
     0
290
     0
174
     0
 93
       13
 44
0.0
173
     0
291
     1
 45
0.0
1001
ACAD
1000
AcDbSavedByObjectVersion
1070
     0
  0
VISUALSTYLE
  5
2C
102
{ACAD_REACTORS
330
2A
102
}
330
2A
100
AcDbVisualStyle
  2
FlatWithEdges
 70
     1
 71
     2
 72
     1
 73
     1
 90
        2
 40
-0.6
 41
30.0
 62
     5
 63
     7
421
 16777215
 74
     1
 91
        4
 64
     7
 65
   257
 75
     1
175
     1
 42
1.0
 92
        0
 66
   257
 43
1.0
 76
     1
 77
     6
 78
     2
 67
     7
 79
     5
170
     0
171
     0
290
     0
174
     0
 93
       13
 44
0.0
173
     0
291
     1
 45
0.0
1001
ACAD
1000
AcDbSavedByObjectVersion
1070
     0
  0
VISUALSTYLE
  5
2D
102
{ACAD_REACTORS
330
2A
102
}
330
2A
100
AcDbVisualStyle
  2
Gouraud
 70
     2
 71
     2
 72
     2
 73
     1
 90
        2
 40
-0.6
 41
30.0
 62
     5
 63
     7
421
 16777215
 74
     0
 91
        4
 64
     7
 65
   257
 75
     1
175
     1
 42
1.0
 92
        0
 66
     7
 43
1.0
 76
     1
 77
     6
 78
     2
 67
     7
 79
     5
170
     0
171
     0
290
     0
174
     0
 93
       13
 44
0.0
173
     0
291
     1
 45
0.0
1001
ACAD
1000
AcDbSavedByObjectVersion
1070
     0
  0
VISUALSTYLE
  5
2E
102
{ACAD_REACTORS
330
2A
102
}
330
2A
100
AcDbVisualStyle
  2
GouraudWithEdges
 70
     3
 71
     2
 72
     2
 73
     1
 90
        2
 40
-0.6
 41
30.0
 62
     5
 63
     7
421
 16777215
 74
     1
 91
        4
 64
     7
 65
   257
 75
     1
175
     1
 42
1.0
 92
        0
 66
   257
 43
1.0
 76
     1
 77
     6
 78
     2
 67
     7
 79
     5
170
     0
171
     0
290
     0
174
     0
 93
       13
 44
0.0
173
     0
291
     1
 45
0.0
1001
ACAD
1000
AcDbSavedByObjectVersion
1070
     0
  0
VISUALSTYLE
  5
38
102
{ACAD_REACTORS
330
2A
102
}
330
2A
100
AcDbVisualStyle
  2
Linepattern
 70
    14
 71
     2
 72
     2
 73
     0
 90
        0
 40
-0.6
 41
-30.0
 62
     5
 63
     7
421
 16777215
 74
     1
 91
        4
 64
     7
 65
   257
 75
     7
175
     7
 42
1.0
 92
        8
 66
     7
 43
1.0
 76
     1
 77
     6
 78
     2
 67
     7
 79
     5
170
     0
171
     0
290
     0
174
     0
 93
        1
 44
0.0
173
     0
291
     1
 45
0.0
1001
ACAD
1000
AcDbSavedByObjectVersion
1070
     0
  0
VISUALSTYLE
  5
33
102
{ACAD_REACTORS
330
2A
102
}
330
2A
100
AcDbVisualStyle
  2
Realistic
 70
     8
 71
     2
 72
     2
 73
     0
 90
        0
 40
-0.6
 41
-30.0
 62
     5
 63
     7
421
 16777215
 74
     1
 91
        0
 64
     7
 65
   257
 75
     1
175
     1
 42
1.0
 92
        8
 66
     8
424
  7895160
 43
1.0
 76
     1
 77
     6
 78
     2
 67
     7
 79
     5
170
     0
171
     0
290
     0
174
     0
 93
       13
 44
0.0
173
     0
291
     0
 45
0.0
1001
ACAD
1000
AcDbSavedByObjectVersion
1070
     0
  0
VISUALSTYLE
  5
37
102
{ACAD_REACTORS
330
2A
102
}
330
2A
100
AcDbVisualStyle
  2
Thicken
 70
    13
 71
     2
 72
     2
 73
     0
 90
        0
 40
-0.6
 41
-30.0
 62
     5
 63
     7
421
 16777215
 74
     1
 91
        4
 64
     7
 65
   257
 75
     1
175
     1
 42
1.0
 92
       12
 66
     7
 43
1.0
 76
     1
 77
     6
 78
     2
 67
     7
 79
     5
170
     0
171
     0
290
     0
174
     0
 93
        1
 44
0.0
173
     0
291
     1
 45
0.0
1001
ACAD
1000
AcDbSavedByObjectVersion
1070
     0
  0
ENDSEC
  0
EOF
