  0
SECTION
  2
HEADER
  9
$ACADVER
  1
AC1018
  9
$ACADMAINTVER
 70
     0
  9
$DWGCODEPAGE
  3
ANSI_932
  9
$INSBASE
 10
0.0
 20
0.0
 30
0.0
  9
$EXTMIN
 10
1.000000000000000E+20
 20
1.000000000000000E+20
 30
1.000000000000000E+20
  9
$EXTMAX
 10
-1.000000000000000E+20
 20
-1.000000000000000E+20
 30
-1.000000000000000E+20
  9
$LIMMIN
 10
0.0
 20
0.0
  9
$LIMMAX
 10
12.0
 20
9.0
  9
$ORTHOMODE
 70
     0
  9
$REGENMODE
 70
     1
  9
$FILLMODE
 70
     1
  9
$QTEXTMODE
 70
     0
  9
$MIRRTEXT
 70
     1
  9
$LTSCALE
 40
1.0
  9
$ATTMODE
 70
     1
  9
$TEXTSIZE
 40
0.2
  9
$TRACEWID
 40
0.05
  9
$TEXTSTYLE
  7
Standard
  9
$CLAYER
  8
0
  9
$CELTYPE
  6
ByLayer
  9
$CECOLOR
 62
   256
  9
$CELTSCALE
 40
1.0
  9
$DISPSILH
 70
     0
  9
$DIMSCALE
 40
1.0
  9
$DIMASZ
 40
0.18
  9
$DIMEXO
 40
0.0625
  9
$DIMDLI
 40
0.38
  9
$DIMRND
 40
0.0
  9
$DIMDLE
 40
0.0
  9
$DIMEXE
 40
0.18
  9
$DIMTP
 40
0.0
  9
$DIMTM
 40
0.0
  9
$DIMTXT
 40
0.18
  9
$DIMCEN
 40
0.09
  9
$DIMTSZ
 40
0.0
  9
$DIMTOL
 70
     0
  9
$DIMLIM
 70
     0
  9
$DIMTIH
 70
     1
  9
$DIMTOH
 70
     1
  9
$DIMSE1
 70
     0
  9
$DIMSE2
 70
     0
  9
$DIMTAD
 70
     0
  9
$DIMZIN
 70
     0
  9
$DIMBLK
  1

  9
$DIMASO
 70
     1
  9
$DIMSHO
 70
     1
  9
$DIMPOST
  1

  9
$DIMAPOST
  1

  9
$DIMALT
 70
     0
  9
$DIMALTD
 70
     2
  9
$DIMALTF
 40
25.4
  9
$DIMLFAC
 40
1.0
  9
$DIMTOFL
 70
     0
  9
$DIMTVP
 40
0.0
  9
$DIMTIX
 70
     0
  9
$DIMSOXD
 70
     0
  9
$DIMSAH
 70
     0
  9
$DIMBLK1
  1

  9
$DIMBLK2
  1

  9
$DIMSTYLE
  2
Standard
  9
$DIMCLRD
 70
     0
  9
$DIMCLRE
 70
     0
  9
$DIMCLRT
 70
     0
  9
$DIMTFAC
 40
1.0
  9
$DIMGAP
 40
0.09
  9
$DIMJUST
 70
     0
  9
$DIMSD1
 70
     0
  9
$DIMSD2
 70
     0
  9
$DIMTOLJ
 70
     1
  9
$DIMTZIN
 70
     0
  9
$DIMALTZ
 70
     0
  9
$DIMALTTZ
 70
     0
  9
$DIMUPT
 70
     0
  9
$DIMDEC
 70
     4
  9
$DIMTDEC
 70
     4
  9
$DIMALTU
 70
     2
  9
$DIMALTTD
 70
     2
  9
$DIMTXSTY
  7
Standard
  9
$DIMAUNIT
 70
     0
  9
$DIMADEC
 70
     0
  9
$DIMALTRND
 40
0.0
  9
$DIMAZIN
 70
     0
  9
$DIMDSEP
 70
    46
  9
$DIMATFIT
 70
     3
  9
$DIMFRAC
 70
     0
  9
$DIMLDRBLK
  1

  9
$DIMLUNIT
 70
     2
  9
$DIMLWD
 70
    -2
  9
$DIMLWE
 70
    -2
  9
$DIMTMOVE
 70
     0
  9
$LUNITS
 70
     2
  9
$LUPREC
 70
     4
  9
$SKETCHINC
 40
0.1
  9
$FILLETRAD
 40
0.5
  9
$AUNITS
 70
     0
  9
$AUPREC
 70
     0
  9
$MENU
  1
.
  9
$ELEVATION
 40
0.0
  9
$PELEVATION
 40
0.0
  9
$THICKNESS
 40
0.0
  9
$LIMCHECK
 70
     0
  9
$CHAMFERA
 40
0.5
  9
$CHAMFERB
 40
0.5
  9
$CHAMFERC
 40
1.0
  9
$CHAMFERD
 40
0.0
  9
$SKPOLY
 70
     0
  9
$TDCREATE
 40
2456077.612418981
  9
$TDUCREATE
 40
2456077.570752315
  9
$TDUPDATE
 40
2456077.612418993
  9
$TDUUPDATE
 40
2456077.570752326
  9
$TDINDWG
 40
0.0000000116
  9
$TDUSRTIMER
 40
0.0000000116
  9
$USRTIMER
 70
     1
  9
$ANGBASE
 50
0.0
  9
$ANGDIR
 70
     0
  9
$PDMODE
 70
     0
  9
$PDSIZE
 40
0.0
  9
$PLINEWID
 40
0.0
  9
$SPLFRAME
 70
     0
  9
$SPLINETYPE
 70
     6
  9
$SPLINESEGS
 70
     8
  9
$HANDSEED
  5
715
  9
$SURFTAB1
 70
     6
  9
$SURFTAB2
 70
     6
  9
$SURFTYPE
 70
     6
  9
$SURFU
 70
     6
  9
$SURFV
 70
     6
  9
$UCSBASE
  2

  9
$UCSNAME
  2

  9
$UCSORG
 10
0.0
 20
0.0
 30
0.0
  9
$UCSXDIR
 10
1.0
 20
0.0
 30
0.0
  9
$UCSYDIR
 10
0.0
 20
1.0
 30
0.0
  9
$UCSORTHOREF
  2

  9
$UCSORTHOVIEW
 70
     0
  9
$UCSORGTOP
 10
0.0
 20
0.0
 30
0.0
  9
$UCSORGBOTTOM
 10
0.0
 20
0.0
 30
0.0
  9
$UCSORGLEFT
 10
0.0
 20
0.0
 30
0.0
  9
$UCSORGRIGHT
 10
0.0
 20
0.0
 30
0.0
  9
$UCSORGFRONT
 10
0.0
 20
0.0
 30
0.0
  9
$UCSORGBACK
 10
0.0
 20
0.0
 30
0.0
  9
$PUCSBASE
  2

  9
$PUCSNAME
  2

  9
$PUCSORG
 10
0.0
 20
0.0
 30
0.0
  9
$PUCSXDIR
 10
1.0
 20
0.0
 30
0.0
  9
$PUCSYDIR
 10
0.0
 20
1.0
 30
0.0
  9
$PUCSORTHOREF
  2

  9
$PUCSORTHOVIEW
 70
     0
  9
$PUCSORGTOP
 10
0.0
 20
0.0
 30
0.0
  9
$PUCSORGBOTTOM
 10
0.0
 20
0.0
 30
0.0
  9
$PUCSORGLEFT
 10
0.0
 20
0.0
 30
0.0
  9
$PUCSORGRIGHT
 10
0.0
 20
0.0
 30
0.0
  9
$PUCSORGFRONT
 10
0.0
 20
0.0
 30
0.0
  9
$PUCSORGBACK
 10
0.0
 20
0.0
 30
0.0
  9
$USERI1
 70
     0
  9
$USERI2
 70
     0
  9
$USERI3
 70
     0
  9
$USERI4
 70
     0
  9
$USERI5
 70
     0
  9
$USERR1
 40
0.0
  9
$USERR2
 40
0.0
  9
$USERR3
 40
0.0
  9
$USERR4
 40
0.0
  9
$USERR5
 40
0.0
  9
$WORLDVIEW
 70
     1
  9
$SHADEDGE
 70
     3
  9
$SHADEDIF
 70
    70
  9
$TILEMODE
 70
     1
  9
$MAXACTVP
 70
    64
  9
$PINSBASE
 10
0.0
 20
0.0
 30
0.0
  9
$PLIMCHECK
 70
     0
  9
$PEXTMIN
 10
1.000000000000000E+20
 20
1.000000000000000E+20
 30
1.000000000000000E+20
  9
$PEXTMAX
 10
-1.000000000000000E+20
 20
-1.000000000000000E+20
 30
-1.000000000000000E+20
  9
$PLIMMIN
 10
0.0
 20
0.0
  9
$PLIMMAX
 10
12.0
 20
9.0
  9
$UNITMODE
 70
     0
  9
$VISRETAIN
 70
     1
  9
$PLINEGEN
 70
     0
  9
$PSLTSCALE
 70
     1
  9
$TREEDEPTH
 70
  3020
  9
$CMLSTYLE
  2
Standard
  9
$CMLJUST
 70
     0
  9
$CMLSCALE
 40
1.0
  9
$PROXYGRAPHICS
 70
     1
  9
$MEASUREMENT
 70
     0
  9
$CELWEIGHT
370
    -1
  9
$ENDCAPS
280
     0
  9
$JOINSTYLE
280
     0
  9
$LWDISPLAY
290
     1
  9
$INSUNITS
 70
     1
  9
$HYPERLINKBASE
  1

  9
$STYLESHEET
  1

  9
$XEDIT
290
     1
  9
$CEPSNTYPE
380
     0
  9
$PSTYLEMODE
290
     1
  9
$FINGERPRINTGUID
  2
{A2AE3685-AE9A-81C0-9C3C-BBD02B29CE29}
  9
$VERSIONGUID
  2
{FAEB1C32-E019-11D5-929B-00C0DF256EC4}
  9
$EXTNAMES
290
     1
  9
$PSVPSCALE
 40
0.0
  9
$OLESTARTUP
290
     0
  9
$SORTENTS
280
   127
  9
$INDEXCTL
280
     0
  9
$HIDETEXT
280
     1
  9
$XCLIPFRAME
290
     0
  9
$HALOGAP
280
     0
  9
$OBSCOLOR
 70
   257
  9
$OBSLTYPE
280
     0
  9
$INTERSECTIONDISPLAY
280
     0
  9
$INTERSECTIONCOLOR
 70
   257
  9
$DIMASSOC
280
     2
  9
$PROJECTNAME
  1

  0
ENDSEC
  0
SECTION
  2
CLASSES
  0
CLASS
  1
ACDBDICTIONARYWDFLT
  2
AcDbDictionaryWithDefault
  3
ObjectDBX Classes
 90
        0
 91
        3
280
     0
281
     0
  0
CLASS
  1
VISUALSTYLE
  2
AcDbVisualStyle
  3
ObjectDBX Classes
 90
     4095
 91
        3
280
     0
281
     0
  0
ENDSEC
  0
SECTION
  2
TABLES
  0
TABLE
  2
VPORT
  5
8
330
0
100
AcDbSymbolTable
 70
     1
  0
VPORT
  5
29
330
8
100
AcDbSymbolTableRecord
100
AcDbViewportTableRecord
  2
*Active
 70
     0
 10
0.0
 20
0.0
 11
1.0
 21
1.0
 12
0.0
 22
0.0
 13
0.0
 23
0.0
 14
0.5
 24
0.5
 15
0.5
 25
0.5
 16
0.0
 26
0.0
 36
1.0
 17
105.0008259828644
 27
-148.4999796178229
 37
0.0
 40
296.9999592356459
 41
0.7070763662937379
 42
50.0
 43
0.0
 44
0.0
 50
0.0
 51
0.0
 71
     0
 72
   100
 73
     1
 74
     3
 75
     0
 76
     0
 77
     0
 78
     0
281
     0
 65
     1
110
0.0
120
0.0
130
0.0
111
1.0
121
0.0
131
0.0
112
0.0
122
1.0
132
0.0
 79
     0
146
0.0
  0
ENDTAB
  0
TABLE
  2
LTYPE
  5
5
330
0
100
AcDbSymbolTable
 70
     1
  0
LTYPE
  5
14
330
5
100
AcDbSymbolTableRecord
100
AcDbLinetypeTableRecord
  2
ByBlock
 70
     0
  3

 72
    65
 73
     0
 40
0.0
  0
LTYPE
  5
15
330
5
100
AcDbSymbolTableRecord
100
AcDbLinetypeTableRecord
  2
ByLayer
 70
     0
  3

 72
    65
 73
     0
 40
0.0
  0
LTYPE
  5
16
330
5
100
AcDbSymbolTableRecord
100
AcDbLinetypeTableRecord
  2
Continuous
 70
     0
  3
Solid line
 72
    65
 73
     0
 40
0.0
  0
ENDTAB
  0
TABLE
  2
LAYER
  5
2
330
0
100
AcDbSymbolTable
 70
     2
  0
LAYER
  5
10
330
2
100
AcDbSymbolTableRecord
100
AcDbLayerTableRecord
  2
0
 70
     0
 62
     7
  6
Continuous
370
    -3
390
F
  0
LAYER
  5
3B
330
2
100
AcDbSymbolTableRecord
100
AcDbLayerTableRecord
  2
Ebene 1
 70
     0
 62
     7
  6
Continuous
370
    -3
390
F
  0
ENDTAB
  0
TABLE
  2
STYLE
  5
3
330
0
100
AcDbSymbolTable
 70
     1
  0
STYLE
  5
11
330
3
100
AcDbSymbolTableRecord
100
AcDbTextStyleTableRecord
  2
Standard
 70
     0
 40
0.0
 41
1.0
 50
0.0
 71
     0
 42
0.2
  3
txt
  4

  0
ENDTAB
  0
TABLE
  2
VIEW
  5
6
330
0
100
AcDbSymbolTable
 70
     0
  0
ENDTAB
  0
TABLE
  2
UCS
  5
7
330
0
100
AcDbSymbolTable
 70
     0
  0
ENDTAB
  0
TABLE
  2
APPID
  5
9
330
0
100
AcDbSymbolTable
 70
     1
  0
APPID
  5
12
330
9
100
AcDbSymbolTableRecord
100
AcDbRegAppTableRecord
  2
ACAD
 70
     0
  0
ENDTAB
  0
TABLE
  2
DIMSTYLE
  5
A
330
0
100
AcDbSymbolTable
 70
     1
100
AcDbDimStyleTable
  0
DIMSTYLE
105
27
330
A
100
AcDbSymbolTableRecord
100
AcDbDimStyleTableRecord
  2
Standard
 70
     0
340
11
  0
ENDTAB
  0
TABLE
  2
BLOCK_RECORD
  5
1
330
0
100
AcDbSymbolTable
 70
     4
  0
BLOCK_RECORD
  5
1F
330
1
100
AcDbSymbolTableRecord
100
AcDbBlockTableRecord
  2
*Model_Space
340
22
  0
BLOCK_RECORD
  5
1B
330
1
100
AcDbSymbolTableRecord
100
AcDbBlockTableRecord
  2
*Paper_Space
340
1E
  0
BLOCK_RECORD
  5
23
330
1
100
AcDbSymbolTableRecord
100
AcDbBlockTableRecord
  2
*Paper_Space0
340
26
  0
BLOCK_RECORD
  5
3C
330
1
100
AcDbSymbolTableRecord
100
AcDbBlockTableRecord
  2
block 2
340
0
102
{BLKREFS
331
3D
102
}
  0
BLOCK_RECORD
  5
173
330
1
100
AcDbSymbolTableRecord
100
AcDbBlockTableRecord
  2
block 3
340
0
102
{BLKREFS
331
174
102
}
  0
BLOCK_RECORD
  5
311
330
1
100
AcDbSymbolTableRecord
100
AcDbBlockTableRecord
  2
block 4
340
0
102
{BLKREFS
331
312
102
}
  0
ENDTAB
  0
ENDSEC
  0
SECTION
  2
BLOCKS
  0
BLOCK
  5
20
330
1F
100
AcDbEntity
  8
0
100
AcDbBlockBegin
  2
*Model_Space
 70
     0
 71
     0
 10
0.0
 20
0.0
 30
0.0
  3
*Model_Space
  1

  0
ENDBLK
  5
21
330
1F
100
AcDbEntity
  8
0
100
AcDbBlockEnd
  0
BLOCK
  5
1C
330
1B
100
AcDbEntity
 67
     1
  8
0
100
AcDbBlockBegin
  2
*Paper_Space
 70
     0
 71
     0
 10
0.0
 20
0.0
 30
0.0
  3
*Paper_Space
  1

  0
ENDBLK
  5
1D
330
1B
100
AcDbEntity
 67
     1
  8
0
100
AcDbBlockEnd
  0
BLOCK
  5
24
330
23
100
AcDbEntity
  8
0
100
AcDbBlockBegin
  2
*Paper_Space0
 70
     0
 71
     0
 10
0.0
 20
0.0
 30
0.0
  3
*Paper_Space0
  1

  0
ENDBLK
  5
25
330
23
100
AcDbEntity
  8
0
100
AcDbBlockEnd
  0
BLOCK
  5
3E
330
3C
100
AcDbEntity
  8
0
100
AcDbBlockBegin
  2
block 2
 70
     0
 71
     0
 10
0.0
 20
0.0
 30
0.0
  3
block 2
  1

  0
POLYLINE
  5
40
330
3C
100
AcDbEntity
  8
Ebene 1
 62
   179
420
  1709851
370
    18
100
AcDb2dPolyline
 66
     1
 10
0.0
 20
0.0
 30
0.0
  0
VERTEX
  5
41
330
40
100
AcDbEntity
  8
Ebene 1
 62
   179
420
  1709851
370
    18
100
AcDbVertex
100
AcDb2dVertex
 10
20.35155706956489
 20
-111.3542710767621
 30
0.0
  0
VERTEX
  5
42
330
40
100
AcDbEntity
  8
Ebene 1
 62
   179
420
  1709851
370
    18
100
AcDbVertex
100
AcDb2dVertex
 10
28.75483397718629
 20
-102.9509941691407
 30
0.0
  0
SEQEND
  5
43
330
40
100
AcDbEntity
  8
Ebene 1
370
    18
  0
POLYLINE
  5
44
330
3C
100
AcDbEntity
  8
Ebene 1
 62
   179
420
  1709851
370
    18
100
AcDb2dPolyline
 66
     1
 10
0.0
 20
0.0
 30
0.0
  0
VERTEX
  5
45
330
44
100
AcDbEntity
  8
Ebene 1
 62
   179
420
  1709851
370
    18
100
AcDbVertex
100
AcDb2dVertex
 10
20.35155706956489
 20
-125.4936319673245
 30
0.0
  0
VERTEX
  5
46
330
44
100
AcDbEntity
  8
Ebene 1
 62
   179
420
  1709851
370
    18
100
AcDbVertex
100
AcDb2dVertex
 10
42.89419486774867
 20
-102.9509941691407
 30
0.0
  0
SEQEND
  5
47
330
44
100
AcDbEntity
  8
Ebene 1
370
    18
  0
POLYLINE
  5
48
330
3C
100
AcDbEntity
  8
Ebene 1
 62
   179
420
  1709851
370
    18
100
AcDb2dPolyline
 66
     1
 10
0.0
 20
0.0
 30
0.0
  0
VERTEX
  5
49
330
48
100
AcDbEntity
  8
Ebene 1
 62
   179
420
  1709851
370
    18
100
AcDbVertex
100
AcDb2dVertex
 10
20.35155706956489
 20
-139.6329928578869
 30
0.0
  0
VERTEX
  5
4A
330
48
100
AcDbEntity
  8
Ebene 1
 62
   179
420
  1709851
370
    18
100
AcDbVertex
100
AcDb2dVertex
 10
57.05457084077108
 20
-102.9509941691407
 30
0.0
  0
SEQEND
  5
4B
330
48
100
AcDbEntity
  8
Ebene 1
370
    18
  0
POLYLINE
  5
4C
330
3C
100
AcDbEntity
  8
Ebene 1
 62
   179
420
  1709851
370
    18
100
AcDb2dPolyline
 66
     1
 10
0.0
 20
0.0
 30
0.0
  0
VERTEX
  5
4D
330
4C
100
AcDbEntity
  8
Ebene 1
 62
   179
420
  1709851
370
    18
100
AcDbVertex
100
AcDb2dVertex
 10
20.35155706956489
 20
-153.7718369841265
 30
0.0
  0
VERTEX
  5
4E
330
4C
100
AcDbEntity
  8
Ebene 1
 62
   179
420
  1709851
370
    18
100
AcDbVertex
100
AcDb2dVertex
 10
71.19393173133346
 20
-102.9509941691407
 30
0.0
  0
SEQEND
  5
4F
330
4C
100
AcDbEntity
  8
Ebene 1
370
    18
  0
POLYLINE
  5
50
330
3C
100
AcDbEntity
  8
Ebene 1
 62
   179
420
  1709851
370
    18
100
AcDb2dPolyline
 66
     1
 10
0.0
 20
0.0
 30
0.0
  0
VERTEX
  5
51
330
50
100
AcDbEntity
  8
Ebene 1
 62
   179
420
  1709851
370
    18
100
AcDbVertex
100
AcDb2dVertex
 10
25.32575818594287
 20
-162.9371690130852
 30
0.0
  0
VERTEX
  5
52
330
50
100
AcDbEntity
  8
Ebene 1
 62
   179
420
  1709851
370
    18
100
AcDbVertex
100
AcDb2dVertex
 10
85.33363713144438
 20
-102.9509941691407
 30
0.0
  0
SEQEND
  5
53
330
50
100
AcDbEntity
  8
Ebene 1
370
    18
  0
POLYLINE
  5
54
330
3C
100
AcDbEntity
  8
Ebene 1
 62
   179
420
  1709851
370
    18
100
AcDb2dPolyline
 66
     1
 10
0.0
 20
0.0
 30
0.0
  0
VERTEX
  5
55
330
54
100
AcDbEntity
  8
Ebene 1
 62
   179
420
  1709851
370
    18
100
AcDbVertex
100
AcDb2dVertex
 10
39.46546358605377
 20
-162.9371690130852
 30
0.0
  0
VERTEX
  5
56
330
54
100
AcDbEntity
  8
Ebene 1
 62
   179
420
  1709851
370
    18
100
AcDbVertex
100
AcDb2dVertex
 10
99.47265351245824
 20
-102.9509941691407
 30
0.0
  0
SEQEND
  5
57
330
54
100
AcDbEntity
  8
Ebene 1
370
    18
  0
POLYLINE
  5
58
330
3C
100
AcDbEntity
  8
Ebene 1
 62
   179
420
  1709851
370
    18
100
AcDb2dPolyline
 66
     1
 10
0.0
 20
0.0
 30
0.0
  0
VERTEX
  5
59
330
58
100
AcDbEntity
  8
Ebene 1
 62
   179
420
  1709851
370
    18
100
AcDbVertex
100
AcDb2dVertex
 10
53.60447996706763
 20
-162.9371690130852
 30
0.0
  0
VERTEX
  5
5A
330
58
100
AcDbEntity
  8
Ebene 1
 62
   179
420
  1709851
370
    18
100
AcDbVertex
100
AcDb2dVertex
 10
113.6120144030206
 20
-102.9509941691407
 30
0.0
  0
SEQEND
  5
5B
330
58
100
AcDbEntity
  8
Ebene 1
370
    18
  0
POLYLINE
  5
5C
330
3C
100
AcDbEntity
  8
Ebene 1
 62
   179
420
  1709851
370
    18
100
AcDb2dPolyline
 66
     1
 10
0.0
 20
0.0
 30
0.0
  0
VERTEX
  5
5D
330
5C
100
AcDbEntity
  8
Ebene 1
 62
   179
420
  1709851
370
    18
100
AcDbVertex
100
AcDb2dVertex
 10
67.74384085763002
 20
-162.9371690130852
 30
0.0
  0
VERTEX
  5
5E
330
5C
100
AcDbEntity
  8
Ebene 1
 62
   179
420
  1709851
370
    18
100
AcDbVertex
100
AcDb2dVertex
 10
127.751375293583
 20
-102.9509941691407
 30
0.0
  0
SEQEND
  5
5F
330
5C
100
AcDbEntity
  8
Ebene 1
370
    18
  0
POLYLINE
  5
60
330
3C
100
AcDbEntity
  8
Ebene 1
 62
   179
420
  1709851
370
    18
100
AcDb2dPolyline
 66
     1
 10
0.0
 20
0.0
 30
0.0
  0
VERTEX
  5
61
330
60
100
AcDbEntity
  8
Ebene 1
 62
   179
420
  1709851
370
    18
100
AcDbVertex
100
AcDb2dVertex
 10
81.90421683065242
 20
-162.9371690130852
 30
0.0
  0
VERTEX
  5
62
330
60
100
AcDbEntity
  8
Ebene 1
 62
   179
420
  1709851
370
    18
100
AcDbVertex
100
AcDb2dVertex
 10
141.8907361841454
 20
-102.9509941691407
 30
0.0
  0
SEQEND
  5
63
330
60
100
AcDbEntity
  8
Ebene 1
370
    18
  0
POLYLINE
  5
64
330
3C
100
AcDbEntity
  8
Ebene 1
 62
   179
420
  1709851
370
    18
100
AcDb2dPolyline
 66
     1
 10
0.0
 20
0.0
 30
0.0
  0
VERTEX
  5
65
330
64
100
AcDbEntity
  8
Ebene 1
 62
   179
420
  1709851
370
    18
100
AcDbVertex
100
AcDb2dVertex
 10
96.0435777212148
 20
-162.9371690130852
 30
0.0
  0
VERTEX
  5
66
330
64
100
AcDbEntity
  8
Ebene 1
 62
   179
420
  1709851
370
    18
100
AcDbVertex
100
AcDb2dVertex
 10
156.0304415842563
 20
-102.9509941691407
 30
0.0
  0
SEQEND
  5
67
330
64
100
AcDbEntity
  8
Ebene 1
370
    18
  0
POLYLINE
  5
68
330
3C
100
AcDbEntity
  8
Ebene 1
 62
   179
420
  1709851
370
    18
100
AcDb2dPolyline
 66
     1
 10
0.0
 20
0.0
 30
0.0
  0
VERTEX
  5
69
330
68
100
AcDbEntity
  8
Ebene 1
 62
   179
420
  1709851
370
    18
100
AcDbVertex
100
AcDb2dVertex
 10
110.1831108665514
 20
-162.9371690130852
 30
0.0
  0
VERTEX
  5
6A
330
68
100
AcDbEntity
  8
Ebene 1
 62
   179
420
  1709851
370
    18
100
AcDbVertex
100
AcDb2dVertex
 10
170.1694579652701
 20
-102.9509941691407
 30
0.0
  0
SEQEND
  5
6B
330
68
100
AcDbEntity
  8
Ebene 1
370
    18
  0
POLYLINE
  5
6C
330
3C
100
AcDbEntity
  8
Ebene 1
 62
   179
420
  1709851
370
    18
100
AcDb2dPolyline
 66
     1
 10
0.0
 20
0.0
 30
0.0
  0
VERTEX
  5
6D
330
6C
100
AcDbEntity
  8
Ebene 1
 62
   179
420
  1709851
370
    18
100
AcDbVertex
100
AcDb2dVertex
 10
124.3224717571138
 20
-162.9371690130852
 30
0.0
  0
VERTEX
  5
6E
330
6C
100
AcDbEntity
  8
Ebene 1
 62
   179
420
  1709851
370
    18
100
AcDbVertex
100
AcDb2dVertex
 10
184.3088188558325
 20
-102.9509941691407
 30
0.0
  0
SEQEND
  5
6F
330
6C
100
AcDbEntity
  8
Ebene 1
370
    18
  0
POLYLINE
  5
70
330
3C
100
AcDbEntity
  8
Ebene 1
 62
   179
420
  1709851
370
    18
100
AcDb2dPolyline
 66
     1
 10
0.0
 20
0.0
 30
0.0
  0
VERTEX
  5
71
330
70
100
AcDbEntity
  8
Ebene 1
 62
   179
420
  1709851
370
    18
100
AcDbVertex
100
AcDb2dVertex
 10
138.4618326476762
 20
-162.9371690130852
 30
0.0
  0
VERTEX
  5
72
330
70
100
AcDbEntity
  8
Ebene 1
 62
   179
420
  1709851
370
    18
100
AcDbVertex
100
AcDb2dVertex
 10
188.3516384077732
 20
-113.0475355077624
 30
0.0
  0
SEQEND
  5
73
330
70
100
AcDbEntity
  8
Ebene 1
370
    18
  0
POLYLINE
  5
74
330
3C
100
AcDbEntity
  8
Ebene 1
 62
   179
420
  1709851
370
    18
100
AcDb2dPolyline
 66
     1
 10
0.0
 20
0.0
 30
0.0
  0
VERTEX
  5
75
330
74
100
AcDbEntity
  8
Ebene 1
 62
   179
420
  1709851
370
    18
100
AcDbVertex
100
AcDb2dVertex
 10
152.6011935382386
 20
-162.9371690130852
 30
0.0
  0
VERTEX
  5
76
330
74
100
AcDbEntity
  8
Ebene 1
 62
   179
420
  1709851
370
    18
100
AcDbVertex
100
AcDb2dVertex
 10
188.3516384077732
 20
-127.1868963983248
 30
0.0
  0
SEQEND
  5
77
330
74
100
AcDbEntity
  8
Ebene 1
370
    18
  0
POLYLINE
  5
78
330
3C
100
AcDbEntity
  8
Ebene 1
 62
   179
420
  1709851
370
    18
100
AcDb2dPolyline
 66
     1
 10
0.0
 20
0.0
 30
0.0
  0
VERTEX
  5
79
330
78
100
AcDbEntity
  8
Ebene 1
 62
   179
420
  1709851
370
    18
100
AcDbVertex
100
AcDb2dVertex
 10
166.740554428801
 20
-162.9371690130852
 30
0.0
  0
VERTEX
  5
7A
330
78
100
AcDbEntity
  8
Ebene 1
 62
   179
420
  1709851
370
    18
100
AcDbVertex
100
AcDb2dVertex
 10
188.3516384077732
 20
-141.3472723713472
 30
0.0
  0
SEQEND
  5
7B
330
78
100
AcDbEntity
  8
Ebene 1
370
    18
  0
POLYLINE
  5
7C
330
3C
100
AcDbEntity
  8
Ebene 1
 62
   179
420
  1709851
370
    18
100
AcDb2dPolyline
 66
     1
 10
0.0
 20
0.0
 30
0.0
  0
VERTEX
  5
7D
330
7C
100
AcDbEntity
  8
Ebene 1
 62
   179
420
  1709851
370
    18
100
AcDbVertex
100
AcDb2dVertex
 10
180.8799153193634
 20
-162.9371690130852
 30
0.0
  0
VERTEX
  5
7E
330
7C
100
AcDbEntity
  8
Ebene 1
 62
   179
420
  1709851
370
    18
100
AcDbVertex
100
AcDb2dVertex
 10
188.3516384077732
 20
-155.4868055166839
 30
0.0
  0
SEQEND
  5
7F
330
7C
100
AcDbEntity
  8
Ebene 1
370
    18
  0
POLYLINE
  5
80
330
3C
100
AcDbEntity
  8
Ebene 1
 62
   179
420
  1709851
370
    18
100
AcDb2dPolyline
 66
     1
 10
0.0
 20
0.0
 30
0.0
  0
VERTEX
  5
81
330
80
100
AcDbEntity
  8
Ebene 1
 62
   179
420
  1709851
370
    18
100
AcDbVertex
100
AcDb2dVertex
 10
20.35155706956489
 20
-104.2845906314809
 30
0.0
  0
VERTEX
  5
82
330
80
100
AcDbEntity
  8
Ebene 1
 62
   179
420
  1709851
370
    18
100
AcDbVertex
100
AcDb2dVertex
 10
21.68549804145363
 20
-102.9509941691407
 30
0.0
  0
SEQEND
  5
83
330
80
100
AcDbEntity
  8
Ebene 1
370
    18
  0
POLYLINE
  5
84
330
3C
100
AcDbEntity
  8
Ebene 1
 62
   179
420
  1709851
370
    18
100
AcDb2dPolyline
 66
     1
 10
0.0
 20
0.0
 30
0.0
  0
VERTEX
  5
85
330
84
100
AcDbEntity
  8
Ebene 1
 62
   179
420
  1709851
370
    18
100
AcDbVertex
100
AcDb2dVertex
 10
20.35155706956489
 20
-118.4239515220433
 30
0.0
  0
VERTEX
  5
86
330
84
100
AcDbEntity
  8
Ebene 1
 62
   179
420
  1709851
370
    18
100
AcDbVertex
100
AcDb2dVertex
 10
35.82451442246749
 20
-102.9509941691407
 30
0.0
  0
SEQEND
  5
87
330
84
100
AcDbEntity
  8
Ebene 1
370
    18
  0
POLYLINE
  5
88
330
3C
100
AcDbEntity
  8
Ebene 1
 62
   179
420
  1709851
370
    18
100
AcDb2dPolyline
 66
     1
 10
0.0
 20
0.0
 30
0.0
  0
VERTEX
  5
89
330
88
100
AcDbEntity
  8
Ebene 1
 62
   179
420
  1709851
370
    18
100
AcDbVertex
100
AcDb2dVertex
 10
20.35155706956489
 20
-132.5633124126057
 30
0.0
  0
VERTEX
  5
8A
330
88
100
AcDbEntity
  8
Ebene 1
 62
   179
420
  1709851
370
    18
100
AcDbVertex
100
AcDb2dVertex
 10
49.9637030582556
 20
-102.9509941691407
 30
0.0
  0
SEQEND
  5
8B
330
88
100
AcDbEntity
  8
Ebene 1
370
    18
  0
POLYLINE
  5
8C
330
3C
100
AcDbEntity
  8
Ebene 1
 62
   179
420
  1709851
370
    18
100
AcDb2dPolyline
 66
     1
 10
0.0
 20
0.0
 30
0.0
  0
VERTEX
  5
8D
330
8C
100
AcDbEntity
  8
Ebene 1
 62
   179
420
  1709851
370
    18
100
AcDbVertex
100
AcDb2dVertex
 10
20.35155706956489
 20
-146.7026733031681
 30
0.0
  0
VERTEX
  5
8E
330
8C
100
AcDbEntity
  8
Ebene 1
 62
   179
420
  1709851
370
    18
100
AcDbVertex
100
AcDb2dVertex
 10
64.12425128605227
 20
-102.9509941691407
 30
0.0
  0
SEQEND
  5
8F
330
8C
100
AcDbEntity
  8
Ebene 1
370
    18
  0
POLYLINE
  5
90
330
3C
100
AcDbEntity
  8
Ebene 1
 62
   179
420
  1709851
370
    18
100
AcDb2dPolyline
 66
     1
 10
0.0
 20
0.0
 30
0.0
  0
VERTEX
  5
91
330
90
100
AcDbEntity
  8
Ebene 1
 62
   179
420
  1709851
370
    18
100
AcDbVertex
100
AcDb2dVertex
 10
20.35155706956489
 20
-160.8418619389562
 30
0.0
  0
VERTEX
  5
92
330
90
100
AcDbEntity
  8
Ebene 1
 62
   179
420
  1709851
370
    18
100
AcDbVertex
100
AcDb2dVertex
 10
78.26361217661466
 20
-102.9509941691407
 30
0.0
  0
SEQEND
  5
93
330
90
100
AcDbEntity
  8
Ebene 1
370
    18
  0
POLYLINE
  5
94
330
3C
100
AcDbEntity
  8
Ebene 1
 62
   179
420
  1709851
370
    18
100
AcDb2dPolyline
 66
     1
 10
0.0
 20
0.0
 30
0.0
  0
VERTEX
  5
95
330
94
100
AcDbEntity
  8
Ebene 1
 62
   179
420
  1709851
370
    18
100
AcDbVertex
100
AcDb2dVertex
 10
32.39543863122406
 20
-162.9371690130852
 30
0.0
  0
VERTEX
  5
96
330
94
100
AcDbEntity
  8
Ebene 1
 62
   179
420
  1709851
370
    18
100
AcDbVertex
100
AcDb2dVertex
 10
92.40331757672557
 20
-102.9509941691407
 30
0.0
  0
SEQEND
  5
97
330
94
100
AcDbEntity
  8
Ebene 1
370
    18
  0
POLYLINE
  5
98
330
3C
100
AcDbEntity
  8
Ebene 1
 62
   179
420
  1709851
370
    18
100
AcDb2dPolyline
 66
     1
 10
0.0
 20
0.0
 30
0.0
  0
VERTEX
  5
99
330
98
100
AcDbEntity
  8
Ebene 1
 62
   179
420
  1709851
370
    18
100
AcDbVertex
100
AcDb2dVertex
 10
46.53514403133497
 20
-162.9371690130852
 30
0.0
  0
VERTEX
  5
9A
330
98
100
AcDbEntity
  8
Ebene 1
 62
   179
420
  1709851
370
    18
100
AcDbVertex
100
AcDb2dVertex
 10
106.5423339577394
 20
-102.9509941691407
 30
0.0
  0
SEQEND
  5
9B
330
98
100
AcDbEntity
  8
Ebene 1
370
    18
  0
POLYLINE
  5
9C
330
3C
100
AcDbEntity
  8
Ebene 1
 62
   179
420
  1709851
370
    18
100
AcDb2dPolyline
 66
     1
 10
0.0
 20
0.0
 30
0.0
  0
VERTEX
  5
9D
330
9C
100
AcDbEntity
  8
Ebene 1
 62
   179
420
  1709851
370
    18
100
AcDbVertex
100
AcDb2dVertex
 10
60.67450492189735
 20
-162.9371690130852
 30
0.0
  0
VERTEX
  5
9E
330
9C
100
AcDbEntity
  8
Ebene 1
 62
   179
420
  1709851
370
    18
100
AcDbVertex
100
AcDb2dVertex
 10
120.6816948483018
 20
-102.9509941691407
 30
0.0
  0
SEQEND
  5
9F
330
9C
100
AcDbEntity
  8
Ebene 1
370
    18
  0
POLYLINE
  5
A0
330
3C
100
AcDbEntity
  8
Ebene 1
 62
   179
420
  1709851
370
    18
100
AcDb2dPolyline
 66
     1
 10
0.0
 20
0.0
 30
0.0
  0
VERTEX
  5
A1
330
A0
100
AcDbEntity
  8
Ebene 1
 62
   179
420
  1709851
370
    18
100
AcDbVertex
100
AcDb2dVertex
 10
74.83453638537124
 20
-162.9371690130852
 30
0.0
  0
VERTEX
  5
A2
330
A0
100
AcDbEntity
  8
Ebene 1
 62
   179
420
  1709851
370
    18
100
AcDbVertex
100
AcDb2dVertex
 10
134.8210557388642
 20
-102.9509941691407
 30
0.0
  0
SEQEND
  5
A3
330
A0
100
AcDbEntity
  8
Ebene 1
370
    18
  0
POLYLINE
  5
A4
330
3C
100
AcDbEntity
  8
Ebene 1
 62
   179
420
  1709851
370
    18
100
AcDb2dPolyline
 66
     1
 10
0.0
 20
0.0
 30
0.0
  0
VERTEX
  5
A5
330
A4
100
AcDbEntity
  8
Ebene 1
 62
   179
420
  1709851
370
    18
100
AcDbVertex
100
AcDb2dVertex
 10
88.97389727593361
 20
-162.9371690130852
 30
0.0
  0
VERTEX
  5
A6
330
A4
100
AcDbEntity
  8
Ebene 1
 62
   179
420
  1709851
370
    18
100
AcDbVertex
100
AcDb2dVertex
 10
148.9604166294266
 20
-102.9509941691407
 30
0.0
  0
SEQEND
  5
A7
330
A4
100
AcDbEntity
  8
Ebene 1
370
    18
  0
POLYLINE
  5
A8
330
3C
100
AcDbEntity
  8
Ebene 1
 62
   179
420
  1709851
370
    18
100
AcDb2dPolyline
 66
     1
 10
0.0
 20
0.0
 30
0.0
  0
VERTEX
  5
A9
330
A8
100
AcDbEntity
  8
Ebene 1
 62
   179
420
  1709851
370
    18
100
AcDbVertex
100
AcDb2dVertex
 10
103.1136026760445
 20
-162.9371690130852
 30
0.0
  0
VERTEX
  5
AA
330
A8
100
AcDbEntity
  8
Ebene 1
 62
   179
420
  1709851
370
    18
100
AcDbVertex
100
AcDb2dVertex
 10
163.0997775199889
 20
-102.9509941691407
 30
0.0
  0
SEQEND
  5
AB
330
A8
100
AcDbEntity
  8
Ebene 1
370
    18
  0
POLYLINE
  5
AC
330
3C
100
AcDbEntity
  8
Ebene 1
 62
   179
420
  1709851
370
    18
100
AcDb2dPolyline
 66
     1
 10
0.0
 20
0.0
 30
0.0
  0
VERTEX
  5
AD
330
AC
100
AcDbEntity
  8
Ebene 1
 62
   179
420
  1709851
370
    18
100
AcDbVertex
100
AcDb2dVertex
 10
117.2531358213812
 20
-162.9371690130852
 30
0.0
  0
VERTEX
  5
AE
330
AC
100
AcDbEntity
  8
Ebene 1
 62
   179
420
  1709851
370
    18
100
AcDbVertex
100
AcDb2dVertex
 10
177.2391384105513
 20
-102.9509941691407
 30
0.0
  0
SEQEND
  5
AF
330
AC
100
AcDbEntity
  8
Ebene 1
370
    18
  0
POLYLINE
  5
B0
330
3C
100
AcDbEntity
  8
Ebene 1
 62
   179
420
  1709851
370
    18
100
AcDb2dPolyline
 66
     1
 10
0.0
 20
0.0
 30
0.0
  0
VERTEX
  5
B1
330
B0
100
AcDbEntity
  8
Ebene 1
 62
   179
420
  1709851
370
    18
100
AcDbVertex
100
AcDb2dVertex
 10
131.392152202395
 20
-162.9371690130852
 30
0.0
  0
VERTEX
  5
B2
330
B0
100
AcDbEntity
  8
Ebene 1
 62
   179
420
  1709851
370
    18
100
AcDbVertex
100
AcDb2dVertex
 10
188.3516384077732
 20
-105.9778550624812
 30
0.0
  0
SEQEND
  5
B3
330
B0
100
AcDbEntity
  8
Ebene 1
370
    18
  0
POLYLINE
  5
B4
330
3C
100
AcDbEntity
  8
Ebene 1
 62
   179
420
  1709851
370
    18
100
AcDb2dPolyline
 66
     1
 10
0.0
 20
0.0
 30
0.0
  0
VERTEX
  5
B5
330
B4
100
AcDbEntity
  8
Ebene 1
 62
   179
420
  1709851
370
    18
100
AcDbVertex
100
AcDb2dVertex
 10
145.5315130929574
 20
-162.9371690130852
 30
0.0
  0
VERTEX
  5
B6
330
B4
100
AcDbEntity
  8
Ebene 1
 62
   179
420
  1709851
370
    18
100
AcDbVertex
100
AcDb2dVertex
 10
188.3516384077732
 20
-120.1172159530436
 30
0.0
  0
SEQEND
  5
B7
330
B4
100
AcDbEntity
  8
Ebene 1
370
    18
  0
POLYLINE
  5
B8
330
3C
100
AcDbEntity
  8
Ebene 1
 62
   179
420
  1709851
370
    18
100
AcDb2dPolyline
 66
     1
 10
0.0
 20
0.0
 30
0.0
  0
VERTEX
  5
B9
330
B8
100
AcDbEntity
  8
Ebene 1
 62
   179
420
  1709851
370
    18
100
AcDbVertex
100
AcDb2dVertex
 10
159.6708739835198
 20
-162.9371690130852
 30
0.0
  0
VERTEX
  5
BA
330
B8
100
AcDbEntity
  8
Ebene 1
 62
   179
420
  1709851
370
    18
100
AcDbVertex
100
AcDb2dVertex
 10
188.3516384077732
 20
-134.277591926066
 30
0.0
  0
SEQEND
  5
BB
330
B8
100
AcDbEntity
  8
Ebene 1
370
    18
  0
POLYLINE
  5
BC
330
3C
100
AcDbEntity
  8
Ebene 1
 62
   179
420
  1709851
370
    18
100
AcDb2dPolyline
 66
     1
 10
0.0
 20
0.0
 30
0.0
  0
VERTEX
  5
BD
330
BC
100
AcDbEntity
  8
Ebene 1
 62
   179
420
  1709851
370
    18
100
AcDbVertex
100
AcDb2dVertex
 10
173.8102348740822
 20
-162.9371690130852
 30
0.0
  0
VERTEX
  5
BE
330
BC
100
AcDbEntity
  8
Ebene 1
 62
   179
420
  1709851
370
    18
100
AcDbVertex
100
AcDb2dVertex
 10
188.3516384077732
 20
-148.4169528166284
 30
0.0
  0
SEQEND
  5
BF
330
BC
100
AcDbEntity
  8
Ebene 1
370
    18
  0
POLYLINE
  5
C0
330
3C
100
AcDbEntity
  8
Ebene 1
 62
   179
420
  1709851
370
    18
100
AcDb2dPolyline
 66
     1
 10
0.0
 20
0.0
 30
0.0
  0
VERTEX
  5
C1
330
C0
100
AcDbEntity
  8
Ebene 1
 62
   179
420
  1709851
370
    18
100
AcDbVertex
100
AcDb2dVertex
 10
187.9495957646446
 20
-162.9371690130852
 30
0.0
  0
VERTEX
  5
C2
330
C0
100
AcDbEntity
  8
Ebene 1
 62
   179
420
  1709851
370
    18
100
AcDbVertex
100
AcDb2dVertex
 10
188.3516384077732
 20
-162.5561414524165
 30
0.0
  0
SEQEND
  5
C3
330
C0
100
AcDbEntity
  8
Ebene 1
370
    18
  0
POLYLINE
  5
C4
330
3C
100
AcDbEntity
  8
Ebene 1
370
     0
100
AcDb2dPolyline
 66
     1
 10
0.0
 20
0.0
 30
0.0
  0
VERTEX
  5
C5
330
C4
100
AcDbEntity
  8
Ebene 1
370
     0
100
AcDbVertex
100
AcDb2dVertex
 10
20.10833332830625
 20
-192.9308593267673
 30
0.0
  0
VERTEX
  5
C6
330
C4
100
AcDbEntity
  8
Ebene 1
370
     0
100
AcDbVertex
100
AcDb2dVertex
 10
188.5948621490319
 20
-192.9308593267673
 30
0.0
  0
VERTEX
  5
C7
330
C4
100
AcDbEntity
  8
Ebene 1
370
     0
100
AcDbVertex
100
AcDb2dVertex
 10
188.5948621490319
 20
-98.86614445228
 30
0.0
  0
VERTEX
  5
C8
330
C4
100
AcDbEntity
  8
Ebene 1
370
     0
100
AcDbVertex
100
AcDb2dVertex
 10
20.10833332830625
 20
-98.86614445228
 30
0.0
  0
VERTEX
  5
C9
330
C4
100
AcDbEntity
  8
Ebene 1
370
     0
100
AcDbVertex
100
AcDb2dVertex
 10
20.10833332830625
 20
-192.9308593267673
 30
0.0
  0
SEQEND
  5
CA
330
C4
100
AcDbEntity
  8
Ebene 1
370
     0
  0
ENDBLK
  5
3F
330
3C
100
AcDbEntity
  8
0
100
AcDbBlockEnd
  0
BLOCK
  5
175
330
173
100
AcDbEntity
  8
0
100
AcDbBlockBegin
  2
block 3
 70
     0
 71
     0
 10
0.0
 20
0.0
 30
0.0
  3
block 3
  1

  0
POLYLINE
  5
177
330
173
100
AcDbEntity
  8
Ebene 1
 62
   179
420
  1709851
370
    50
100
AcDb2dPolyline
 66
     1
 10
0.0
 20
0.0
 30
0.0
  0
VERTEX
  5
178
330
177
100
AcDbEntity
  8
Ebene 1
 62
   179
420
  1709851
370
    50
100
AcDbVertex
100
AcDb2dVertex
 10
20.35172932433915
 20
-102.9509941691407
 30
0.0
  0
VERTEX
  5
179
330
177
100
AcDbEntity
  8
Ebene 1
 62
   179
420
  1709851
370
    50
100
AcDbVertex
100
AcDb2dVertex
 10
188.3516384077732
 20
-102.9509941691407
 30
0.0
  0
SEQEND
  5
17A
330
177
100
AcDbEntity
  8
Ebene 1
370
    50
  0
POLYLINE
  5
17B
330
173
100
AcDbEntity
  8
Ebene 1
 62
   179
420
  1709851
370
    50
100
AcDb2dPolyline
 66
     1
 10
0.0
 20
0.0
 30
0.0
  0
VERTEX
  5
17C
330
17B
100
AcDbEntity
  8
Ebene 1
 62
   179
420
  1709851
370
    50
100
AcDbVertex
100
AcDb2dVertex
 10
20.35172932433915
 20
-162.9371690130852
 30
0.0
  0
VERTEX
  5
17D
330
17B
100
AcDbEntity
  8
Ebene 1
 62
   179
420
  1709851
370
    50
100
AcDbVertex
100
AcDb2dVertex
 10
188.3516384077732
 20
-162.9371690130852
 30
0.0
  0
SEQEND
  5
17E
330
17B
100
AcDbEntity
  8
Ebene 1
370
    50
  0
POLYLINE
  5
17F
330
173
100
AcDbEntity
  8
Ebene 1
 62
   179
420
  1709851
370
    25
100
AcDb2dPolyline
 66
     1
 10
0.0
 20
0.0
 30
0.0
  0
VERTEX
  5
180
330
17F
100
AcDbEntity
  8
Ebene 1
 62
   179
420
  1709851
370
    25
100
AcDbVertex
100
AcDb2dVertex
 10
165.237803778135
 20
-187.342225430595
 30
0.0
  0
VERTEX
  5
181
330
17F
100
AcDbEntity
  8
Ebene 1
 62
   179
420
  1709851
370
    25
100
AcDbVertex
100
AcDb2dVertex
 10
188.3519829173217
 20
-187.342225430595
 30
0.0
  0
SEQEND
  5
182
330
17F
100
AcDbEntity
  8
Ebene 1
370
    25
  0
POLYLINE
  5
183
330
173
100
AcDbEntity
  8
Ebene 1
 62
   179
420
  1709851
370
    25
100
AcDb2dPolyline
 66
     1
 10
0.0
 20
0.0
 30
0.0
  0
VERTEX
  5
184
330
183
100
AcDbEntity
  8
Ebene 1
 62
   179
420
  1709851
370
    25
100
AcDbVertex
100
AcDb2dVertex
 10
165.237803778135
 20
-188.9297254301981
 30
0.0
  0
VERTEX
  5
185
330
183
100
AcDbEntity
  8
Ebene 1
 62
   179
420
  1709851
370
    25
100
AcDbVertex
100
AcDb2dVertex
 10
188.3519829173217
 20
-188.9297254301981
 30
0.0
  0
SEQEND
  5
186
330
183
100
AcDbEntity
  8
Ebene 1
370
    25
  0
POLYLINE
  5
187
330
173
100
AcDbEntity
  8
Ebene 1
 62
   179
420
  1709851
370
    25
100
AcDb2dPolyline
 66
     1
 10
0.0
 20
0.0
 30
0.0
  0
VERTEX
  5
188
330
187
100
AcDbEntity
  8
Ebene 1
 62
   179
420
  1709851
370
    25
100
AcDbVertex
100
AcDb2dVertex
 10
20.35190157911341
 20
-188.9297254301981
 30
0.0
  0
VERTEX
  5
189
330
187
100
AcDbEntity
  8
Ebene 1
 62
   179
420
  1709851
370
    25
100
AcDbVertex
100
AcDb2dVertex
 10
43.65607773431168
 20
-188.9297254301981
 30
0.0
  0
SEQEND
  5
18A
330
187
100
AcDbEntity
  8
Ebene 1
370
    25
  0
POLYLINE
  5
18B
330
173
100
AcDbEntity
  8
Ebene 1
 62
   179
420
  1709851
370
    25
100
AcDb2dPolyline
 66
     1
 10
0.0
 20
0.0
 30
0.0
  0
VERTEX
  5
18C
330
18B
100
AcDbEntity
  8
Ebene 1
 62
   179
420
  1709851
370
    25
100
AcDbVertex
100
AcDb2dVertex
 10
43.65607773431168
 20
-188.9297254301981
 30
0.0
  0
VERTEX
  5
18D
330
18B
100
AcDbEntity
  8
Ebene 1
 62
   179
420
  1709851
370
    25
100
AcDbVertex
100
AcDb2dVertex
 10
43.65607773431168
 20
-187.342225430595
 30
0.0
  0
VERTEX
  5
18E
330
18B
100
AcDbEntity
  8
Ebene 1
 62
   179
420
  1709851
370
    25
100
AcDbVertex
100
AcDb2dVertex
 10
20.35190157911341
 20
-187.342225430595
 30
0.0
  0
SEQEND
  5
18F
330
18B
100
AcDbEntity
  8
Ebene 1
370
    25
  0
POLYLINE
  5
190
330
173
100
AcDbEntity
  8
Ebene 1
 62
   179
420
  1709851
370
    25
100
AcDb2dPolyline
 66
     1
 10
0.0
 20
0.0
 30
0.0
  0
VERTEX
  5
191
330
190
100
AcDbEntity
  8
Ebene 1
 62
   179
420
  1709851
370
    25
100
AcDbVertex
100
AcDb2dVertex
 10
45.2435777339148
 20
-188.9297254301981
 30
0.0
  0
VERTEX
  5
192
330
190
100
AcDbEntity
  8
Ebene 1
 62
   179
420
  1709851
370
    25
100
AcDbVertex
100
AcDb2dVertex
 10
45.2435777339148
 20
-187.342225430595
 30
0.0
  0
SEQEND
  5
193
330
190
100
AcDbEntity
  8
Ebene 1
370
    25
  0
POLYLINE
  5
194
330
173
100
AcDbEntity
  8
Ebene 1
 62
   179
420
  1709851
370
    25
100
AcDb2dPolyline
 66
     1
 10
0.0
 20
0.0
 30
0.0
  0
VERTEX
  5
195
330
194
100
AcDbEntity
  8
Ebene 1
 62
   179
420
  1709851
370
    25
100
AcDbVertex
100
AcDb2dVertex
 10
45.2435777339148
 20
-188.9297254301981
 30
0.0
  0
VERTEX
  5
196
330
194
100
AcDbEntity
  8
Ebene 1
 62
   179
420
  1709851
370
    25
100
AcDbVertex
100
AcDb2dVertex
 10
163.6289441865233
 20
-188.9297254301981
 30
0.0
  0
SEQEND
  5
197
330
194
100
AcDbEntity
  8
Ebene 1
370
    25
  0
POLYLINE
  5
198
330
173
100
AcDbEntity
  8
Ebene 1
 62
   179
420
  1709851
370
    25
100
AcDb2dPolyline
 66
     1
 10
0.0
 20
0.0
 30
0.0
  0
VERTEX
  5
199
330
198
100
AcDbEntity
  8
Ebene 1
 62
   179
420
  1709851
370
    25
100
AcDbVertex
100
AcDb2dVertex
 10
163.6289441865233
 20
-188.9297254301981
 30
0.0
  0
VERTEX
  5
19A
330
198
100
AcDbEntity
  8
Ebene 1
 62
   179
420
  1709851
370
    25
100
AcDbVertex
100
AcDb2dVertex
 10
163.6289441865233
 20
-187.342225430595
 30
0.0
  0
VERTEX
  5
19B
330
198
100
AcDbEntity
  8
Ebene 1
 62
   179
420
  1709851
370
    25
100
AcDbVertex
100
AcDb2dVertex
 10
45.2435777339148
 20
-187.342225430595
 30
0.0
  0
SEQEND
  5
19C
330
198
100
AcDbEntity
  8
Ebene 1
370
    25
  0
POLYLINE
  5
19D
330
173
100
AcDbEntity
  8
Ebene 1
 62
   179
420
  1709851
370
    25
100
AcDb2dPolyline
 66
     1
 10
0.0
 20
0.0
 30
0.0
  0
VERTEX
  5
19E
330
19D
100
AcDbEntity
  8
Ebene 1
 62
   179
420
  1709851
370
    25
100
AcDbVertex
100
AcDb2dVertex
 10
165.237803778135
 20
-188.9297254301981
 30
0.0
  0
VERTEX
  5
19F
330
19D
100
AcDbEntity
  8
Ebene 1
 62
   179
420
  1709851
370
    25
100
AcDbVertex
100
AcDb2dVertex
 10
165.237803778135
 20
-187.342225430595
 30
0.0
  0
SEQEND
  5
1A0
330
19D
100
AcDbEntity
  8
Ebene 1
370
    25
  0
POLYLINE
  5
1A1
330
173
100
AcDbEntity
  8
Ebene 1
 62
   179
420
  1709851
370
    18
100
AcDb2dPolyline
 66
     1
 10
0.0
 20
0.0
 30
0.0
  0
VERTEX
  5
1A2
330
1A1
100
AcDbEntity
  8
Ebene 1
 62
   179
420
  1709851
370
    18
100
AcDbVertex
100
AcDb2dVertex
 10
188.3516384077732
 20
-100.6438137226689
 30
0.0
  0
VERTEX
  5
1A3
330
1A1
100
AcDbEntity
  8
Ebene 1
 62
   179
420
  1709851
370
    18
100
AcDbVertex
100
AcDb2dVertex
 10
188.3516384077732
 20
-98.95054929166862
 30
0.0
  0
SEQEND
  5
1A4
330
1A1
100
AcDbEntity
  8
Ebene 1
370
    18
  0
POLYLINE
  5
1A5
330
173
100
AcDbEntity
  8
Ebene 1
 62
   179
420
  1709851
370
    18
100
AcDb2dPolyline
 66
     1
 10
0.0
 20
0.0
 30
0.0
  0
VERTEX
  5
1A6
330
1A5
100
AcDbEntity
  8
Ebene 1
 62
   179
420
  1709851
370
    18
100
AcDbVertex
100
AcDb2dVertex
 10
188.3516384077732
 20
-102.6333563654007
 30
0.0
  0
VERTEX
  5
1A7
330
1A5
100
AcDbEntity
  8
Ebene 1
 62
   179
420
  1709851
370
    18
100
AcDbVertex
100
AcDb2dVertex
 10
188.3516384077732
 20
-101.6387572988091
 30
0.0
  0
SEQEND
  5
1A8
330
1A5
100
AcDbEntity
  8
Ebene 1
370
    18
  0
POLYLINE
  5
1A9
330
173
100
AcDbEntity
  8
Ebene 1
 62
   179
420
  1709851
370
    18
100
AcDb2dPolyline
 66
     1
 10
0.0
 20
0.0
 30
0.0
  0
VERTEX
  5
1AA
330
1A9
100
AcDbEntity
  8
Ebene 1
 62
   179
420
  1709851
370
    18
100
AcDbVertex
100
AcDb2dVertex
 10
188.3516384077732
 20
-110.6345906298934
 30
0.0
  0
VERTEX
  5
1AB
330
1A9
100
AcDbEntity
  8
Ebene 1
 62
   179
420
  1709851
370
    18
100
AcDbVertex
100
AcDb2dVertex
 10
188.3516384077732
 20
-103.6282999415408
 30
0.0
  0
SEQEND
  5
1AC
330
1A9
100
AcDbEntity
  8
Ebene 1
370
    18
  0
POLYLINE
  5
1AD
330
173
100
AcDbEntity
  8
Ebene 1
 62
   179
420
  1709851
370
    18
100
AcDb2dPolyline
 66
     1
 10
0.0
 20
0.0
 30
0.0
  0
VERTEX
  5
1AE
330
1AD
100
AcDbEntity
  8
Ebene 1
 62
   179
420
  1709851
370
    18
100
AcDbVertex
100
AcDb2dVertex
 10
188.3516384077732
 20
-112.6241332726252
 30
0.0
  0
VERTEX
  5
1AF
330
1AD
100
AcDbEntity
  8
Ebene 1
 62
   179
420
  1709851
370
    18
100
AcDbVertex
100
AcDb2dVertex
 10
188.3516384077732
 20
-111.6291896964851
 30
0.0
  0
SEQEND
  5
1B0
330
1AD
100
AcDbEntity
  8
Ebene 1
370
    18
  0
POLYLINE
  5
1B1
330
173
100
AcDbEntity
  8
Ebene 1
 62
   179
420
  1709851
370
    18
100
AcDb2dPolyline
 66
     1
 10
0.0
 20
0.0
 30
0.0
  0
VERTEX
  5
1B2
330
1B1
100
AcDbEntity
  8
Ebene 1
 62
   179
420
  1709851
370
    18
100
AcDbVertex
100
AcDb2dVertex
 10
188.3516384077732
 20
-120.6250230275694
 30
0.0
  0
VERTEX
  5
1B3
330
1B1
100
AcDbEntity
  8
Ebene 1
 62
   179
420
  1709851
370
    18
100
AcDbVertex
100
AcDb2dVertex
 10
188.3516384077732
 20
-113.6400919312254
 30
0.0
  0
SEQEND
  5
1B4
330
1B1
100
AcDbEntity
  8
Ebene 1
370
    18
  0
POLYLINE
  5
1B5
330
173
100
AcDbEntity
  8
Ebene 1
 62
   179
420
  1709851
370
    18
100
AcDb2dPolyline
 66
     1
 10
0.0
 20
0.0
 30
0.0
  0
VERTEX
  5
1B6
330
1B5
100
AcDbEntity
  8
Ebene 1
 62
   179
420
  1709851
370
    18
100
AcDbVertex
100
AcDb2dVertex
 10
188.3516384077732
 20
-122.6359252623098
 30
0.0
  0
VERTEX
  5
1B7
330
1B5
100
AcDbEntity
  8
Ebene 1
 62
   179
420
  1709851
370
    18
100
AcDbVertex
100
AcDb2dVertex
 10
188.3516384077732
 20
-121.6409816861696
 30
0.0
  0
SEQEND
  5
1B8
330
1B5
100
AcDbEntity
  8
Ebene 1
370
    18
  0
POLYLINE
  5
1B9
330
173
100
AcDbEntity
  8
Ebene 1
 62
   179
420
  1709851
370
    18
100
AcDb2dPolyline
 66
     1
 10
0.0
 20
0.0
 30
0.0
  0
VERTEX
  5
1BA
330
1B9
100
AcDbEntity
  8
Ebene 1
 62
   179
420
  1709851
370
    18
100
AcDbVertex
100
AcDb2dVertex
 10
188.3516384077732
 20
-130.636815017254
 30
0.0
  0
VERTEX
  5
1BB
330
1B9
100
AcDbEntity
  8
Ebene 1
 62
   179
420
  1709851
370
    18
100
AcDbVertex
100
AcDb2dVertex
 10
188.3516384077732
 20
-123.6308688384499
 30
0.0
  0
SEQEND
  5
1BC
330
1B9
100
AcDbEntity
  8
Ebene 1
370
    18
  0
POLYLINE
  5
1BD
330
173
100
AcDbEntity
  8
Ebene 1
 62
   179
420
  1709851
370
    18
100
AcDb2dPolyline
 66
     1
 10
0.0
 20
0.0
 30
0.0
  0
VERTEX
  5
1BE
330
1BD
100
AcDbEntity
  8
Ebene 1
 62
   179
420
  1709851
370
    18
100
AcDbVertex
100
AcDb2dVertex
 10
188.3516384077732
 20
-132.6267021695343
 30
0.0
  0
VERTEX
  5
1BF
330
1BD
100
AcDbEntity
  8
Ebene 1
 62
   179
420
  1709851
370
    18
100
AcDbVertex
100
AcDb2dVertex
 10
188.3516384077732
 20
-131.6321031029427
 30
0.0
  0
SEQEND
  5
1C0
330
1BD
100
AcDbEntity
  8
Ebene 1
370
    18
  0
POLYLINE
  5
1C1
330
173
100
AcDbEntity
  8
Ebene 1
 62
   179
420
  1709851
370
    18
100
AcDb2dPolyline
 66
     1
 10
0.0
 20
0.0
 30
0.0
  0
VERTEX
  5
1C2
330
1C1
100
AcDbEntity
  8
Ebene 1
 62
   179
420
  1709851
370
    18
100
AcDbVertex
100
AcDb2dVertex
 10
188.3516384077732
 20
-140.6275919244785
 30
0.0
  0
VERTEX
  5
1C3
330
1C1
100
AcDbEntity
  8
Ebene 1
 62
   179
420
  1709851
370
    18
100
AcDbVertex
100
AcDb2dVertex
 10
188.3516384077732
 20
-133.6426608281345
 30
0.0
  0
SEQEND
  5
1C4
330
1C1
100
AcDbEntity
  8
Ebene 1
370
    18
  0
POLYLINE
  5
1C5
330
173
100
AcDbEntity
  8
Ebene 1
 62
   179
420
  1709851
370
    18
100
AcDb2dPolyline
 66
     1
 10
0.0
 20
0.0
 30
0.0
  0
VERTEX
  5
1C6
330
1C5
100
AcDbEntity
  8
Ebene 1
 62
   179
420
  1709851
370
    18
100
AcDbVertex
100
AcDb2dVertex
 10
188.3516384077732
 20
-142.6384941592189
 30
0.0
  0
VERTEX
  5
1C7
330
1C5
100
AcDbEntity
  8
Ebene 1
 62
   179
420
  1709851
370
    18
100
AcDbVertex
100
AcDb2dVertex
 10
188.3516384077732
 20
-141.6225355006187
 30
0.0
  0
SEQEND
  5
1C8
330
1C5
100
AcDbEntity
  8
Ebene 1
370
    18
  0
POLYLINE
  5
1C9
330
173
100
AcDbEntity
  8
Ebene 1
 62
   179
420
  1709851
370
    18
100
AcDb2dPolyline
 66
     1
 10
0.0
 20
0.0
 30
0.0
  0
VERTEX
  5
1CA
330
1C9
100
AcDbEntity
  8
Ebene 1
 62
   179
420
  1709851
370
    18
100
AcDbVertex
100
AcDb2dVertex
 10
188.3516384077732
 20
-150.6395561689373
 30
0.0
  0
VERTEX
  5
1CB
330
1C9
100
AcDbEntity
  8
Ebene 1
 62
   179
420
  1709851
370
    18
100
AcDbVertex
100
AcDb2dVertex
 10
188.3516384077732
 20
-143.633437735359
 30
0.0
  0
SEQEND
  5
1CC
330
1C9
100
AcDbEntity
  8
Ebene 1
370
    18
  0
POLYLINE
  5
1CD
330
173
100
AcDbEntity
  8
Ebene 1
 62
   179
420
  1709851
370
    18
100
AcDb2dPolyline
 66
     1
 10
0.0
 20
0.0
 30
0.0
  0
VERTEX
  5
1CE
330
1CD
100
AcDbEntity
  8
Ebene 1
 62
   179
420
  1709851
370
    18
100
AcDbVertex
100
AcDb2dVertex
 10
188.3516384077732
 20
-152.6294433212177
 30
0.0
  0
VERTEX
  5
1CF
330
1CD
100
AcDbEntity
  8
Ebene 1
 62
   179
420
  1709851
370
    18
100
AcDbVertex
100
AcDb2dVertex
 10
188.3516384077732
 20
-151.6344997450775
 30
0.0
  0
SEQEND
  5
1D0
330
1CD
100
AcDbEntity
  8
Ebene 1
370
    18
  0
POLYLINE
  5
1D1
330
173
100
AcDbEntity
  8
Ebene 1
 62
   179
420
  1709851
370
    18
100
AcDb2dPolyline
 66
     1
 10
0.0
 20
0.0
 30
0.0
  0
VERTEX
  5
1D2
330
1D1
100
AcDbEntity
  8
Ebene 1
 62
   179
420
  1709851
370
    18
100
AcDbVertex
100
AcDb2dVertex
 10
188.3516384077732
 20
-160.6303330761619
 30
0.0
  0
VERTEX
  5
1D3
330
1D1
100
AcDbEntity
  8
Ebene 1
 62
   179
420
  1709851
370
    18
100
AcDbVertex
100
AcDb2dVertex
 10
188.3516384077732
 20
-153.6243868973578
 30
0.0
  0
SEQEND
  5
1D4
330
1D1
100
AcDbEntity
  8
Ebene 1
370
    18
  0
POLYLINE
  5
1D5
330
173
100
AcDbEntity
  8
Ebene 1
 62
   179
420
  1709851
370
    18
100
AcDb2dPolyline
 66
     1
 10
0.0
 20
0.0
 30
0.0
  0
VERTEX
  5
1D6
330
1D5
100
AcDbEntity
  8
Ebene 1
 62
   179
420
  1709851
370
    18
100
AcDbVertex
100
AcDb2dVertex
 10
188.3516384077732
 20
-162.6202202284422
 30
0.0
  0
VERTEX
  5
1D7
330
1D5
100
AcDbEntity
  8
Ebene 1
 62
   179
420
  1709851
370
    18
100
AcDbVertex
100
AcDb2dVertex
 10
188.3516384077732
 20
-161.625276652302
 30
0.0
  0
SEQEND
  5
1D8
330
1D5
100
AcDbEntity
  8
Ebene 1
370
    18
  0
POLYLINE
  5
1D9
330
173
100
AcDbEntity
  8
Ebene 1
 62
   179
420
  1709851
370
    18
100
AcDb2dPolyline
 66
     1
 10
0.0
 20
0.0
 30
0.0
  0
VERTEX
  5
1DA
330
1D9
100
AcDbEntity
  8
Ebene 1
 62
   179
420
  1709851
370
    18
100
AcDbVertex
100
AcDb2dVertex
 10
188.3516384077732
 20
-170.6211099833864
 30
0.0
  0
VERTEX
  5
1DB
330
1D9
100
AcDbEntity
  8
Ebene 1
 62
   179
420
  1709851
370
    18
100
AcDbVertex
100
AcDb2dVertex
 10
188.3516384077732
 20
-163.6358343774938
 30
0.0
  0
SEQEND
  5
1DC
330
1D9
100
AcDbEntity
  8
Ebene 1
370
    18
  0
POLYLINE
  5
1DD
330
173
100
AcDbEntity
  8
Ebene 1
 62
   179
420
  1709851
370
    18
100
AcDb2dPolyline
 66
     1
 10
0.0
 20
0.0
 30
0.0
  0
VERTEX
  5
1DE
330
1DD
100
AcDbEntity
  8
Ebene 1
 62
   179
420
  1709851
370
    18
100
AcDbVertex
100
AcDb2dVertex
 10
188.3516384077732
 20
-172.6316677085782
 30
0.0
  0
VERTEX
  5
1DF
330
1DD
100
AcDbEntity
  8
Ebene 1
 62
   179
420
  1709851
370
    18
100
AcDbVertex
100
AcDb2dVertex
 10
188.3516384077732
 20
-171.636724132438
 30
0.0
  0
SEQEND
  5
1E0
330
1DD
100
AcDbEntity
  8
Ebene 1
370
    18
  0
POLYLINE
  5
1E1
330
173
100
AcDbEntity
  8
Ebene 1
 62
   179
420
  1709851
370
    18
100
AcDb2dPolyline
 66
     1
 10
0.0
 20
0.0
 30
0.0
  0
VERTEX
  5
1E2
330
1E1
100
AcDbEntity
  8
Ebene 1
 62
   179
420
  1709851
370
    18
100
AcDbVertex
100
AcDb2dVertex
 10
188.3516384077732
 20
-180.6325574635224
 30
0.0
  0
VERTEX
  5
1E3
330
1E1
100
AcDbEntity
  8
Ebene 1
 62
   179
420
  1709851
370
    18
100
AcDbVertex
100
AcDb2dVertex
 10
188.3516384077732
 20
-173.6266112847184
 30
0.0
  0
SEQEND
  5
1E4
330
1E1
100
AcDbEntity
  8
Ebene 1
370
    18
  0
POLYLINE
  5
1E5
330
173
100
AcDbEntity
  8
Ebene 1
 62
   179
420
  1709851
370
    18
100
AcDb2dPolyline
 66
     1
 10
0.0
 20
0.0
 30
0.0
  0
VERTEX
  5
1E6
330
1E5
100
AcDbEntity
  8
Ebene 1
 62
   179
420
  1709851
370
    18
100
AcDbVertex
100
AcDb2dVertex
 10
188.3516384077732
 20
-182.6224446158027
 30
0.0
  0
VERTEX
  5
1E7
330
1E5
100
AcDbEntity
  8
Ebene 1
 62
   179
420
  1709851
370
    18
100
AcDbVertex
100
AcDb2dVertex
 10
188.3516384077732
 20
-181.6275010396626
 30
0.0
  0
SEQEND
  5
1E8
330
1E5
100
AcDbEntity
  8
Ebene 1
370
    18
  0
POLYLINE
  5
1E9
330
173
100
AcDbEntity
  8
Ebene 1
 62
   179
420
  1709851
370
    18
100
AcDb2dPolyline
 66
     1
 10
0.0
 20
0.0
 30
0.0
  0
VERTEX
  5
1EA
330
1E9
100
AcDbEntity
  8
Ebene 1
 62
   179
420
  1709851
370
    18
100
AcDbVertex
100
AcDb2dVertex
 10
188.3516384077732
 20
-190.623334370747
 30
0.0
  0
VERTEX
  5
1EB
330
1E9
100
AcDbEntity
  8
Ebene 1
 62
   179
420
  1709851
370
    18
100
AcDbVertex
100
AcDb2dVertex
 10
188.3516384077732
 20
-183.6380587648544
 30
0.0
  0
SEQEND
  5
1EC
330
1E9
100
AcDbEntity
  8
Ebene 1
370
    18
  0
POLYLINE
  5
1ED
330
173
100
AcDbEntity
  8
Ebene 1
 62
   179
420
  1709851
370
    18
100
AcDb2dPolyline
 66
     1
 10
0.0
 20
0.0
 30
0.0
  0
VERTEX
  5
1EE
330
1ED
100
AcDbEntity
  8
Ebene 1
 62
   179
420
  1709851
370
    18
100
AcDbVertex
100
AcDb2dVertex
 10
188.3516384077732
 20
-192.6338920959388
 30
0.0
  0
VERTEX
  5
1EF
330
1ED
100
AcDbEntity
  8
Ebene 1
 62
   179
420
  1709851
370
    18
100
AcDbVertex
100
AcDb2dVertex
 10
188.3516384077732
 20
-191.6182779468871
 30
0.0
  0
SEQEND
  5
1F0
330
1ED
100
AcDbEntity
  8
Ebene 1
370
    18
  0
POLYLINE
  5
1F1
330
173
100
AcDbEntity
  8
Ebene 1
 62
   179
420
  1709851
370
    18
100
AcDb2dPolyline
 66
     1
 10
0.0
 20
0.0
 30
0.0
  0
VERTEX
  5
1F2
330
1F1
100
AcDbEntity
  8
Ebene 1
 62
   179
420
  1709851
370
    18
100
AcDbVertex
100
AcDb2dVertex
 10
20.35172932433915
 20
-100.6438137226689
 30
0.0
  0
VERTEX
  5
1F3
330
1F1
100
AcDbEntity
  8
Ebene 1
 62
   179
420
  1709851
370
    18
100
AcDbVertex
100
AcDb2dVertex
 10
20.35172932433915
 20
-98.95054929166862
 30
0.0
  0
SEQEND
  5
1F4
330
1F1
100
AcDbEntity
  8
Ebene 1
370
    18
  0
POLYLINE
  5
1F5
330
173
100
AcDbEntity
  8
Ebene 1
 62
   179
420
  1709851
370
    18
100
AcDb2dPolyline
 66
     1
 10
0.0
 20
0.0
 30
0.0
  0
VERTEX
  5
1F6
330
1F5
100
AcDbEntity
  8
Ebene 1
 62
   179
420
  1709851
370
    18
100
AcDbVertex
100
AcDb2dVertex
 10
20.35172932433915
 20
-102.6333563654007
 30
0.0
  0
VERTEX
  5
1F7
330
1F5
100
AcDbEntity
  8
Ebene 1
 62
   179
420
  1709851
370
    18
100
AcDbVertex
100
AcDb2dVertex
 10
20.35172932433915
 20
-101.6387572988091
 30
0.0
  0
SEQEND
  5
1F8
330
1F5
100
AcDbEntity
  8
Ebene 1
370
    18
  0
POLYLINE
  5
1F9
330
173
100
AcDbEntity
  8
Ebene 1
 62
   179
420
  1709851
370
    18
100
AcDb2dPolyline
 66
     1
 10
0.0
 20
0.0
 30
0.0
  0
VERTEX
  5
1FA
330
1F9
100
AcDbEntity
  8
Ebene 1
 62
   179
420
  1709851
370
    18
100
AcDbVertex
100
AcDb2dVertex
 10
20.35172932433915
 20
-110.6345906298934
 30
0.0
  0
VERTEX
  5
1FB
330
1F9
100
AcDbEntity
  8
Ebene 1
 62
   179
420
  1709851
370
    18
100
AcDbVertex
100
AcDb2dVertex
 10
20.35172932433915
 20
-103.6282999415408
 30
0.0
  0
SEQEND
  5
1FC
330
1F9
100
AcDbEntity
  8
Ebene 1
370
    18
  0
POLYLINE
  5
1FD
330
173
100
AcDbEntity
  8
Ebene 1
 62
   179
420
  1709851
370
    18
100
AcDb2dPolyline
 66
     1
 10
0.0
 20
0.0
 30
0.0
  0
VERTEX
  5
1FE
330
1FD
100
AcDbEntity
  8
Ebene 1
 62
   179
420
  1709851
370
    18
100
AcDbVertex
100
AcDb2dVertex
 10
20.35172932433915
 20
-112.6241332726252
 30
0.0
  0
VERTEX
  5
1FF
330
1FD
100
AcDbEntity
  8
Ebene 1
 62
   179
420
  1709851
370
    18
100
AcDbVertex
100
AcDb2dVertex
 10
20.35172932433915
 20
-111.6291896964851
 30
0.0
  0
SEQEND
  5
200
330
1FD
100
AcDbEntity
  8
Ebene 1
370
    18
  0
POLYLINE
  5
201
330
173
100
AcDbEntity
  8
Ebene 1
 62
   179
420
  1709851
370
    18
100
AcDb2dPolyline
 66
     1
 10
0.0
 20
0.0
 30
0.0
  0
VERTEX
  5
202
330
201
100
AcDbEntity
  8
Ebene 1
 62
   179
420
  1709851
370
    18
100
AcDbVertex
100
AcDb2dVertex
 10
20.35172932433915
 20
-120.6250230275694
 30
0.0
  0
VERTEX
  5
203
330
201
100
AcDbEntity
  8
Ebene 1
 62
   179
420
  1709851
370
    18
100
AcDbVertex
100
AcDb2dVertex
 10
20.35172932433915
 20
-113.6404364407739
 30
0.0
  0
SEQEND
  5
204
330
201
100
AcDbEntity
  8
Ebene 1
370
    18
  0
POLYLINE
  5
205
330
173
100
AcDbEntity
  8
Ebene 1
 62
   179
420
  1709851
370
    18
100
AcDb2dPolyline
 66
     1
 10
0.0
 20
0.0
 30
0.0
  0
VERTEX
  5
206
330
205
100
AcDbEntity
  8
Ebene 1
 62
   179
420
  1709851
370
    18
100
AcDbVertex
100
AcDb2dVertex
 10
20.35172932433915
 20
-122.6362697718583
 30
0.0
  0
VERTEX
  5
207
330
205
100
AcDbEntity
  8
Ebene 1
 62
   179
420
  1709851
370
    18
100
AcDbVertex
100
AcDb2dVertex
 10
20.35172932433915
 20
-121.6409816861696
 30
0.0
  0
SEQEND
  5
208
330
205
100
AcDbEntity
  8
Ebene 1
370
    18
  0
POLYLINE
  5
209
330
173
100
AcDbEntity
  8
Ebene 1
 62
   179
420
  1709851
370
    18
100
AcDb2dPolyline
 66
     1
 10
0.0
 20
0.0
 30
0.0
  0
VERTEX
  5
20A
330
209
100
AcDbEntity
  8
Ebene 1
 62
   179
420
  1709851
370
    18
100
AcDbVertex
100
AcDb2dVertex
 10
20.35172932433915
 20
-130.636815017254
 30
0.0
  0
VERTEX
  5
20B
330
209
100
AcDbEntity
  8
Ebene 1
 62
   179
420
  1709851
370
    18
100
AcDbVertex
100
AcDb2dVertex
 10
20.35172932433915
 20
-123.6308688384499
 30
0.0
  0
SEQEND
  5
20C
330
209
100
AcDbEntity
  8
Ebene 1
370
    18
  0
POLYLINE
  5
20D
330
173
100
AcDbEntity
  8
Ebene 1
 62
   179
420
  1709851
370
    18
100
AcDb2dPolyline
 66
     1
 10
0.0
 20
0.0
 30
0.0
  0
VERTEX
  5
20E
330
20D
100
AcDbEntity
  8
Ebene 1
 62
   179
420
  1709851
370
    18
100
AcDbVertex
100
AcDb2dVertex
 10
20.35172932433915
 20
-132.6267021695343
 30
0.0
  0
VERTEX
  5
20F
330
20D
100
AcDbEntity
  8
Ebene 1
 62
   179
420
  1709851
370
    18
100
AcDbVertex
100
AcDb2dVertex
 10
20.35172932433915
 20
-131.6321031029427
 30
0.0
  0
SEQEND
  5
210
330
20D
100
AcDbEntity
  8
Ebene 1
370
    18
  0
POLYLINE
  5
211
330
173
100
AcDbEntity
  8
Ebene 1
 62
   179
420
  1709851
370
    18
100
AcDb2dPolyline
 66
     1
 10
0.0
 20
0.0
 30
0.0
  0
VERTEX
  5
212
330
211
100
AcDbEntity
  8
Ebene 1
 62
   179
420
  1709851
370
    18
100
AcDbVertex
100
AcDb2dVertex
 10
20.35172932433915
 20
-140.627936434027
 30
0.0
  0
VERTEX
  5
213
330
211
100
AcDbEntity
  8
Ebene 1
 62
   179
420
  1709851
370
    18
100
AcDbVertex
100
AcDb2dVertex
 10
20.35172932433915
 20
-133.6426608281345
 30
0.0
  0
SEQEND
  5
214
330
211
100
AcDbEntity
  8
Ebene 1
370
    18
  0
POLYLINE
  5
215
330
173
100
AcDbEntity
  8
Ebene 1
 62
   179
420
  1709851
370
    18
100
AcDb2dPolyline
 66
     1
 10
0.0
 20
0.0
 30
0.0
  0
VERTEX
  5
216
330
215
100
AcDbEntity
  8
Ebene 1
 62
   179
420
  1709851
370
    18
100
AcDbVertex
100
AcDb2dVertex
 10
20.35172932433915
 20
-142.6384941592189
 30
0.0
  0
VERTEX
  5
217
330
215
100
AcDbEntity
  8
Ebene 1
 62
   179
420
  1709851
370
    18
100
AcDbVertex
100
AcDb2dVertex
 10
20.35172932433915
 20
-141.6225355006187
 30
0.0
  0
SEQEND
  5
218
330
215
100
AcDbEntity
  8
Ebene 1
370
    18
  0
POLYLINE
  5
219
330
173
100
AcDbEntity
  8
Ebene 1
 62
   179
420
  1709851
370
    18
100
AcDb2dPolyline
 66
     1
 10
0.0
 20
0.0
 30
0.0
  0
VERTEX
  5
21A
330
219
100
AcDbEntity
  8
Ebene 1
 62
   179
420
  1709851
370
    18
100
AcDbVertex
100
AcDb2dVertex
 10
20.35172932433915
 20
-150.6395561689373
 30
0.0
  0
VERTEX
  5
21B
330
219
100
AcDbEntity
  8
Ebene 1
 62
   179
420
  1709851
370
    18
100
AcDbVertex
100
AcDb2dVertex
 10
20.35172932433915
 20
-143.633437735359
 30
0.0
  0
SEQEND
  5
21C
330
219
100
AcDbEntity
  8
Ebene 1
370
    18
  0
POLYLINE
  5
21D
330
173
100
AcDbEntity
  8
Ebene 1
 62
   179
420
  1709851
370
    18
100
AcDb2dPolyline
 66
     1
 10
0.0
 20
0.0
 30
0.0
  0
VERTEX
  5
21E
330
21D
100
AcDbEntity
  8
Ebene 1
 62
   179
420
  1709851
370
    18
100
AcDbVertex
100
AcDb2dVertex
 10
20.35172932433915
 20
-152.6294433212177
 30
0.0
  0
VERTEX
  5
21F
330
21D
100
AcDbEntity
  8
Ebene 1
 62
   179
420
  1709851
370
    18
100
AcDbVertex
100
AcDb2dVertex
 10
20.35172932433915
 20
-151.6344997450775
 30
0.0
  0
SEQEND
  5
220
330
21D
100
AcDbEntity
  8
Ebene 1
370
    18
  0
POLYLINE
  5
221
330
173
100
AcDbEntity
  8
Ebene 1
 62
   179
420
  1709851
370
    18
100
AcDb2dPolyline
 66
     1
 10
0.0
 20
0.0
 30
0.0
  0
VERTEX
  5
222
330
221
100
AcDbEntity
  8
Ebene 1
 62
   179
420
  1709851
370
    18
100
AcDbVertex
100
AcDb2dVertex
 10
20.35172932433915
 20
-160.6303330761619
 30
0.0
  0
VERTEX
  5
223
330
221
100
AcDbEntity
  8
Ebene 1
 62
   179
420
  1709851
370
    18
100
AcDbVertex
100
AcDb2dVertex
 10
20.35172932433915
 20
-153.6243868973578
 30
0.0
  0
SEQEND
  5
224
330
221
100
AcDbEntity
  8
Ebene 1
370
    18
  0
POLYLINE
  5
225
330
173
100
AcDbEntity
  8
Ebene 1
 62
   179
420
  1709851
370
    18
100
AcDb2dPolyline
 66
     1
 10
0.0
 20
0.0
 30
0.0
  0
VERTEX
  5
226
330
225
100
AcDbEntity
  8
Ebene 1
 62
   179
420
  1709851
370
    18
100
AcDbVertex
100
AcDb2dVertex
 10
20.35172932433915
 20
-162.6202202284422
 30
0.0
  0
VERTEX
  5
227
330
225
100
AcDbEntity
  8
Ebene 1
 62
   179
420
  1709851
370
    18
100
AcDbVertex
100
AcDb2dVertex
 10
20.35172932433915
 20
-161.625276652302
 30
0.0
  0
SEQEND
  5
228
330
225
100
AcDbEntity
  8
Ebene 1
370
    18
  0
POLYLINE
  5
229
330
173
100
AcDbEntity
  8
Ebene 1
 62
   179
420
  1709851
370
    18
100
AcDb2dPolyline
 66
     1
 10
0.0
 20
0.0
 30
0.0
  0
VERTEX
  5
22A
330
229
100
AcDbEntity
  8
Ebene 1
 62
   179
420
  1709851
370
    18
100
AcDbVertex
100
AcDb2dVertex
 10
20.35172932433915
 20
-170.6211099833864
 30
0.0
  0
VERTEX
  5
22B
330
229
100
AcDbEntity
  8
Ebene 1
 62
   179
420
  1709851
370
    18
100
AcDbVertex
100
AcDb2dVertex
 10
20.35172932433915
 20
-163.6358343774938
 30
0.0
  0
SEQEND
  5
22C
330
229
100
AcDbEntity
  8
Ebene 1
370
    18
  0
POLYLINE
  5
22D
330
173
100
AcDbEntity
  8
Ebene 1
 62
   179
420
  1709851
370
    18
100
AcDb2dPolyline
 66
     1
 10
0.0
 20
0.0
 30
0.0
  0
VERTEX
  5
22E
330
22D
100
AcDbEntity
  8
Ebene 1
 62
   179
420
  1709851
370
    18
100
AcDbVertex
100
AcDb2dVertex
 10
20.35172932433915
 20
-172.6316677085782
 30
0.0
  0
VERTEX
  5
22F
330
22D
100
AcDbEntity
  8
Ebene 1
 62
   179
420
  1709851
370
    18
100
AcDbVertex
100
AcDb2dVertex
 10
20.35172932433915
 20
-171.636724132438
 30
0.0
  0
SEQEND
  5
230
330
22D
100
AcDbEntity
  8
Ebene 1
370
    18
  0
POLYLINE
  5
231
330
173
100
AcDbEntity
  8
Ebene 1
 62
   179
420
  1709851
370
    18
100
AcDb2dPolyline
 66
     1
 10
0.0
 20
0.0
 30
0.0
  0
VERTEX
  5
232
330
231
100
AcDbEntity
  8
Ebene 1
 62
   179
420
  1709851
370
    18
100
AcDbVertex
100
AcDb2dVertex
 10
20.35172932433915
 20
-180.6325574635224
 30
0.0
  0
VERTEX
  5
233
330
231
100
AcDbEntity
  8
Ebene 1
 62
   179
420
  1709851
370
    18
100
AcDbVertex
100
AcDb2dVertex
 10
20.35172932433915
 20
-173.6266112847184
 30
0.0
  0
SEQEND
  5
234
330
231
100
AcDbEntity
  8
Ebene 1
370
    18
  0
POLYLINE
  5
235
330
173
100
AcDbEntity
  8
Ebene 1
 62
   179
420
  1709851
370
    18
100
AcDb2dPolyline
 66
     1
 10
0.0
 20
0.0
 30
0.0
  0
VERTEX
  5
236
330
235
100
AcDbEntity
  8
Ebene 1
 62
   179
420
  1709851
370
    18
100
AcDbVertex
100
AcDb2dVertex
 10
20.35172932433915
 20
-182.6224446158027
 30
0.0
  0
VERTEX
  5
237
330
235
100
AcDbEntity
  8
Ebene 1
 62
   179
420
  1709851
370
    18
100
AcDbVertex
100
AcDb2dVertex
 10
20.35172932433915
 20
-181.6275010396626
 30
0.0
  0
SEQEND
  5
238
330
235
100
AcDbEntity
  8
Ebene 1
370
    18
  0
POLYLINE
  5
239
330
173
100
AcDbEntity
  8
Ebene 1
 62
   179
420
  1709851
370
    18
100
AcDb2dPolyline
 66
     1
 10
0.0
 20
0.0
 30
0.0
  0
VERTEX
  5
23A
330
239
100
AcDbEntity
  8
Ebene 1
 62
   179
420
  1709851
370
    18
100
AcDbVertex
100
AcDb2dVertex
 10
20.35172932433915
 20
-190.623334370747
 30
0.0
  0
VERTEX
  5
23B
330
239
100
AcDbEntity
  8
Ebene 1
 62
   179
420
  1709851
370
    18
100
AcDbVertex
100
AcDb2dVertex
 10
20.35172932433915
 20
-183.6380587648544
 30
0.0
  0
SEQEND
  5
23C
330
239
100
AcDbEntity
  8
Ebene 1
370
    18
  0
POLYLINE
  5
23D
330
173
100
AcDbEntity
  8
Ebene 1
 62
   179
420
  1709851
370
    18
100
AcDb2dPolyline
 66
     1
 10
0.0
 20
0.0
 30
0.0
  0
VERTEX
  5
23E
330
23D
100
AcDbEntity
  8
Ebene 1
 62
   179
420
  1709851
370
    18
100
AcDbVertex
100
AcDb2dVertex
 10
20.35172932433915
 20
-192.6338920959388
 30
0.0
  0
VERTEX
  5
23F
330
23D
100
AcDbEntity
  8
Ebene 1
 62
   179
420
  1709851
370
    18
100
AcDbVertex
100
AcDb2dVertex
 10
20.35172932433915
 20
-191.6182779468871
 30
0.0
  0
SEQEND
  5
240
330
23D
100
AcDbEntity
  8
Ebene 1
370
    18
  0
POLYLINE
  5
241
330
173
100
AcDbEntity
  8
Ebene 1
370
     0
100
AcDb2dPolyline
 66
     1
 10
0.0
 20
0.0
 30
0.0
  0
VERTEX
  5
242
330
241
100
AcDbEntity
  8
Ebene 1
370
     0
100
AcDbVertex
100
AcDb2dVertex
 10
20.10833332830625
 20
-192.9308593267673
 30
0.0
  0
VERTEX
  5
243
330
241
100
AcDbEntity
  8
Ebene 1
370
     0
100
AcDbVertex
100
AcDb2dVertex
 10
188.5948621490319
 20
-192.9308593267673
 30
0.0
  0
VERTEX
  5
244
330
241
100
AcDbEntity
  8
Ebene 1
370
     0
100
AcDbVertex
100
AcDb2dVertex
 10
188.5948621490319
 20
-98.86614445228
 30
0.0
  0
VERTEX
  5
245
330
241
100
AcDbEntity
  8
Ebene 1
370
     0
100
AcDbVertex
100
AcDb2dVertex
 10
20.10833332830625
 20
-98.86614445228
 30
0.0
  0
VERTEX
  5
246
330
241
100
AcDbEntity
  8
Ebene 1
370
     0
100
AcDbVertex
100
AcDb2dVertex
 10
20.10833332830625
 20
-192.9308593267673
 30
0.0
  0
SEQEND
  5
247
330
241
100
AcDbEntity
  8
Ebene 1
370
     0
  0
ENDBLK
  5
176
330
173
100
AcDbEntity
  8
0
100
AcDbBlockEnd
  0
BLOCK
  5
313
330
311
100
AcDbEntity
  8
0
100
AcDbBlockBegin
  2
block 4
 70
     0
 71
     0
 10
0.0
 20
0.0
 30
0.0
  3
block 4
  1

  0
POLYLINE
  5
315
330
311
100
AcDbEntity
  8
Ebene 1
 62
   179
420
  1709851
370
    18
100
AcDb2dPolyline
 66
     1
 10
0.0
 20
0.0
 30
0.0
  0
VERTEX
  5
316
330
315
100
AcDbEntity
  8
Ebene 1
 62
   179
420
  1709851
370
    18
100
AcDbVertex
100
AcDb2dVertex
 10
158.7606797563168
 20
-186.6649196581949
 30
0.0
  0
VERTEX
  5
317
330
315
100
AcDbEntity
  8
Ebene 1
 62
   179
420
  1709851
370
    18
100
AcDbVertex
100
AcDb2dVertex
 10
158.4430419525767
 20
-186.6649196581949
 30
0.0
  0
VERTEX
  5
318
330
315
100
AcDbEntity
  8
Ebene 1
 62
   179
420
  1709851
370
    18
100
AcDbVertex
100
AcDb2dVertex
 10
158.4430419525767
 20
-186.4533907954005
 30
0.0
  0
SEQEND
  5
319
330
315
100
AcDbEntity
  8
Ebene 1
370
    18
  0
POLYLINE
  5
31A
330
311
100
AcDbEntity
  8
Ebene 1
 62
   179
420
  1709851
370
    18
100
AcDb2dPolyline
 66
     1
 10
0.0
 20
0.0
 30
0.0
  0
VERTEX
  5
31B
330
31A
100
AcDbEntity
  8
Ebene 1
 62
   179
420
  1709851
370
    18
100
AcDbVertex
100
AcDb2dVertex
 10
159.0993326425168
 20
-186.8978081129978
 30
0.0
  0
VERTEX
  5
31C
330
31A
100
AcDbEntity
  8
Ebene 1
 62
   179
420
  1709851
370
    18
100
AcDbVertex
100
AcDb2dVertex
 10
158.9088188621825
 20
-186.707638842212
 30
0.0
  0
SEQEND
  5
31D
330
31A
100
AcDbEntity
  8
Ebene 1
370
    18
  0
POLYLINE
  5
31E
330
311
100
AcDbEntity
  8
Ebene 1
 62
   179
420
  1709851
370
    18
100
AcDb2dPolyline
 66
     1
 10
0.0
 20
0.0
 30
0.0
  0
VERTEX
  5
31F
330
31E
100
AcDbEntity
  8
Ebene 1
 62
   179
420
  1709851
370
    18
100
AcDbVertex
100
AcDb2dVertex
 10
169.9789441849358
 20
-186.707638842212
 30
0.0
  0
VERTEX
  5
320
330
31E
100
AcDbEntity
  8
Ebene 1
 62
   179
420
  1709851
370
    18
100
AcDbVertex
100
AcDb2dVertex
 10
169.7884304046015
 20
-186.8978081129978
 30
0.0
  0
SEQEND
  5
321
330
31E
100
AcDbEntity
  8
Ebene 1
370
    18
  0
POLYLINE
  5
322
330
311
100
AcDbEntity
  8
Ebene 1
 62
   179
420
  1709851
370
    18
100
AcDb2dPolyline
 66
     1
 10
0.0
 20
0.0
 30
0.0
  0
VERTEX
  5
323
330
322
100
AcDbEntity
  8
Ebene 1
 62
   179
420
  1709851
370
    18
100
AcDbVertex
100
AcDb2dVertex
 10
170.0423339418644
 20
-186.4533907954005
 30
0.0
  0
VERTEX
  5
324
330
322
100
AcDbEntity
  8
Ebene 1
 62
   179
420
  1709851
370
    18
100
AcDbVertex
100
AcDb2dVertex
 10
170.4447210945416
 20
-186.4533907954005
 30
0.0
  0
VERTEX
  5
325
330
322
100
AcDbEntity
  8
Ebene 1
 62
   179
420
  1709851
370
    18
100
AcDbVertex
100
AcDb2dVertex
 10
170.4447210945416
 20
-186.6649196581949
 30
0.0
  0
VERTEX
  5
326
330
322
100
AcDbEntity
  8
Ebene 1
 62
   179
420
  1709851
370
    18
100
AcDbVertex
100
AcDb2dVertex
 10
170.1270832908016
 20
-186.6649196581949
 30
0.0
  0
SEQEND
  5
327
330
322
100
AcDbEntity
  8
Ebene 1
370
    18
  0
POLYLINE
  5
328
330
311
100
AcDbEntity
  8
Ebene 1
 62
   179
420
  1709851
370
    18
100
AcDb2dPolyline
 66
     1
 10
0.0
 20
0.0
 30
0.0
  0
VERTEX
  5
329
330
328
100
AcDbEntity
  8
Ebene 1
 62
   179
420
  1709851
370
    18
100
AcDbVertex
100
AcDb2dVertex
 10
169.7036810556644
 20
-186.707638842212
 30
0.0
  0
VERTEX
  5
32A
330
328
100
AcDbEntity
  8
Ebene 1
 62
   179
420
  1709851
370
    18
100
AcDbVertex
100
AcDb2dVertex
 10
169.8941948359987
 20
-186.5167805523292
 30
0.0
  0
SEQEND
  5
32B
330
328
100
AcDbEntity
  8
Ebene 1
370
    18
  0
POLYLINE
  5
32C
330
311
100
AcDbEntity
  8
Ebene 1
 62
   179
420
  1709851
370
    18
100
AcDb2dPolyline
 66
     1
 10
0.0
 20
0.0
 30
0.0
  0
VERTEX
  5
32D
330
32C
100
AcDbEntity
  8
Ebene 1
 62
   179
420
  1709851
370
    18
100
AcDbVertex
100
AcDb2dVertex
 10
166.9734428836039
 20
-186.5167805523292
 30
0.0
  0
VERTEX
  5
32E
330
32C
100
AcDbEntity
  8
Ebene 1
 62
   179
420
  1709851
370
    18
100
AcDbVertex
100
AcDb2dVertex
 10
167.1636121543897
 20
-186.707638842212
 30
0.0
  0
SEQEND
  5
32F
330
32C
100
AcDbEntity
  8
Ebene 1
370
    18
  0
POLYLINE
  5
330
330
311
100
AcDbEntity
  8
Ebene 1
 62
   179
420
  1709851
370
    18
100
AcDb2dPolyline
 66
     1
 10
0.0
 20
0.0
 30
0.0
  0
VERTEX
  5
331
330
330
100
AcDbEntity
  8
Ebene 1
 62
   179
420
  1709851
370
    18
100
AcDbVertex
100
AcDb2dVertex
 10
161.7027913007202
 20
-186.707638842212
 30
0.0
  0
VERTEX
  5
332
330
330
100
AcDbEntity
  8
Ebene 1
 62
   179
420
  1709851
370
    18
100
AcDbVertex
100
AcDb2dVertex
 10
161.8933050810545
 20
-186.5167805523292
 30
0.0
  0
SEQEND
  5
333
330
330
100
AcDbEntity
  8
Ebene 1
370
    18
  0
POLYLINE
  5
334
330
311
100
AcDbEntity
  8
Ebene 1
 62
   179
420
  1709851
370
    18
100
AcDb2dPolyline
 66
     1
 10
0.0
 20
0.0
 30
0.0
  0
VERTEX
  5
335
330
334
100
AcDbEntity
  8
Ebene 1
 62
   179
420
  1709851
370
    18
100
AcDbVertex
100
AcDb2dVertex
 10
158.9722086191111
 20
-186.5167805523292
 30
0.0
  0
VERTEX
  5
336
330
334
100
AcDbEntity
  8
Ebene 1
 62
   179
420
  1709851
370
    18
100
AcDbVertex
100
AcDb2dVertex
 10
159.1844265010025
 20
-186.707638842212
 30
0.0
  0
SEQEND
  5
337
330
334
100
AcDbEntity
  8
Ebene 1
370
    18
  0
POLYLINE
  5
338
330
311
100
AcDbEntity
  8
Ebene 1
 62
   179
420
  1709851
370
    18
100
AcDb2dPolyline
 66
     1
 10
0.0
 20
0.0
 30
0.0
  0
VERTEX
  5
339
330
338
100
AcDbEntity
  8
Ebene 1
 62
   179
420
  1709851
370
    18
100
AcDbVertex
100
AcDb2dVertex
 10
158.4430419525767
 20
-186.4533907954005
 30
0.0
  0
VERTEX
  5
33A
330
338
100
AcDbEntity
  8
Ebene 1
 62
   179
420
  1709851
370
    18
100
AcDbVertex
100
AcDb2dVertex
 10
158.8457736148025
 20
-186.4533907954005
 30
0.0
  0
SEQEND
  5
33B
330
338
100
AcDbEntity
  8
Ebene 1
370
    18
  0
POLYLINE
  5
33C
330
311
100
AcDbEntity
  8
Ebene 1
 62
   179
420
  1709851
370
    18
100
AcDb2dPolyline
 66
     1
 10
0.0
 20
0.0
 30
0.0
  0
VERTEX
  5
33D
330
33C
100
AcDbEntity
  8
Ebene 1
 62
   179
420
  1709851
370
    18
100
AcDbVertex
100
AcDb2dVertex
 10
95.34525686635466
 20
-178.9396375420706
 30
0.0
  0
VERTEX
  5
33E
330
33C
100
AcDbEntity
  8
Ebene 1
 62
   179
420
  1709851
370
    18
100
AcDbVertex
100
AcDb2dVertex
 10
99.85368107312686
 20
-164.5460286046968
 30
0.0
  0
SEQEND
  5
33F
330
33C
100
AcDbEntity
  8
Ebene 1
370
    18
  0
POLYLINE
  5
340
330
311
100
AcDbEntity
  8
Ebene 1
 62
   179
420
  1709851
370
    18
100
AcDb2dPolyline
 66
     1
 10
0.0
 20
0.0
 30
0.0
  0
VERTEX
  5
341
330
340
100
AcDbEntity
  8
Ebene 1
 62
   179
420
  1709851
370
    18
100
AcDbVertex
100
AcDb2dVertex
 10
100.848624649267
 20
-164.5460286046968
 30
0.0
  0
VERTEX
  5
342
330
340
100
AcDbEntity
  8
Ebene 1
 62
   179
420
  1709851
370
    18
100
AcDbVertex
100
AcDb2dVertex
 10
104.5739786522419
 20
-176.462613888176
 30
0.0
  0
SEQEND
  5
343
330
340
100
AcDbEntity
  8
Ebene 1
370
    18
  0
POLYLINE
  5
344
330
311
100
AcDbEntity
  8
Ebene 1
 62
   179
420
  1709851
370
    18
100
AcDb2dPolyline
 66
     1
 10
0.0
 20
0.0
 30
0.0
  0
VERTEX
  5
345
330
344
100
AcDbEntity
  8
Ebene 1
 62
   179
420
  1709851
370
    18
100
AcDbVertex
100
AcDb2dVertex
 10
105.1453477384706
 20
-178.283002342582
 30
0.0
  0
VERTEX
  5
346
330
344
100
AcDbEntity
  8
Ebene 1
 62
   179
420
  1709851
370
    18
100
AcDbVertex
100
AcDb2dVertex
 10
105.3570488560392
 20
-178.9396375420706
 30
0.0
  0
SEQEND
  5
347
330
344
100
AcDbEntity
  8
Ebene 1
370
    18
  0
POLYLINE
  5
348
330
311
100
AcDbEntity
  8
Ebene 1
 62
   179
420
  1709851
370
    18
100
AcDb2dPolyline
 66
     1
 10
0.0
 20
0.0
 30
0.0
  0
VERTEX
  5
349
330
348
100
AcDbEntity
  8
Ebene 1
 62
   179
420
  1709851
370
    18
100
AcDbVertex
100
AcDb2dVertex
 10
45.15900063975192
 20
-178.9396375420706
 30
0.0
  0
VERTEX
  5
34A
330
348
100
AcDbEntity
  8
Ebene 1
 62
   179
420
  1709851
370
    18
100
AcDbVertex
100
AcDb2dVertex
 10
104.2353257660419
 20
-178.9396375420706
 30
0.0
  0
SEQEND
  5
34B
330
348
100
AcDbEntity
  8
Ebene 1
370
    18
  0
POLYLINE
  5
34C
330
311
100
AcDbEntity
  8
Ebene 1
 62
   179
420
  1709851
370
    18
100
AcDb2dPolyline
 66
     1
 10
0.0
 20
0.0
 30
0.0
  0
VERTEX
  5
34D
330
34C
100
AcDbEntity
  8
Ebene 1
 62
   179
420
  1709851
370
    18
100
AcDbVertex
100
AcDb2dVertex
 10
105.3570488560392
 20
-178.9396375420706
 30
0.0
  0
VERTEX
  5
34E
330
34C
100
AcDbEntity
  8
Ebene 1
 62
   179
420
  1709851
370
    18
100
AcDbVertex
100
AcDb2dVertex
 10
110.3526095644257
 20
-162.9371690130852
 30
0.0
  0
VERTEX
  5
34F
330
34C
100
AcDbEntity
  8
Ebene 1
 62
   179
420
  1709851
370
    18
100
AcDbVertex
100
AcDb2dVertex
 10
115.347998018038
 20
-178.9396375420706
 30
0.0
  0
SEQEND
  5
350
330
34C
100
AcDbEntity
  8
Ebene 1
370
    18
  0
POLYLINE
  5
351
330
311
100
AcDbEntity
  8
Ebene 1
 62
   179
420
  1709851
370
    18
100
AcDb2dPolyline
 66
     1
 10
0.0
 20
0.0
 30
0.0
  0
VERTEX
  5
352
330
351
100
AcDbEntity
  8
Ebene 1
 62
   179
420
  1709851
370
    18
100
AcDbVertex
100
AcDb2dVertex
 10
109.5478352590714
 20
-188.0408907950037
 30
0.0
  0
VERTEX
  5
353
330
351
100
AcDbEntity
  8
Ebene 1
 62
   179
420
  1709851
370
    18
100
AcDbVertex
100
AcDb2dVertex
 10
109.5478352590714
 20
-187.342225430595
 30
0.0
  0
SEQEND
  5
354
330
351
100
AcDbEntity
  8
Ebene 1
370
    18
  0
POLYLINE
  5
355
330
311
100
AcDbEntity
  8
Ebene 1
 62
   179
420
  1709851
370
    18
100
AcDb2dPolyline
 66
     1
 10
0.0
 20
0.0
 30
0.0
  0
VERTEX
  5
356
330
355
100
AcDbEntity
  8
Ebene 1
 62
   179
420
  1709851
370
    18
100
AcDbVertex
100
AcDb2dVertex
 10
107.3467637535453
 20
-188.0408907950037
 30
0.0
  0
VERTEX
  5
357
330
355
100
AcDbEntity
  8
Ebene 1
 62
   179
420
  1709851
370
    18
100
AcDbVertex
100
AcDb2dVertex
 10
107.3467637535453
 20
-187.342225430595
 30
0.0
  0
SEQEND
  5
358
330
355
100
AcDbEntity
  8
Ebene 1
370
    18
  0
POLYLINE
  5
359
330
311
100
AcDbEntity
  8
Ebene 1
 62
   179
420
  1709851
370
    18
100
AcDb2dPolyline
 66
     1
 10
0.0
 20
0.0
 30
0.0
  0
VERTEX
  5
35A
330
359
100
AcDbEntity
  8
Ebene 1
 62
   179
420
  1709851
370
    18
100
AcDbVertex
100
AcDb2dVertex
 10
101.5474622684499
 20
-188.0408907950037
 30
0.0
  0
VERTEX
  5
35B
330
359
100
AcDbEntity
  8
Ebene 1
 62
   179
420
  1709851
370
    18
100
AcDbVertex
100
AcDb2dVertex
 10
101.5474622684499
 20
-187.342225430595
 30
0.0
  0
SEQEND
  5
35C
330
359
100
AcDbEntity
  8
Ebene 1
370
    18
  0
POLYLINE
  5
35D
330
311
100
AcDbEntity
  8
Ebene 1
 62
   179
420
  1709851
370
    18
100
AcDb2dPolyline
 66
     1
 10
0.0
 20
0.0
 30
0.0
  0
VERTEX
  5
35E
330
35D
100
AcDbEntity
  8
Ebene 1
 62
   179
420
  1709851
370
    18
100
AcDbVertex
100
AcDb2dVertex
 10
99.34570174382678
 20
-188.0408907950037
 30
0.0
  0
VERTEX
  5
35F
330
35D
100
AcDbEntity
  8
Ebene 1
 62
   179
420
  1709851
370
    18
100
AcDbVertex
100
AcDb2dVertex
 10
99.34570174382678
 20
-188.0408907950037
 30
0.0
  0
VERTEX
  5
360
330
35D
100
AcDbEntity
  8
Ebene 1
 62
   179
420
  1709851
370
    18
100
AcDbVertex
100
AcDb2dVertex
 10
99.34570174382678
 20
-187.342225430595
 30
0.0
  0
SEQEND
  5
361
330
35D
100
AcDbEntity
  8
Ebene 1
370
    18
  0
POLYLINE
  5
362
330
311
100
AcDbEntity
  8
Ebene 1
 62
   179
420
  1709851
370
    18
100
AcDb2dPolyline
 66
     1
 10
0.0
 20
0.0
 30
0.0
  0
VERTEX
  5
363
330
362
100
AcDbEntity
  8
Ebene 1
 62
   179
420
  1709851
370
    18
100
AcDbVertex
100
AcDb2dVertex
 10
109.5478352590714
 20
-187.342225430595
 30
0.0
  0
VERTEX
  5
364
330
362
100
AcDbEntity
  8
Ebene 1
 62
   179
420
  1709851
370
    18
100
AcDbVertex
100
AcDb2dVertex
 10
109.5478352590714
 20
-187.1306965678007
 30
0.0
  0
SEQEND
  5
365
330
362
100
AcDbEntity
  8
Ebene 1
370
    18
  0
POLYLINE
  5
366
330
311
100
AcDbEntity
  8
Ebene 1
 62
   179
420
  1709851
370
    18
100
AcDb2dPolyline
 66
     1
 10
0.0
 20
0.0
 30
0.0
  0
VERTEX
  5
367
330
366
100
AcDbEntity
  8
Ebene 1
 62
   179
420
  1709851
370
    18
100
AcDbVertex
100
AcDb2dVertex
 10
107.3467637535453
 20
-187.1306965678007
 30
0.0
  0
VERTEX
  5
368
330
366
100
AcDbEntity
  8
Ebene 1
 62
   179
420
  1709851
370
    18
100
AcDbVertex
100
AcDb2dVertex
 10
107.3467637535453
 20
-187.342225430595
 30
0.0
  0
SEQEND
  5
369
330
366
100
AcDbEntity
  8
Ebene 1
370
    18
  0
POLYLINE
  5
36A
330
311
100
AcDbEntity
  8
Ebene 1
 62
   179
420
  1709851
370
    18
100
AcDb2dPolyline
 66
     1
 10
0.0
 20
0.0
 30
0.0
  0
VERTEX
  5
36B
330
36A
100
AcDbEntity
  8
Ebene 1
 62
   179
420
  1709851
370
    18
100
AcDbVertex
100
AcDb2dVertex
 10
101.5474622684499
 20
-187.342225430595
 30
0.0
  0
VERTEX
  5
36C
330
36A
100
AcDbEntity
  8
Ebene 1
 62
   179
420
  1709851
370
    18
100
AcDbVertex
100
AcDb2dVertex
 10
101.5474622684499
 20
-187.1306965678007
 30
0.0
  0
SEQEND
  5
36D
330
36A
100
AcDbEntity
  8
Ebene 1
370
    18
  0
POLYLINE
  5
36E
330
311
100
AcDbEntity
  8
Ebene 1
 62
   179
420
  1709851
370
    18
100
AcDb2dPolyline
 66
     1
 10
0.0
 20
0.0
 30
0.0
  0
VERTEX
  5
36F
330
36E
100
AcDbEntity
  8
Ebene 1
 62
   179
420
  1709851
370
    18
100
AcDbVertex
100
AcDb2dVertex
 10
99.34570174382678
 20
-187.1306965678007
 30
0.0
  0
VERTEX
  5
370
330
36E
100
AcDbEntity
  8
Ebene 1
 62
   179
420
  1709851
370
    18
100
AcDbVertex
100
AcDb2dVertex
 10
99.34570174382678
 20
-187.342225430595
 30
0.0
  0
SEQEND
  5
371
330
36E
100
AcDbEntity
  8
Ebene 1
370
    18
  0
POLYLINE
  5
372
330
311
100
AcDbEntity
  8
Ebene 1
 62
   179
420
  1709851
370
    18
100
AcDb2dPolyline
 66
     1
 10
0.0
 20
0.0
 30
0.0
  0
VERTEX
  5
373
330
372
100
AcDbEntity
  8
Ebene 1
 62
   179
420
  1709851
370
    18
100
AcDbVertex
100
AcDb2dVertex
 10
109.4424153372227
 20
-188.6334472184666
 30
0.0
  0
VERTEX
  5
374
330
372
100
AcDbEntity
  8
Ebene 1
 62
   179
420
  1709851
370
    18
100
AcDbVertex
100
AcDb2dVertex
 10
109.4424153372227
 20
-187.342225430595
 30
0.0
  0
SEQEND
  5
375
330
372
100
AcDbEntity
  8
Ebene 1
370
    18
  0
POLYLINE
  5
376
330
311
100
AcDbEntity
  8
Ebene 1
 62
   179
420
  1709851
370
    18
100
AcDb2dPolyline
 66
     1
 10
0.0
 20
0.0
 30
0.0
  0
VERTEX
  5
377
330
376
100
AcDbEntity
  8
Ebene 1
 62
   179
420
  1709851
370
    18
100
AcDbVertex
100
AcDb2dVertex
 10
107.4525281849424
 20
-188.6334472184666
 30
0.0
  0
VERTEX
  5
378
330
376
100
AcDbEntity
  8
Ebene 1
 62
   179
420
  1709851
370
    18
100
AcDbVertex
100
AcDb2dVertex
 10
107.4525281849424
 20
-187.342225430595
 30
0.0
  0
SEQEND
  5
379
330
376
100
AcDbEntity
  8
Ebene 1
370
    18
  0
POLYLINE
  5
37A
330
311
100
AcDbEntity
  8
Ebene 1
 62
   179
420
  1709851
370
    18
100
AcDb2dPolyline
 66
     1
 10
0.0
 20
0.0
 30
0.0
  0
VERTEX
  5
37B
330
37A
100
AcDbEntity
  8
Ebene 1
 62
   179
420
  1709851
370
    18
100
AcDbVertex
100
AcDb2dVertex
 10
101.44118107273
 20
-188.6334472184666
 30
0.0
  0
VERTEX
  5
37C
330
37A
100
AcDbEntity
  8
Ebene 1
 62
   179
420
  1709851
370
    18
100
AcDbVertex
100
AcDb2dVertex
 10
101.44118107273
 20
-187.342225430595
 30
0.0
  0
SEQEND
  5
37D
330
37A
100
AcDbEntity
  8
Ebene 1
370
    18
  0
POLYLINE
  5
37E
330
311
100
AcDbEntity
  8
Ebene 1
 62
   179
420
  1709851
370
    18
100
AcDb2dPolyline
 66
     1
 10
0.0
 20
0.0
 30
0.0
  0
VERTEX
  5
37F
330
37E
100
AcDbEntity
  8
Ebene 1
 62
   179
420
  1709851
370
    18
100
AcDbVertex
100
AcDb2dVertex
 10
99.45163842999821
 20
-188.6334472184666
 30
0.0
  0
VERTEX
  5
380
330
37E
100
AcDbEntity
  8
Ebene 1
 62
   179
420
  1709851
370
    18
100
AcDbVertex
100
AcDb2dVertex
 10
99.45163842999821
 20
-187.342225430595
 30
0.0
  0
SEQEND
  5
381
330
37E
100
AcDbEntity
  8
Ebene 1
370
    18
  0
POLYLINE
  5
382
330
311
100
AcDbEntity
  8
Ebene 1
 62
   179
420
  1709851
370
    18
100
AcDb2dPolyline
 66
     1
 10
0.0
 20
0.0
 30
0.0
  0
VERTEX
  5
383
330
382
100
AcDbEntity
  8
Ebene 1
 62
   179
420
  1709851
370
    18
100
AcDbVertex
100
AcDb2dVertex
 10
109.4424153372227
 20
-189.2266926610267
 30
0.0
  0
VERTEX
  5
384
330
382
100
AcDbEntity
  8
Ebene 1
 62
   179
420
  1709851
370
    18
100
AcDbVertex
100
AcDb2dVertex
 10
109.4424153372227
 20
-188.9297254301981
 30
0.0
  0
SEQEND
  5
385
330
382
100
AcDbEntity
  8
Ebene 1
370
    18
  0
POLYLINE
  5
386
330
311
100
AcDbEntity
  8
Ebene 1
 62
   179
420
  1709851
370
    18
100
AcDb2dPolyline
 66
     1
 10
0.0
 20
0.0
 30
0.0
  0
VERTEX
  5
387
330
386
100
AcDbEntity
  8
Ebene 1
 62
   179
420
  1709851
370
    18
100
AcDbVertex
100
AcDb2dVertex
 10
109.4424153372227
 20
-187.342225430595
 30
0.0
  0
VERTEX
  5
388
330
386
100
AcDbEntity
  8
Ebene 1
 62
   179
420
  1709851
370
    18
100
AcDbVertex
100
AcDb2dVertex
 10
109.4424153372227
 20
-187.2368055087464
 30
0.0
  0
SEQEND
  5
389
330
386
100
AcDbEntity
  8
Ebene 1
370
    18
  0
POLYLINE
  5
38A
330
311
100
AcDbEntity
  8
Ebene 1
 62
   179
420
  1709851
370
    18
100
AcDb2dPolyline
 66
     1
 10
0.0
 20
0.0
 30
0.0
  0
VERTEX
  5
38B
330
38A
100
AcDbEntity
  8
Ebene 1
 62
   179
420
  1709851
370
    18
100
AcDbVertex
100
AcDb2dVertex
 10
107.4525281849424
 20
-187.2368055087464
 30
0.0
  0
VERTEX
  5
38C
330
38A
100
AcDbEntity
  8
Ebene 1
 62
   179
420
  1709851
370
    18
100
AcDbVertex
100
AcDb2dVertex
 10
107.4525281849424
 20
-187.342225430595
 30
0.0
  0
SEQEND
  5
38D
330
38A
100
AcDbEntity
  8
Ebene 1
370
    18
  0
POLYLINE
  5
38E
330
311
100
AcDbEntity
  8
Ebene 1
 62
   179
420
  1709851
370
    18
100
AcDb2dPolyline
 66
     1
 10
0.0
 20
0.0
 30
0.0
  0
VERTEX
  5
38F
330
38E
100
AcDbEntity
  8
Ebene 1
 62
   179
420
  1709851
370
    18
100
AcDbVertex
100
AcDb2dVertex
 10
107.4525281849424
 20
-188.9297254301981
 30
0.0
  0
VERTEX
  5
390
330
38E
100
AcDbEntity
  8
Ebene 1
 62
   179
420
  1709851
370
    18
100
AcDbVertex
100
AcDb2dVertex
 10
107.4525281849424
 20
-189.2266926610267
 30
0.0
  0
SEQEND
  5
391
330
38E
100
AcDbEntity
  8
Ebene 1
370
    18
  0
POLYLINE
  5
392
330
311
100
AcDbEntity
  8
Ebene 1
 62
   179
420
  1709851
370
    18
100
AcDb2dPolyline
 66
     1
 10
0.0
 20
0.0
 30
0.0
  0
VERTEX
  5
393
330
392
100
AcDbEntity
  8
Ebene 1
 62
   179
420
  1709851
370
    18
100
AcDbVertex
100
AcDb2dVertex
 10
101.44118107273
 20
-189.2266926610267
 30
0.0
  0
VERTEX
  5
394
330
392
100
AcDbEntity
  8
Ebene 1
 62
   179
420
  1709851
370
    18
100
AcDbVertex
100
AcDb2dVertex
 10
101.44118107273
 20
-188.9304144492952
 30
0.0
  0
SEQEND
  5
395
330
392
100
AcDbEntity
  8
Ebene 1
370
    18
  0
POLYLINE
  5
396
330
311
100
AcDbEntity
  8
Ebene 1
 62
   179
420
  1709851
370
    18
100
AcDb2dPolyline
 66
     1
 10
0.0
 20
0.0
 30
0.0
  0
VERTEX
  5
397
330
396
100
AcDbEntity
  8
Ebene 1
 62
   179
420
  1709851
370
    18
100
AcDbVertex
100
AcDb2dVertex
 10
101.44118107273
 20
-187.342914449692
 30
0.0
  0
VERTEX
  5
398
330
396
100
AcDbEntity
  8
Ebene 1
 62
   179
420
  1709851
370
    18
100
AcDbVertex
100
AcDb2dVertex
 10
101.44118107273
 20
-187.2368055087464
 30
0.0
  0
SEQEND
  5
399
330
396
100
AcDbEntity
  8
Ebene 1
370
    18
  0
POLYLINE
  5
39A
330
311
100
AcDbEntity
  8
Ebene 1
 62
   179
420
  1709851
370
    18
100
AcDb2dPolyline
 66
     1
 10
0.0
 20
0.0
 30
0.0
  0
VERTEX
  5
39B
330
39A
100
AcDbEntity
  8
Ebene 1
 62
   179
420
  1709851
370
    18
100
AcDbVertex
100
AcDb2dVertex
 10
99.45163842999821
 20
-187.2368055087464
 30
0.0
  0
VERTEX
  5
39C
330
39A
100
AcDbEntity
  8
Ebene 1
 62
   179
420
  1709851
370
    18
100
AcDbVertex
100
AcDb2dVertex
 10
99.45163842999821
 20
-187.342914449692
 30
0.0
  0
SEQEND
  5
39D
330
39A
100
AcDbEntity
  8
Ebene 1
370
    18
  0
POLYLINE
  5
39E
330
311
100
AcDbEntity
  8
Ebene 1
 62
   179
420
  1709851
370
    18
100
AcDb2dPolyline
 66
     1
 10
0.0
 20
0.0
 30
0.0
  0
VERTEX
  5
39F
330
39E
100
AcDbEntity
  8
Ebene 1
 62
   179
420
  1709851
370
    18
100
AcDbVertex
100
AcDb2dVertex
 10
99.45163842999821
 20
-188.9304144492952
 30
0.0
  0
VERTEX
  5
3A0
330
39E
100
AcDbEntity
  8
Ebene 1
 62
   179
420
  1709851
370
    18
100
AcDbVertex
100
AcDb2dVertex
 10
99.45163842999821
 20
-189.2266926610267
 30
0.0
  0
SEQEND
  5
3A1
330
39E
100
AcDbEntity
  8
Ebene 1
370
    18
  0
POLYLINE
  5
3A2
330
311
100
AcDbEntity
  8
Ebene 1
 62
   179
420
  1709851
370
    18
100
AcDb2dPolyline
 66
     1
 10
0.0
 20
0.0
 30
0.0
  0
VERTEX
  5
3A3
330
3A2
100
AcDbEntity
  8
Ebene 1
 62
   179
420
  1709851
370
    18
100
AcDbVertex
100
AcDb2dVertex
 10
109.5905544430885
 20
-186.9825574619349
 30
0.0
  0
VERTEX
  5
3A4
330
3A2
100
AcDbEntity
  8
Ebene 1
 62
   179
420
  1709851
370
    18
100
AcDbVertex
100
AcDb2dVertex
 10
109.5905544430885
 20
-186.9405272970149
 30
0.0
  0
SEQEND
  5
3A5
330
3A2
100
AcDbEntity
  8
Ebene 1
370
    18
  0
POLYLINE
  5
3A6
330
311
100
AcDbEntity
  8
Ebene 1
 62
   179
420
  1709851
370
    18
100
AcDb2dPolyline
 66
     1
 10
0.0
 20
0.0
 30
0.0
  0
VERTEX
  5
3A7
330
3A6
100
AcDbEntity
  8
Ebene 1
 62
   179
420
  1709851
370
    18
100
AcDbVertex
100
AcDb2dVertex
 10
107.7067762317539
 20
-187.342914449692
 30
0.0
  0
VERTEX
  5
3A8
330
3A6
100
AcDbEntity
  8
Ebene 1
 62
   179
420
  1709851
370
    18
100
AcDbVertex
100
AcDb2dVertex
 10
109.1881672904113
 20
-187.342914449692
 30
0.0
  0
SEQEND
  5
3A9
330
3A6
100
AcDbEntity
  8
Ebene 1
370
    18
  0
POLYLINE
  5
3AA
330
311
100
AcDbEntity
  8
Ebene 1
 62
   179
420
  1709851
370
    18
100
AcDb2dPolyline
 66
     1
 10
0.0
 20
0.0
 30
0.0
  0
VERTEX
  5
3AB
330
3AA
100
AcDbEntity
  8
Ebene 1
 62
   179
420
  1709851
370
    18
100
AcDbVertex
100
AcDb2dVertex
 10
109.1881672904113
 20
-187.342914449692
 30
0.0
  0
VERTEX
  5
3AC
330
3AA
100
AcDbEntity
  8
Ebene 1
 62
   179
420
  1709851
370
    18
100
AcDbVertex
100
AcDb2dVertex
 10
109.3786810707456
 20
-187.300195265675
 30
0.0
  0
VERTEX
  5
3AD
330
3AA
100
AcDbEntity
  8
Ebene 1
 62
   179
420
  1709851
370
    18
100
AcDbVertex
100
AcDb2dVertex
 10
109.5058050941513
 20
-187.1734157518178
 30
0.0
  0
VERTEX
  5
3AE
330
3AA
100
AcDbEntity
  8
Ebene 1
 62
   179
420
  1709851
370
    18
100
AcDbVertex
100
AcDb2dVertex
 10
109.5905544430885
 20
-187.0039170539435
 30
0.0
  0
VERTEX
  5
3AF
330
3AA
100
AcDbEntity
  8
Ebene 1
 62
   179
420
  1709851
370
    18
100
AcDbVertex
100
AcDb2dVertex
 10
109.5905544430885
 20
-186.9825574619349
 30
0.0
  0
SEQEND
  5
3B0
330
3AA
100
AcDbEntity
  8
Ebene 1
370
    18
  0
POLYLINE
  5
3B1
330
311
100
AcDbEntity
  8
Ebene 1
 62
   179
420
  1709851
370
    18
100
AcDb2dPolyline
 66
     1
 10
0.0
 20
0.0
 30
0.0
  0
VERTEX
  5
3B2
330
3B1
100
AcDbEntity
  8
Ebene 1
 62
   179
420
  1709851
370
    18
100
AcDbVertex
100
AcDb2dVertex
 10
107.2830294870681
 20
-186.9405272970149
 30
0.0
  0
VERTEX
  5
3B3
330
3B1
100
AcDbEntity
  8
Ebene 1
 62
   179
420
  1709851
370
    18
100
AcDbVertex
100
AcDb2dVertex
 10
107.3043890790767
 20
-186.9825574619349
 30
0.0
  0
SEQEND
  5
3B4
330
3B1
100
AcDbEntity
  8
Ebene 1
370
    18
  0
POLYLINE
  5
3B5
330
311
100
AcDbEntity
  8
Ebene 1
 62
   179
420
  1709851
370
    18
100
AcDb2dPolyline
 66
     1
 10
0.0
 20
0.0
 30
0.0
  0
VERTEX
  5
3B6
330
3B5
100
AcDbEntity
  8
Ebene 1
 62
   179
420
  1709851
370
    18
100
AcDbVertex
100
AcDb2dVertex
 10
107.3043890790767
 20
-186.9825574619349
 30
0.0
  0
VERTEX
  5
3B7
330
3B5
100
AcDbEntity
  8
Ebene 1
 62
   179
420
  1709851
370
    18
100
AcDbVertex
100
AcDb2dVertex
 10
107.3677788360053
 20
-187.1520561598092
 30
0.0
  0
VERTEX
  5
3B8
330
3B5
100
AcDbEntity
  8
Ebene 1
 62
   179
420
  1709851
370
    18
100
AcDbVertex
100
AcDb2dVertex
 10
107.494902859411
 20
-187.2788356736664
 30
0.0
  0
VERTEX
  5
3B9
330
3B5
100
AcDbEntity
  8
Ebene 1
 62
   179
420
  1709851
370
    18
100
AcDbVertex
100
AcDb2dVertex
 10
107.6647460668338
 20
-187.342914449692
 30
0.0
  0
VERTEX
  5
3BA
330
3B5
100
AcDbEntity
  8
Ebene 1
 62
   179
420
  1709851
370
    18
100
AcDbVertex
100
AcDb2dVertex
 10
107.7067762317539
 20
-187.342914449692
 30
0.0
  0
SEQEND
  5
3BB
330
3B5
100
AcDbEntity
  8
Ebene 1
370
    18
  0
POLYLINE
  5
3BC
330
311
100
AcDbEntity
  8
Ebene 1
 62
   179
420
  1709851
370
    18
100
AcDb2dPolyline
 66
     1
 10
0.0
 20
0.0
 30
0.0
  0
VERTEX
  5
3BD
330
3BC
100
AcDbEntity
  8
Ebene 1
 62
   179
420
  1709851
370
    18
100
AcDbVertex
100
AcDb2dVertex
 10
101.58949243337
 20
-186.9825574619349
 30
0.0
  0
VERTEX
  5
3BE
330
3BC
100
AcDbEntity
  8
Ebene 1
 62
   179
420
  1709851
370
    18
100
AcDbVertex
100
AcDb2dVertex
 10
101.58949243337
 20
-186.9405272970149
 30
0.0
  0
SEQEND
  5
3BF
330
3BC
100
AcDbEntity
  8
Ebene 1
370
    18
  0
POLYLINE
  5
3C0
330
311
100
AcDbEntity
  8
Ebene 1
 62
   179
420
  1709851
370
    18
100
AcDb2dPolyline
 66
     1
 10
0.0
 20
0.0
 30
0.0
  0
VERTEX
  5
3C1
330
3C0
100
AcDbEntity
  8
Ebene 1
 62
   179
420
  1709851
370
    18
100
AcDbVertex
100
AcDb2dVertex
 10
99.70554196726111
 20
-187.342225430595
 30
0.0
  0
VERTEX
  5
3C2
330
3C0
100
AcDbEntity
  8
Ebene 1
 62
   179
420
  1709851
370
    18
100
AcDbVertex
100
AcDb2dVertex
 10
101.1872775354671
 20
-187.342225430595
 30
0.0
  0
SEQEND
  5
3C3
330
3C0
100
AcDbEntity
  8
Ebene 1
370
    18
  0
POLYLINE
  5
3C4
330
311
100
AcDbEntity
  8
Ebene 1
 62
   179
420
  1709851
370
    18
100
AcDb2dPolyline
 66
     1
 10
0.0
 20
0.0
 30
0.0
  0
VERTEX
  5
3C5
330
3C4
100
AcDbEntity
  8
Ebene 1
 62
   179
420
  1709851
370
    18
100
AcDbVertex
100
AcDb2dVertex
 10
101.1872775354671
 20
-187.342225430595
 30
0.0
  0
VERTEX
  5
3C6
330
3C4
100
AcDbEntity
  8
Ebene 1
 62
   179
420
  1709851
370
    18
100
AcDbVertex
100
AcDb2dVertex
 10
101.3777913158014
 20
-187.300195265675
 30
0.0
  0
VERTEX
  5
3C7
330
3C4
100
AcDbEntity
  8
Ebene 1
 62
   179
420
  1709851
370
    18
100
AcDbVertex
100
AcDb2dVertex
 10
101.5050875939814
 20
-187.1734157518178
 30
0.0
  0
VERTEX
  5
3C8
330
3C4
100
AcDbEntity
  8
Ebene 1
 62
   179
420
  1709851
370
    18
100
AcDbVertex
100
AcDb2dVertex
 10
101.58949243337
 20
-187.0039170539435
 30
0.0
  0
VERTEX
  5
3C9
330
3C4
100
AcDbEntity
  8
Ebene 1
 62
   179
420
  1709851
370
    18
100
AcDbVertex
100
AcDb2dVertex
 10
101.58949243337
 20
-186.9825574619349
 30
0.0
  0
SEQEND
  5
3CA
330
3C4
100
AcDbEntity
  8
Ebene 1
370
    18
  0
POLYLINE
  5
3CB
330
311
100
AcDbEntity
  8
Ebene 1
 62
   179
420
  1709851
370
    18
100
AcDb2dPolyline
 66
     1
 10
0.0
 20
0.0
 30
0.0
  0
VERTEX
  5
3CC
330
3CB
100
AcDbEntity
  8
Ebene 1
 62
   179
420
  1709851
370
    18
100
AcDbVertex
100
AcDb2dVertex
 10
99.30349932413246
 20
-186.9405272970149
 30
0.0
  0
VERTEX
  5
3CD
330
3CB
100
AcDbEntity
  8
Ebene 1
 62
   179
420
  1709851
370
    18
100
AcDbVertex
100
AcDb2dVertex
 10
99.30349932413246
 20
-186.9825574619349
 30
0.0
  0
SEQEND
  5
3CE
330
3CB
100
AcDbEntity
  8
Ebene 1
370
    18
  0
POLYLINE
  5
3CF
330
311
100
AcDbEntity
  8
Ebene 1
 62
   179
420
  1709851
370
    18
100
AcDb2dPolyline
 66
     1
 10
0.0
 20
0.0
 30
0.0
  0
VERTEX
  5
3D0
330
3CF
100
AcDbEntity
  8
Ebene 1
 62
   179
420
  1709851
370
    18
100
AcDbVertex
100
AcDb2dVertex
 10
99.30349932413246
 20
-186.9825574619349
 30
0.0
  0
VERTEX
  5
3D1
330
3CF
100
AcDbEntity
  8
Ebene 1
 62
   179
420
  1709851
370
    18
100
AcDbVertex
100
AcDb2dVertex
 10
99.36688908106106
 20
-187.1520561598092
 30
0.0
  0
VERTEX
  5
3D2
330
3CF
100
AcDbEntity
  8
Ebene 1
 62
   179
420
  1709851
370
    18
100
AcDbVertex
100
AcDb2dVertex
 10
99.49384084969252
 20
-187.2788356736664
 30
0.0
  0
VERTEX
  5
3D3
330
3CF
100
AcDbEntity
  8
Ebene 1
 62
   179
420
  1709851
370
    18
100
AcDbVertex
100
AcDb2dVertex
 10
99.66316729279255
 20
-187.342225430595
 30
0.0
  0
VERTEX
  5
3D4
330
3CF
100
AcDbEntity
  8
Ebene 1
 62
   179
420
  1709851
370
    18
100
AcDbVertex
100
AcDb2dVertex
 10
99.70554196726111
 20
-187.342225430595
 30
0.0
  0
SEQEND
  5
3D5
330
3CF
100
AcDbEntity
  8
Ebene 1
370
    18
  0
POLYLINE
  5
3D6
330
311
100
AcDbEntity
  8
Ebene 1
 62
   179
420
  1709851
370
    18
100
AcDb2dPolyline
 66
     1
 10
0.0
 20
0.0
 30
0.0
  0
VERTEX
  5
3D7
330
3D6
100
AcDbEntity
  8
Ebene 1
 62
   179
420
  1709851
370
    18
100
AcDbVertex
100
AcDb2dVertex
 10
109.4424153372227
 20
-188.0408907950037
 30
0.0
  0
VERTEX
  5
3D8
330
3D6
100
AcDbEntity
  8
Ebene 1
 62
   179
420
  1709851
370
    18
100
AcDbVertex
100
AcDb2dVertex
 10
109.5478352590714
 20
-188.0408907950037
 30
0.0
  0
SEQEND
  5
3D9
330
3D6
100
AcDbEntity
  8
Ebene 1
370
    18
  0
POLYLINE
  5
3DA
330
311
100
AcDbEntity
  8
Ebene 1
 62
   179
420
  1709851
370
    18
100
AcDb2dPolyline
 66
     1
 10
0.0
 20
0.0
 30
0.0
  0
VERTEX
  5
3DB
330
3DA
100
AcDbEntity
  8
Ebene 1
 62
   179
420
  1709851
370
    18
100
AcDbVertex
100
AcDb2dVertex
 10
107.3467637535453
 20
-188.0408907950037
 30
0.0
  0
VERTEX
  5
3DC
330
3DA
100
AcDbEntity
  8
Ebene 1
 62
   179
420
  1709851
370
    18
100
AcDbVertex
100
AcDb2dVertex
 10
107.4525281849424
 20
-188.0408907950037
 30
0.0
  0
SEQEND
  5
3DD
330
3DA
100
AcDbEntity
  8
Ebene 1
370
    18
  0
POLYLINE
  5
3DE
330
311
100
AcDbEntity
  8
Ebene 1
 62
   179
420
  1709851
370
    18
100
AcDb2dPolyline
 66
     1
 10
0.0
 20
0.0
 30
0.0
  0
VERTEX
  5
3DF
330
3DE
100
AcDbEntity
  8
Ebene 1
 62
   179
420
  1709851
370
    18
100
AcDbVertex
100
AcDb2dVertex
 10
99.45163842999821
 20
-188.0408907950037
 30
0.0
  0
VERTEX
  5
3E0
330
3DE
100
AcDbEntity
  8
Ebene 1
 62
   179
420
  1709851
370
    18
100
AcDbVertex
100
AcDb2dVertex
 10
99.34570174382678
 20
-188.0408907950037
 30
0.0
  0
SEQEND
  5
3E1
330
3DE
100
AcDbEntity
  8
Ebene 1
370
    18
  0
POLYLINE
  5
3E2
330
311
100
AcDbEntity
  8
Ebene 1
 62
   179
420
  1709851
370
    18
100
AcDb2dPolyline
 66
     1
 10
0.0
 20
0.0
 30
0.0
  0
VERTEX
  5
3E3
330
3E2
100
AcDbEntity
  8
Ebene 1
 62
   179
420
  1709851
370
    18
100
AcDbVertex
100
AcDb2dVertex
 10
101.5471177589014
 20
-188.0408907950037
 30
0.0
  0
VERTEX
  5
3E4
330
3E2
100
AcDbEntity
  8
Ebene 1
 62
   179
420
  1709851
370
    18
100
AcDbVertex
100
AcDb2dVertex
 10
101.44118107273
 20
-188.0408907950037
 30
0.0
  0
SEQEND
  5
3E5
330
3E2
100
AcDbEntity
  8
Ebene 1
370
    18
  0
POLYLINE
  5
3E6
330
311
100
AcDbEntity
  8
Ebene 1
 62
   179
420
  1709851
370
    18
100
AcDb2dPolyline
 66
     1
 10
0.0
 20
0.0
 30
0.0
  0
VERTEX
  5
3E7
330
3E6
100
AcDbEntity
  8
Ebene 1
 62
   179
420
  1709851
370
    18
100
AcDbVertex
100
AcDb2dVertex
 10
99.2399373124296
 20
-186.7289984342205
 30
0.0
  0
VERTEX
  5
3E8
330
3E6
100
AcDbEntity
  8
Ebene 1
 62
   179
420
  1709851
370
    18
100
AcDbVertex
100
AcDb2dVertex
 10
109.6325846080085
 20
-186.7289984342205
 30
0.0
  0
SEQEND
  5
3E9
330
3E6
100
AcDbEntity
  8
Ebene 1
370
    18
  0
POLYLINE
  5
3EA
330
311
100
AcDbEntity
  8
Ebene 1
 62
   179
420
  1709851
370
    18
100
AcDb2dPolyline
 66
     1
 10
0.0
 20
0.0
 30
0.0
  0
VERTEX
  5
3EB
330
3EA
100
AcDbEntity
  8
Ebene 1
 62
   179
420
  1709851
370
    18
100
AcDbVertex
100
AcDb2dVertex
 10
99.17637530072675
 20
-186.9405272970149
 30
0.0
  0
VERTEX
  5
3EC
330
3EA
100
AcDbEntity
  8
Ebene 1
 62
   179
420
  1709851
370
    18
100
AcDbVertex
100
AcDb2dVertex
 10
109.7173339569457
 20
-186.9405272970149
 30
0.0
  0
SEQEND
  5
3ED
330
3EA
100
AcDbEntity
  8
Ebene 1
370
    18
  0
POLYLINE
  5
3EE
330
311
100
AcDbEntity
  8
Ebene 1
 62
   179
420
  1709851
370
    18
100
AcDb2dPolyline
 66
     1
 10
0.0
 20
0.0
 30
0.0
  0
VERTEX
  5
3EF
330
3EE
100
AcDbEntity
  8
Ebene 1
 62
   179
420
  1709851
370
    18
100
AcDbVertex
100
AcDb2dVertex
 10
99.45163842999821
 20
-186.4533907954005
 30
0.0
  0
VERTEX
  5
3F0
330
3EE
100
AcDbEntity
  8
Ebene 1
 62
   179
420
  1709851
370
    18
100
AcDbVertex
100
AcDb2dVertex
 10
99.45163842999821
 20
-186.7289984342205
 30
0.0
  0
SEQEND
  5
3F1
330
3EE
100
AcDbEntity
  8
Ebene 1
370
    18
  0
POLYLINE
  5
3F2
330
311
100
AcDbEntity
  8
Ebene 1
 62
   179
420
  1709851
370
    18
100
AcDb2dPolyline
 66
     1
 10
0.0
 20
0.0
 30
0.0
  0
VERTEX
  5
3F3
330
3F2
100
AcDbEntity
  8
Ebene 1
 62
   179
420
  1709851
370
    18
100
AcDbVertex
100
AcDb2dVertex
 10
101.44118107273
 20
-186.7289984342205
 30
0.0
  0
VERTEX
  5
3F4
330
3F2
100
AcDbEntity
  8
Ebene 1
 62
   179
420
  1709851
370
    18
100
AcDbVertex
100
AcDb2dVertex
 10
101.44118107273
 20
-186.4533907954005
 30
0.0
  0
SEQEND
  5
3F5
330
3F2
100
AcDbEntity
  8
Ebene 1
370
    18
  0
POLYLINE
  5
3F6
330
311
100
AcDbEntity
  8
Ebene 1
 62
   179
420
  1709851
370
    18
100
AcDb2dPolyline
 66
     1
 10
0.0
 20
0.0
 30
0.0
  0
VERTEX
  5
3F7
330
3F6
100
AcDbEntity
  8
Ebene 1
 62
   179
420
  1709851
370
    18
100
AcDbVertex
100
AcDb2dVertex
 10
109.4424153372227
 20
-186.7289984342205
 30
0.0
  0
VERTEX
  5
3F8
330
3F6
100
AcDbEntity
  8
Ebene 1
 62
   179
420
  1709851
370
    18
100
AcDbVertex
100
AcDb2dVertex
 10
109.4424153372227
 20
-186.4533907954005
 30
0.0
  0
SEQEND
  5
3F9
330
3F6
100
AcDbEntity
  8
Ebene 1
370
    18
  0
POLYLINE
  5
3FA
330
311
100
AcDbEntity
  8
Ebene 1
 62
   179
420
  1709851
370
    18
100
AcDb2dPolyline
 66
     1
 10
0.0
 20
0.0
 30
0.0
  0
VERTEX
  5
3FB
330
3FA
100
AcDbEntity
  8
Ebene 1
 62
   179
420
  1709851
370
    18
100
AcDbVertex
100
AcDb2dVertex
 10
107.4525281849424
 20
-186.4533907954005
 30
0.0
  0
VERTEX
  5
3FC
330
3FA
100
AcDbEntity
  8
Ebene 1
 62
   179
420
  1709851
370
    18
100
AcDbVertex
100
AcDb2dVertex
 10
107.4525281849424
 20
-186.7289984342205
 30
0.0
  0
SEQEND
  5
3FD
330
3FA
100
AcDbEntity
  8
Ebene 1
370
    18
  0
POLYLINE
  5
3FE
330
311
100
AcDbEntity
  8
Ebene 1
 62
   179
420
  1709851
370
    18
100
AcDb2dPolyline
 66
     1
 10
0.0
 20
0.0
 30
0.0
  0
VERTEX
  5
3FF
330
3FE
100
AcDbEntity
  8
Ebene 1
 62
   179
420
  1709851
370
    18
100
AcDbVertex
100
AcDb2dVertex
 10
107.4525281849424
 20
-189.2266926610267
 30
0.0
  0
VERTEX
  5
400
330
3FE
100
AcDbEntity
  8
Ebene 1
 62
   179
420
  1709851
370
    18
100
AcDbVertex
100
AcDb2dVertex
 10
109.4424153372227
 20
-189.2266926610267
 30
0.0
  0
SEQEND
  5
401
330
3FE
100
AcDbEntity
  8
Ebene 1
370
    18
  0
POLYLINE
  5
402
330
311
100
AcDbEntity
  8
Ebene 1
 62
   179
420
  1709851
370
    18
100
AcDb2dPolyline
 66
     1
 10
0.0
 20
0.0
 30
0.0
  0
VERTEX
  5
403
330
402
100
AcDbEntity
  8
Ebene 1
 62
   179
420
  1709851
370
    18
100
AcDbVertex
100
AcDb2dVertex
 10
99.45163842999821
 20
-189.2266926610267
 30
0.0
  0
VERTEX
  5
404
330
402
100
AcDbEntity
  8
Ebene 1
 62
   179
420
  1709851
370
    18
100
AcDbVertex
100
AcDb2dVertex
 10
101.44118107273
 20
-189.2266926610267
 30
0.0
  0
SEQEND
  5
405
330
402
100
AcDbEntity
  8
Ebene 1
370
    18
  0
POLYLINE
  5
406
330
311
100
AcDbEntity
  8
Ebene 1
 62
   179
420
  1709851
370
    18
100
AcDb2dPolyline
 66
     1
 10
0.0
 20
0.0
 30
0.0
  0
VERTEX
  5
407
330
406
100
AcDbEntity
  8
Ebene 1
 62
   179
420
  1709851
370
    18
100
AcDbVertex
100
AcDb2dVertex
 10
101.44118107273
 20
-186.4533907954005
 30
0.0
  0
VERTEX
  5
408
330
406
100
AcDbEntity
  8
Ebene 1
 62
   179
420
  1709851
370
    18
100
AcDbVertex
100
AcDb2dVertex
 10
99.45163842999821
 20
-186.4533907954005
 30
0.0
  0
SEQEND
  5
409
330
406
100
AcDbEntity
  8
Ebene 1
370
    18
  0
POLYLINE
  5
40A
330
311
100
AcDbEntity
  8
Ebene 1
 62
   179
420
  1709851
370
    18
100
AcDb2dPolyline
 66
     1
 10
0.0
 20
0.0
 30
0.0
  0
VERTEX
  5
40B
330
40A
100
AcDbEntity
  8
Ebene 1
 62
   179
420
  1709851
370
    18
100
AcDbVertex
100
AcDb2dVertex
 10
107.4525281849424
 20
-186.4533907954005
 30
0.0
  0
VERTEX
  5
40C
330
40A
100
AcDbEntity
  8
Ebene 1
 62
   179
420
  1709851
370
    18
100
AcDbVertex
100
AcDb2dVertex
 10
109.4424153372227
 20
-186.4533907954005
 30
0.0
  0
SEQEND
  5
40D
330
40A
100
AcDbEntity
  8
Ebene 1
370
    18
  0
POLYLINE
  5
40E
330
311
100
AcDbEntity
  8
Ebene 1
 62
   179
420
  1709851
370
    18
100
AcDb2dPolyline
 66
     1
 10
0.0
 20
0.0
 30
0.0
  0
VERTEX
  5
40F
330
40E
100
AcDbEntity
  8
Ebene 1
 62
   179
420
  1709851
370
    18
100
AcDbVertex
100
AcDb2dVertex
 10
110.1197211096229
 20
-186.6649196581949
 30
0.0
  0
VERTEX
  5
410
330
40E
100
AcDbEntity
  8
Ebene 1
 62
   179
420
  1709851
370
    18
100
AcDbVertex
100
AcDb2dVertex
 10
110.0136121686772
 20
-186.707638842212
 30
0.0
  0
VERTEX
  5
411
330
40E
100
AcDbEntity
  8
Ebene 1
 62
   179
420
  1709851
370
    18
100
AcDbVertex
100
AcDb2dVertex
 10
109.9925970862171
 20
-186.707638842212
 30
0.0
  0
SEQEND
  5
412
330
40E
100
AcDbEntity
  8
Ebene 1
370
    18
  0
POLYLINE
  5
413
330
311
100
AcDbEntity
  8
Ebene 1
 62
   179
420
  1709851
370
    18
100
AcDb2dPolyline
 66
     1
 10
0.0
 20
0.0
 30
0.0
  0
VERTEX
  5
414
330
413
100
AcDbEntity
  8
Ebene 1
 62
   179
420
  1709851
370
    18
100
AcDbVertex
100
AcDb2dVertex
 10
106.9874402944337
 20
-186.5167805523292
 30
0.0
  0
VERTEX
  5
415
330
413
100
AcDbEntity
  8
Ebene 1
 62
   179
420
  1709851
370
    18
100
AcDbVertex
100
AcDb2dVertex
 10
106.881331353488
 20
-186.4533907954005
 30
0.0
  0
VERTEX
  5
416
330
413
100
AcDbEntity
  8
Ebene 1
 62
   179
420
  1709851
370
    18
100
AcDbVertex
100
AcDb2dVertex
 10
106.8386121694709
 20
-186.4533907954005
 30
0.0
  0
SEQEND
  5
417
330
413
100
AcDbEntity
  8
Ebene 1
370
    18
  0
POLYLINE
  5
418
330
311
100
AcDbEntity
  8
Ebene 1
 62
   179
420
  1709851
370
    18
100
AcDb2dPolyline
 66
     1
 10
0.0
 20
0.0
 30
0.0
  0
VERTEX
  5
419
330
418
100
AcDbEntity
  8
Ebene 1
 62
   179
420
  1709851
370
    18
100
AcDbVertex
100
AcDb2dVertex
 10
110.0349717606857
 20
-186.4533907954005
 30
0.0
  0
VERTEX
  5
41A
330
418
100
AcDbEntity
  8
Ebene 1
 62
   179
420
  1709851
370
    18
100
AcDbVertex
100
AcDb2dVertex
 10
109.92886281974
 20
-186.4961099794176
 30
0.0
  0
VERTEX
  5
41B
330
418
100
AcDbEntity
  8
Ebene 1
 62
   179
420
  1709851
370
    18
100
AcDbVertex
100
AcDb2dVertex
 10
109.90784773728
 20
-186.5167805523292
 30
0.0
  0
SEQEND
  5
41C
330
418
100
AcDbEntity
  8
Ebene 1
370
    18
  0
POLYLINE
  5
41D
330
311
100
AcDbEntity
  8
Ebene 1
 62
   179
420
  1709851
370
    18
100
AcDb2dPolyline
 66
     1
 10
0.0
 20
0.0
 30
0.0
  0
VERTEX
  5
41E
330
41D
100
AcDbEntity
  8
Ebene 1
 62
   179
420
  1709851
370
    18
100
AcDbVertex
100
AcDb2dVertex
 10
109.7173339569457
 20
-186.9405272970149
 30
0.0
  0
VERTEX
  5
41F
330
41D
100
AcDbEntity
  8
Ebene 1
 62
   179
420
  1709851
370
    18
100
AcDbVertex
100
AcDb2dVertex
 10
109.8020833058828
 20
-186.8978081129978
 30
0.0
  0
SEQEND
  5
420
330
41D
100
AcDbEntity
  8
Ebene 1
370
    18
  0
POLYLINE
  5
421
330
311
100
AcDbEntity
  8
Ebene 1
 62
   179
420
  1709851
370
    18
100
AcDb2dPolyline
 66
     1
 10
0.0
 20
0.0
 30
0.0
  0
VERTEX
  5
422
330
421
100
AcDbEntity
  8
Ebene 1
 62
   179
420
  1709851
370
    18
100
AcDbVertex
100
AcDb2dVertex
 10
109.6332736271056
 20
-186.7289984342205
 30
0.0
  0
VERTEX
  5
423
330
421
100
AcDbEntity
  8
Ebene 1
 62
   179
420
  1709851
370
    18
100
AcDbVertex
100
AcDb2dVertex
 10
109.7173339569457
 20
-186.707638842212
 30
0.0
  0
SEQEND
  5
424
330
421
100
AcDbEntity
  8
Ebene 1
370
    18
  0
POLYLINE
  5
425
330
311
100
AcDbEntity
  8
Ebene 1
 62
   179
420
  1709851
370
    18
100
AcDb2dPolyline
 66
     1
 10
0.0
 20
0.0
 30
0.0
  0
VERTEX
  5
426
330
425
100
AcDbEntity
  8
Ebene 1
 62
   179
420
  1709851
370
    18
100
AcDbVertex
100
AcDb2dVertex
 10
107.1776095652195
 20
-186.707638842212
 30
0.0
  0
VERTEX
  5
427
330
425
100
AcDbEntity
  8
Ebene 1
 62
   179
420
  1709851
370
    18
100
AcDbVertex
100
AcDb2dVertex
 10
107.2409993221481
 20
-186.7289984342205
 30
0.0
  0
SEQEND
  5
428
330
425
100
AcDbEntity
  8
Ebene 1
370
    18
  0
POLYLINE
  5
429
330
311
100
AcDbEntity
  8
Ebene 1
 62
   179
420
  1709851
370
    18
100
AcDb2dPolyline
 66
     1
 10
0.0
 20
0.0
 30
0.0
  0
VERTEX
  5
42A
330
429
100
AcDbEntity
  8
Ebene 1
 62
   179
420
  1709851
370
    18
100
AcDbVertex
100
AcDb2dVertex
 10
101.6316948530643
 20
-186.7289984342205
 30
0.0
  0
VERTEX
  5
42B
330
429
100
AcDbEntity
  8
Ebene 1
 62
   179
420
  1709851
370
    18
100
AcDbVertex
100
AcDb2dVertex
 10
101.7164442020015
 20
-186.707638842212
 30
0.0
  0
SEQEND
  5
42C
330
429
100
AcDbEntity
  8
Ebene 1
370
    18
  0
POLYLINE
  5
42D
330
311
100
AcDbEntity
  8
Ebene 1
 62
   179
420
  1709851
370
    18
100
AcDb2dPolyline
 66
     1
 10
0.0
 20
0.0
 30
0.0
  0
VERTEX
  5
42E
330
42D
100
AcDbEntity
  8
Ebene 1
 62
   179
420
  1709851
370
    18
100
AcDbVertex
100
AcDb2dVertex
 10
99.17637530072675
 20
-186.707638842212
 30
0.0
  0
VERTEX
  5
42F
330
42D
100
AcDbEntity
  8
Ebene 1
 62
   179
420
  1709851
370
    18
100
AcDbVertex
100
AcDb2dVertex
 10
99.2399373124296
 20
-186.7289984342205
 30
0.0
  0
SEQEND
  5
430
330
42D
100
AcDbEntity
  8
Ebene 1
370
    18
  0
POLYLINE
  5
431
330
311
100
AcDbEntity
  8
Ebene 1
 62
   179
420
  1709851
370
    18
100
AcDb2dPolyline
 66
     1
 10
0.0
 20
0.0
 30
0.0
  0
VERTEX
  5
432
330
431
100
AcDbEntity
  8
Ebene 1
 62
   179
420
  1709851
370
    18
100
AcDbVertex
100
AcDb2dVertex
 10
99.09179820656387
 20
-186.8978081129978
 30
0.0
  0
VERTEX
  5
433
330
431
100
AcDbEntity
  8
Ebene 1
 62
   179
420
  1709851
370
    18
100
AcDbVertex
100
AcDb2dVertex
 10
99.17637530072675
 20
-186.9405272970149
 30
0.0
  0
SEQEND
  5
434
330
431
100
AcDbEntity
  8
Ebene 1
370
    18
  0
POLYLINE
  5
435
330
311
100
AcDbEntity
  8
Ebene 1
 62
   179
420
  1709851
370
    18
100
AcDb2dPolyline
 66
     1
 10
0.0
 20
0.0
 30
0.0
  0
VERTEX
  5
436
330
435
100
AcDbEntity
  8
Ebene 1
 62
   179
420
  1709851
370
    18
100
AcDbVertex
100
AcDb2dVertex
 10
98.98586152039243
 20
-186.5167805523292
 30
0.0
  0
VERTEX
  5
437
330
435
100
AcDbEntity
  8
Ebene 1
 62
   179
420
  1709851
370
    18
100
AcDbVertex
100
AcDb2dVertex
 10
98.88009708899526
 20
-186.4533907954005
 30
0.0
  0
VERTEX
  5
438
330
435
100
AcDbEntity
  8
Ebene 1
 62
   179
420
  1709851
370
    18
100
AcDbVertex
100
AcDb2dVertex
 10
98.83772241452668
 20
-186.4533907954005
 30
0.0
  0
SEQEND
  5
439
330
435
100
AcDbEntity
  8
Ebene 1
370
    18
  0
POLYLINE
  5
43A
330
311
100
AcDbEntity
  8
Ebene 1
 62
   179
420
  1709851
370
    18
100
AcDb2dPolyline
 66
     1
 10
0.0
 20
0.0
 30
0.0
  0
VERTEX
  5
43B
330
43A
100
AcDbEntity
  8
Ebene 1
 62
   179
420
  1709851
370
    18
100
AcDbVertex
100
AcDb2dVertex
 10
98.90128442622955
 20
-186.707638842212
 30
0.0
  0
VERTEX
  5
43C
330
43A
100
AcDbEntity
  8
Ebene 1
 62
   179
420
  1709851
370
    18
100
AcDbVertex
100
AcDb2dVertex
 10
98.7953477400581
 20
-186.6649196581949
 30
0.0
  0
VERTEX
  5
43D
330
43A
100
AcDbEntity
  8
Ebene 1
 62
   179
420
  1709851
370
    18
100
AcDbVertex
100
AcDb2dVertex
 10
98.7531453203638
 20
-186.6649196581949
 30
0.0
  0
SEQEND
  5
43E
330
43A
100
AcDbEntity
  8
Ebene 1
370
    18
  0
POLYLINE
  5
43F
330
311
100
AcDbEntity
  8
Ebene 1
 62
   179
420
  1709851
370
    18
100
AcDb2dPolyline
 66
     1
 10
0.0
 20
0.0
 30
0.0
  0
VERTEX
  5
440
330
43F
100
AcDbEntity
  8
Ebene 1
 62
   179
420
  1709851
370
    18
100
AcDbVertex
100
AcDb2dVertex
 10
102.0550970882015
 20
-186.4533907954005
 30
0.0
  0
VERTEX
  5
441
330
43F
100
AcDbEntity
  8
Ebene 1
 62
   179
420
  1709851
370
    18
100
AcDbVertex
100
AcDb2dVertex
 10
101.92814531957
 20
-186.4961099794176
 30
0.0
  0
VERTEX
  5
442
330
43F
100
AcDbEntity
  8
Ebene 1
 62
   179
420
  1709851
370
    18
100
AcDbVertex
100
AcDb2dVertex
 10
101.9069579823358
 20
-186.5167805523292
 30
0.0
  0
SEQEND
  5
443
330
43F
100
AcDbEntity
  8
Ebene 1
370
    18
  0
POLYLINE
  5
444
330
311
100
AcDbEntity
  8
Ebene 1
 62
   179
420
  1709851
370
    18
100
AcDb2dPolyline
 66
     1
 10
0.0
 20
0.0
 30
0.0
  0
VERTEX
  5
445
330
444
100
AcDbEntity
  8
Ebene 1
 62
   179
420
  1709851
370
    18
100
AcDbVertex
100
AcDb2dVertex
 10
98.7531453203638
 20
-186.6649196581949
 30
0.0
  0
VERTEX
  5
446
330
444
100
AcDbEntity
  8
Ebene 1
 62
   179
420
  1709851
370
    18
100
AcDbVertex
100
AcDb2dVertex
 10
98.43550751662377
 20
-186.6649196581949
 30
0.0
  0
VERTEX
  5
447
330
444
100
AcDbEntity
  8
Ebene 1
 62
   179
420
  1709851
370
    18
100
AcDbVertex
100
AcDb2dVertex
 10
98.43550751662377
 20
-186.4533907954005
 30
0.0
  0
SEQEND
  5
448
330
444
100
AcDbEntity
  8
Ebene 1
370
    18
  0
POLYLINE
  5
449
330
311
100
AcDbEntity
  8
Ebene 1
 62
   179
420
  1709851
370
    18
100
AcDb2dPolyline
 66
     1
 10
0.0
 20
0.0
 30
0.0
  0
VERTEX
  5
44A
330
449
100
AcDbEntity
  8
Ebene 1
 62
   179
420
  1709851
370
    18
100
AcDbVertex
100
AcDb2dVertex
 10
99.09179820656387
 20
-186.8978081129978
 30
0.0
  0
VERTEX
  5
44B
330
449
100
AcDbEntity
  8
Ebene 1
 62
   179
420
  1709851
370
    18
100
AcDbVertex
100
AcDb2dVertex
 10
98.90128442622955
 20
-186.707638842212
 30
0.0
  0
SEQEND
  5
44C
330
449
100
AcDbEntity
  8
Ebene 1
370
    18
  0
POLYLINE
  5
44D
330
311
100
AcDbEntity
  8
Ebene 1
 62
   179
420
  1709851
370
    18
100
AcDb2dPolyline
 66
     1
 10
0.0
 20
0.0
 30
0.0
  0
VERTEX
  5
44E
330
44D
100
AcDbEntity
  8
Ebene 1
 62
   179
420
  1709851
370
    18
100
AcDbVertex
100
AcDb2dVertex
 10
109.9925970862171
 20
-186.707638842212
 30
0.0
  0
VERTEX
  5
44F
330
44D
100
AcDbEntity
  8
Ebene 1
 62
   179
420
  1709851
370
    18
100
AcDbVertex
100
AcDb2dVertex
 10
109.8020833058828
 20
-186.8978081129978
 30
0.0
  0
SEQEND
  5
450
330
44D
100
AcDbEntity
  8
Ebene 1
370
    18
  0
POLYLINE
  5
451
330
311
100
AcDbEntity
  8
Ebene 1
 62
   179
420
  1709851
370
    18
100
AcDb2dPolyline
 66
     1
 10
0.0
 20
0.0
 30
0.0
  0
VERTEX
  5
452
330
451
100
AcDbEntity
  8
Ebene 1
 62
   179
420
  1709851
370
    18
100
AcDbVertex
100
AcDb2dVertex
 10
110.0349717606857
 20
-186.4533907954005
 30
0.0
  0
VERTEX
  5
453
330
451
100
AcDbEntity
  8
Ebene 1
 62
   179
420
  1709851
370
    18
100
AcDbVertex
100
AcDb2dVertex
 10
110.4370144038144
 20
-186.4533907954005
 30
0.0
  0
VERTEX
  5
454
330
451
100
AcDbEntity
  8
Ebene 1
 62
   179
420
  1709851
370
    18
100
AcDbVertex
100
AcDb2dVertex
 10
110.4370144038144
 20
-186.6649196581949
 30
0.0
  0
VERTEX
  5
455
330
451
100
AcDbEntity
  8
Ebene 1
 62
   179
420
  1709851
370
    18
100
AcDbVertex
100
AcDb2dVertex
 10
110.1197211096229
 20
-186.6649196581949
 30
0.0
  0
SEQEND
  5
456
330
451
100
AcDbEntity
  8
Ebene 1
370
    18
  0
POLYLINE
  5
457
330
311
100
AcDbEntity
  8
Ebene 1
 62
   179
420
  1709851
370
    18
100
AcDb2dPolyline
 66
     1
 10
0.0
 20
0.0
 30
0.0
  0
VERTEX
  5
458
330
457
100
AcDbEntity
  8
Ebene 1
 62
   179
420
  1709851
370
    18
100
AcDbVertex
100
AcDb2dVertex
 10
109.7173339569457
 20
-186.707638842212
 30
0.0
  0
VERTEX
  5
459
330
457
100
AcDbEntity
  8
Ebene 1
 62
   179
420
  1709851
370
    18
100
AcDbVertex
100
AcDb2dVertex
 10
109.90784773728
 20
-186.5167805523292
 30
0.0
  0
SEQEND
  5
45A
330
457
100
AcDbEntity
  8
Ebene 1
370
    18
  0
POLYLINE
  5
45B
330
311
100
AcDbEntity
  8
Ebene 1
 62
   179
420
  1709851
370
    18
100
AcDb2dPolyline
 66
     1
 10
0.0
 20
0.0
 30
0.0
  0
VERTEX
  5
45C
330
45B
100
AcDbEntity
  8
Ebene 1
 62
   179
420
  1709851
370
    18
100
AcDbVertex
100
AcDb2dVertex
 10
106.9874402944337
 20
-186.5167805523292
 30
0.0
  0
VERTEX
  5
45D
330
45B
100
AcDbEntity
  8
Ebene 1
 62
   179
420
  1709851
370
    18
100
AcDbVertex
100
AcDb2dVertex
 10
107.1776095652195
 20
-186.707638842212
 30
0.0
  0
SEQEND
  5
45E
330
45B
100
AcDbEntity
  8
Ebene 1
370
    18
  0
POLYLINE
  5
45F
330
311
100
AcDbEntity
  8
Ebene 1
 62
   179
420
  1709851
370
    18
100
AcDb2dPolyline
 66
     1
 10
0.0
 20
0.0
 30
0.0
  0
VERTEX
  5
460
330
45F
100
AcDbEntity
  8
Ebene 1
 62
   179
420
  1709851
370
    18
100
AcDbVertex
100
AcDb2dVertex
 10
101.7164442020015
 20
-186.707638842212
 30
0.0
  0
VERTEX
  5
461
330
45F
100
AcDbEntity
  8
Ebene 1
 62
   179
420
  1709851
370
    18
100
AcDbVertex
100
AcDb2dVertex
 10
101.9069579823358
 20
-186.5167805523292
 30
0.0
  0
SEQEND
  5
462
330
45F
100
AcDbEntity
  8
Ebene 1
370
    18
  0
POLYLINE
  5
463
330
311
100
AcDbEntity
  8
Ebene 1
 62
   179
420
  1709851
370
    18
100
AcDb2dPolyline
 66
     1
 10
0.0
 20
0.0
 30
0.0
  0
VERTEX
  5
464
330
463
100
AcDbEntity
  8
Ebene 1
 62
   179
420
  1709851
370
    18
100
AcDbVertex
100
AcDb2dVertex
 10
98.98586152039243
 20
-186.5167805523292
 30
0.0
  0
VERTEX
  5
465
330
463
100
AcDbEntity
  8
Ebene 1
 62
   179
420
  1709851
370
    18
100
AcDbVertex
100
AcDb2dVertex
 10
99.17637530072675
 20
-186.707638842212
 30
0.0
  0
SEQEND
  5
466
330
463
100
AcDbEntity
  8
Ebene 1
370
    18
  0
POLYLINE
  5
467
330
311
100
AcDbEntity
  8
Ebene 1
 62
   179
420
  1709851
370
    18
100
AcDb2dPolyline
 66
     1
 10
0.0
 20
0.0
 30
0.0
  0
VERTEX
  5
468
330
467
100
AcDbEntity
  8
Ebene 1
 62
   179
420
  1709851
370
    18
100
AcDbVertex
100
AcDb2dVertex
 10
98.43550751662377
 20
-186.4533907954005
 30
0.0
  0
VERTEX
  5
469
330
467
100
AcDbEntity
  8
Ebene 1
 62
   179
420
  1709851
370
    18
100
AcDbVertex
100
AcDb2dVertex
 10
98.83772241452668
 20
-186.4533907954005
 30
0.0
  0
SEQEND
  5
46A
330
467
100
AcDbEntity
  8
Ebene 1
370
    18
  0
POLYLINE
  5
46B
330
311
100
AcDbEntity
  8
Ebene 1
 62
   179
420
  1709851
370
    18
100
AcDb2dPolyline
 66
     1
 10
0.0
 20
0.0
 30
0.0
  0
VERTEX
  5
46C
330
46B
100
AcDbEntity
  8
Ebene 1
 62
   179
420
  1709851
370
    18
100
AcDbVertex
100
AcDb2dVertex
 10
40.86227755054832
 20
-164.5460286046968
 30
0.0
  0
VERTEX
  5
46D
330
46B
100
AcDbEntity
  8
Ebene 1
 62
   179
420
  1709851
370
    18
100
AcDbVertex
100
AcDb2dVertex
 10
44.58763155352323
 20
-176.462613888176
 30
0.0
  0
SEQEND
  5
46E
330
46B
100
AcDbEntity
  8
Ebene 1
370
    18
  0
POLYLINE
  5
46F
330
311
100
AcDbEntity
  8
Ebene 1
 62
   179
420
  1709851
370
    18
100
AcDb2dPolyline
 66
     1
 10
0.0
 20
0.0
 30
0.0
  0
VERTEX
  5
470
330
46F
100
AcDbEntity
  8
Ebene 1
 62
   179
420
  1709851
370
    18
100
AcDbVertex
100
AcDb2dVertex
 10
45.15900063975192
 20
-178.283002342582
 30
0.0
  0
VERTEX
  5
471
330
46F
100
AcDbEntity
  8
Ebene 1
 62
   179
420
  1709851
370
    18
100
AcDbVertex
100
AcDb2dVertex
 10
45.34951442008624
 20
-178.9396375420706
 30
0.0
  0
SEQEND
  5
472
330
46F
100
AcDbEntity
  8
Ebene 1
370
    18
  0
POLYLINE
  5
473
330
311
100
AcDbEntity
  8
Ebene 1
 62
   179
420
  1709851
370
    18
100
AcDb2dPolyline
 66
     1
 10
0.0
 20
0.0
 30
0.0
  0
VERTEX
  5
474
330
473
100
AcDbEntity
  8
Ebene 1
 62
   179
420
  1709851
370
    18
100
AcDbVertex
100
AcDb2dVertex
 10
35.35890976763597
 20
-178.9396375420706
 30
0.0
  0
VERTEX
  5
475
330
473
100
AcDbEntity
  8
Ebene 1
 62
   179
420
  1709851
370
    18
100
AcDbVertex
100
AcDb2dVertex
 10
39.84631889194814
 20
-164.5460286046968
 30
0.0
  0
SEQEND
  5
476
330
473
100
AcDbEntity
  8
Ebene 1
370
    18
  0
POLYLINE
  5
477
330
311
100
AcDbEntity
  8
Ebene 1
 62
   179
420
  1709851
370
    18
100
AcDb2dPolyline
 66
     1
 10
0.0
 20
0.0
 30
0.0
  0
VERTEX
  5
478
330
477
100
AcDbEntity
  8
Ebene 1
 62
   179
420
  1709851
370
    18
100
AcDbVertex
100
AcDb2dVertex
 10
45.34951442008624
 20
-178.9396375420706
 30
0.0
  0
VERTEX
  5
479
330
477
100
AcDbEntity
  8
Ebene 1
 62
   179
420
  1709851
370
    18
100
AcDbVertex
100
AcDb2dVertex
 10
50.3449028736985
 20
-162.9371690130852
 30
0.0
  0
VERTEX
  5
47A
330
477
100
AcDbEntity
  8
Ebene 1
 62
   179
420
  1709851
370
    18
100
AcDbVertex
100
AcDb2dVertex
 10
55.36147866454505
 20
-178.9396375420706
 30
0.0
  0
SEQEND
  5
47B
330
477
100
AcDbEntity
  8
Ebene 1
370
    18
  0
POLYLINE
  5
47C
330
311
100
AcDbEntity
  8
Ebene 1
 62
   179
420
  1709851
370
    18
100
AcDb2dPolyline
 66
     1
 10
0.0
 20
0.0
 30
0.0
  0
VERTEX
  5
47D
330
47C
100
AcDbEntity
  8
Ebene 1
 62
   179
420
  1709851
370
    18
100
AcDbVertex
100
AcDb2dVertex
 10
20.35172932433915
 20
-178.9396375420706
 30
0.0
  0
VERTEX
  5
47E
330
47C
100
AcDbEntity
  8
Ebene 1
 62
   179
420
  1709851
370
    18
100
AcDbVertex
100
AcDb2dVertex
 10
44.24897866732317
 20
-178.9396375420706
 30
0.0
  0
SEQEND
  5
47F
330
47C
100
AcDbEntity
  8
Ebene 1
370
    18
  0
POLYLINE
  5
480
330
311
100
AcDbEntity
  8
Ebene 1
 62
   179
420
  1709851
370
    18
100
AcDb2dPolyline
 66
     1
 10
0.0
 20
0.0
 30
0.0
  0
VERTEX
  5
481
330
480
100
AcDbEntity
  8
Ebene 1
 62
   179
420
  1709851
370
    18
100
AcDbVertex
100
AcDb2dVertex
 10
49.54064533266693
 20
-188.0408907950037
 30
0.0
  0
VERTEX
  5
482
330
480
100
AcDbEntity
  8
Ebene 1
 62
   179
420
  1709851
370
    18
100
AcDbVertex
100
AcDb2dVertex
 10
49.54064533266693
 20
-187.342225430595
 30
0.0
  0
SEQEND
  5
483
330
480
100
AcDbEntity
  8
Ebene 1
370
    18
  0
POLYLINE
  5
484
330
311
100
AcDbEntity
  8
Ebene 1
 62
   179
420
  1709851
370
    18
100
AcDb2dPolyline
 66
     1
 10
0.0
 20
0.0
 30
0.0
  0
VERTEX
  5
485
330
484
100
AcDbEntity
  8
Ebene 1
 62
   179
420
  1709851
370
    18
100
AcDbVertex
100
AcDb2dVertex
 10
47.33922931759228
 20
-188.0408907950037
 30
0.0
  0
VERTEX
  5
486
330
484
100
AcDbEntity
  8
Ebene 1
 62
   179
420
  1709851
370
    18
100
AcDbVertex
100
AcDb2dVertex
 10
47.33922931759228
 20
-187.342225430595
 30
0.0
  0
SEQEND
  5
487
330
484
100
AcDbEntity
  8
Ebene 1
370
    18
  0
POLYLINE
  5
488
330
311
100
AcDbEntity
  8
Ebene 1
 62
   179
420
  1709851
370
    18
100
AcDb2dPolyline
 66
     1
 10
0.0
 20
0.0
 30
0.0
  0
VERTEX
  5
489
330
488
100
AcDbEntity
  8
Ebene 1
 62
   179
420
  1709851
370
    18
100
AcDbVertex
100
AcDb2dVertex
 10
41.53958332294844
 20
-188.0408907950037
 30
0.0
  0
VERTEX
  5
48A
330
488
100
AcDbEntity
  8
Ebene 1
 62
   179
420
  1709851
370
    18
100
AcDbVertex
100
AcDb2dVertex
 10
41.53958332294844
 20
-187.342225430595
 30
0.0
  0
SEQEND
  5
48B
330
488
100
AcDbEntity
  8
Ebene 1
370
    18
  0
POLYLINE
  5
48C
330
311
100
AcDbEntity
  8
Ebene 1
 62
   179
420
  1709851
370
    18
100
AcDb2dPolyline
 66
     1
 10
0.0
 20
0.0
 30
0.0
  0
VERTEX
  5
48D
330
48C
100
AcDbEntity
  8
Ebene 1
 62
   179
420
  1709851
370
    18
100
AcDbVertex
100
AcDb2dVertex
 10
39.35935464510808
 20
-188.0408907950037
 30
0.0
  0
VERTEX
  5
48E
330
48C
100
AcDbEntity
  8
Ebene 1
 62
   179
420
  1709851
370
    18
100
AcDbVertex
100
AcDb2dVertex
 10
39.35935464510808
 20
-188.0408907950037
 30
0.0
  0
VERTEX
  5
48F
330
48C
100
AcDbEntity
  8
Ebene 1
 62
   179
420
  1709851
370
    18
100
AcDbVertex
100
AcDb2dVertex
 10
39.35935464510808
 20
-187.342225430595
 30
0.0
  0
SEQEND
  5
490
330
48C
100
AcDbEntity
  8
Ebene 1
370
    18
  0
POLYLINE
  5
491
330
311
100
AcDbEntity
  8
Ebene 1
 62
   179
420
  1709851
370
    18
100
AcDb2dPolyline
 66
     1
 10
0.0
 20
0.0
 30
0.0
  0
VERTEX
  5
492
330
491
100
AcDbEntity
  8
Ebene 1
 62
   179
420
  1709851
370
    18
100
AcDbVertex
100
AcDb2dVertex
 10
49.54064533266693
 20
-187.342225430595
 30
0.0
  0
VERTEX
  5
493
330
491
100
AcDbEntity
  8
Ebene 1
 62
   179
420
  1709851
370
    18
100
AcDbVertex
100
AcDb2dVertex
 10
49.54064533266693
 20
-187.1306965678007
 30
0.0
  0
SEQEND
  5
494
330
491
100
AcDbEntity
  8
Ebene 1
370
    18
  0
POLYLINE
  5
495
330
311
100
AcDbEntity
  8
Ebene 1
 62
   179
420
  1709851
370
    18
100
AcDb2dPolyline
 66
     1
 10
0.0
 20
0.0
 30
0.0
  0
VERTEX
  5
496
330
495
100
AcDbEntity
  8
Ebene 1
 62
   179
420
  1709851
370
    18
100
AcDbVertex
100
AcDb2dVertex
 10
47.33922931759228
 20
-187.1306965678007
 30
0.0
  0
VERTEX
  5
497
330
495
100
AcDbEntity
  8
Ebene 1
 62
   179
420
  1709851
370
    18
100
AcDbVertex
100
AcDb2dVertex
 10
47.33922931759228
 20
-187.342225430595
 30
0.0
  0
SEQEND
  5
498
330
495
100
AcDbEntity
  8
Ebene 1
370
    18
  0
POLYLINE
  5
499
330
311
100
AcDbEntity
  8
Ebene 1
 62
   179
420
  1709851
370
    18
100
AcDb2dPolyline
 66
     1
 10
0.0
 20
0.0
 30
0.0
  0
VERTEX
  5
49A
330
499
100
AcDbEntity
  8
Ebene 1
 62
   179
420
  1709851
370
    18
100
AcDbVertex
100
AcDb2dVertex
 10
41.53958332294844
 20
-187.342225430595
 30
0.0
  0
VERTEX
  5
49B
330
499
100
AcDbEntity
  8
Ebene 1
 62
   179
420
  1709851
370
    18
100
AcDbVertex
100
AcDb2dVertex
 10
41.53958332294844
 20
-187.1306965678007
 30
0.0
  0
SEQEND
  5
49C
330
499
100
AcDbEntity
  8
Ebene 1
370
    18
  0
POLYLINE
  5
49D
330
311
100
AcDbEntity
  8
Ebene 1
 62
   179
420
  1709851
370
    18
100
AcDb2dPolyline
 66
     1
 10
0.0
 20
0.0
 30
0.0
  0
VERTEX
  5
49E
330
49D
100
AcDbEntity
  8
Ebene 1
 62
   179
420
  1709851
370
    18
100
AcDbVertex
100
AcDb2dVertex
 10
39.35935464510808
 20
-187.1306965678007
 30
0.0
  0
VERTEX
  5
49F
330
49D
100
AcDbEntity
  8
Ebene 1
 62
   179
420
  1709851
370
    18
100
AcDbVertex
100
AcDb2dVertex
 10
39.35935464510808
 20
-187.342225430595
 30
0.0
  0
SEQEND
  5
4A0
330
49D
100
AcDbEntity
  8
Ebene 1
370
    18
  0
POLYLINE
  5
4A1
330
311
100
AcDbEntity
  8
Ebene 1
 62
   179
420
  1709851
370
    18
100
AcDb2dPolyline
 66
     1
 10
0.0
 20
0.0
 30
0.0
  0
VERTEX
  5
4A2
330
4A1
100
AcDbEntity
  8
Ebene 1
 62
   179
420
  1709851
370
    18
100
AcDbVertex
100
AcDb2dVertex
 10
49.45589598372977
 20
-188.6334472184666
 30
0.0
  0
VERTEX
  5
4A3
330
4A1
100
AcDbEntity
  8
Ebene 1
 62
   179
420
  1709851
370
    18
100
AcDbVertex
100
AcDb2dVertex
 10
49.45589598372977
 20
-187.342225430595
 30
0.0
  0
SEQEND
  5
4A4
330
4A1
100
AcDbEntity
  8
Ebene 1
370
    18
  0
POLYLINE
  5
4A5
330
311
100
AcDbEntity
  8
Ebene 1
 62
   179
420
  1709851
370
    18
100
AcDb2dPolyline
 66
     1
 10
0.0
 20
0.0
 30
0.0
  0
VERTEX
  5
4A6
330
4A5
100
AcDbEntity
  8
Ebene 1
 62
   179
420
  1709851
370
    18
100
AcDbVertex
100
AcDb2dVertex
 10
47.44516600376371
 20
-188.6334472184666
 30
0.0
  0
VERTEX
  5
4A7
330
4A5
100
AcDbEntity
  8
Ebene 1
 62
   179
420
  1709851
370
    18
100
AcDbVertex
100
AcDb2dVertex
 10
47.44516600376371
 20
-187.342225430595
 30
0.0
  0
SEQEND
  5
4A8
330
4A5
100
AcDbEntity
  8
Ebene 1
370
    18
  0
POLYLINE
  5
4A9
330
311
100
AcDbEntity
  8
Ebene 1
 62
   179
420
  1709851
370
    18
100
AcDb2dPolyline
 66
     1
 10
0.0
 20
0.0
 30
0.0
  0
VERTEX
  5
4AA
330
4A9
100
AcDbEntity
  8
Ebene 1
 62
   179
420
  1709851
370
    18
100
AcDbVertex
100
AcDb2dVertex
 10
41.45483397401129
 20
-188.6334472184666
 30
0.0
  0
VERTEX
  5
4AB
330
4A9
100
AcDbEntity
  8
Ebene 1
 62
   179
420
  1709851
370
    18
100
AcDbVertex
100
AcDb2dVertex
 10
41.45483397401129
 20
-187.342225430595
 30
0.0
  0
SEQEND
  5
4AC
330
4A9
100
AcDbEntity
  8
Ebene 1
370
    18
  0
POLYLINE
  5
4AD
330
311
100
AcDbEntity
  8
Ebene 1
 62
   179
420
  1709851
370
    18
100
AcDb2dPolyline
 66
     1
 10
0.0
 20
0.0
 30
0.0
  0
VERTEX
  5
4AE
330
4AD
100
AcDbEntity
  8
Ebene 1
 62
   179
420
  1709851
370
    18
100
AcDbVertex
100
AcDb2dVertex
 10
39.44410399404523
 20
-188.6334472184666
 30
0.0
  0
VERTEX
  5
4AF
330
4AD
100
AcDbEntity
  8
Ebene 1
 62
   179
420
  1709851
370
    18
100
AcDbVertex
100
AcDb2dVertex
 10
39.44410399404523
 20
-187.342225430595
 30
0.0
  0
SEQEND
  5
4B0
330
4AD
100
AcDbEntity
  8
Ebene 1
370
    18
  0
POLYLINE
  5
4B1
330
311
100
AcDbEntity
  8
Ebene 1
 62
   179
420
  1709851
370
    18
100
AcDb2dPolyline
 66
     1
 10
0.0
 20
0.0
 30
0.0
  0
VERTEX
  5
4B2
330
4B1
100
AcDbEntity
  8
Ebene 1
 62
   179
420
  1709851
370
    18
100
AcDbVertex
100
AcDb2dVertex
 10
49.45589598372977
 20
-189.2266926610267
 30
0.0
  0
VERTEX
  5
4B3
330
4B1
100
AcDbEntity
  8
Ebene 1
 62
   179
420
  1709851
370
    18
100
AcDbVertex
100
AcDb2dVertex
 10
49.45589598372977
 20
-188.9297254301981
 30
0.0
  0
SEQEND
  5
4B4
330
4B1
100
AcDbEntity
  8
Ebene 1
370
    18
  0
POLYLINE
  5
4B5
330
311
100
AcDbEntity
  8
Ebene 1
 62
   179
420
  1709851
370
    18
100
AcDb2dPolyline
 66
     1
 10
0.0
 20
0.0
 30
0.0
  0
VERTEX
  5
4B6
330
4B5
100
AcDbEntity
  8
Ebene 1
 62
   179
420
  1709851
370
    18
100
AcDbVertex
100
AcDb2dVertex
 10
49.45589598372977
 20
-187.342225430595
 30
0.0
  0
VERTEX
  5
4B7
330
4B5
100
AcDbEntity
  8
Ebene 1
 62
   179
420
  1709851
370
    18
100
AcDbVertex
100
AcDb2dVertex
 10
49.45589598372977
 20
-187.2368055087464
 30
0.0
  0
SEQEND
  5
4B8
330
4B5
100
AcDbEntity
  8
Ebene 1
370
    18
  0
POLYLINE
  5
4B9
330
311
100
AcDbEntity
  8
Ebene 1
 62
   179
420
  1709851
370
    18
100
AcDb2dPolyline
 66
     1
 10
0.0
 20
0.0
 30
0.0
  0
VERTEX
  5
4BA
330
4B9
100
AcDbEntity
  8
Ebene 1
 62
   179
420
  1709851
370
    18
100
AcDbVertex
100
AcDb2dVertex
 10
47.44516600376371
 20
-187.2368055087464
 30
0.0
  0
VERTEX
  5
4BB
330
4B9
100
AcDbEntity
  8
Ebene 1
 62
   179
420
  1709851
370
    18
100
AcDbVertex
100
AcDb2dVertex
 10
47.44516600376371
 20
-187.342225430595
 30
0.0
  0
SEQEND
  5
4BC
330
4B9
100
AcDbEntity
  8
Ebene 1
370
    18
  0
POLYLINE
  5
4BD
330
311
100
AcDbEntity
  8
Ebene 1
 62
   179
420
  1709851
370
    18
100
AcDb2dPolyline
 66
     1
 10
0.0
 20
0.0
 30
0.0
  0
VERTEX
  5
4BE
330
4BD
100
AcDbEntity
  8
Ebene 1
 62
   179
420
  1709851
370
    18
100
AcDbVertex
100
AcDb2dVertex
 10
47.44516600376371
 20
-188.9297254301981
 30
0.0
  0
VERTEX
  5
4BF
330
4BD
100
AcDbEntity
  8
Ebene 1
 62
   179
420
  1709851
370
    18
100
AcDbVertex
100
AcDb2dVertex
 10
47.44516600376371
 20
-189.2266926610267
 30
0.0
  0
SEQEND
  5
4C0
330
4BD
100
AcDbEntity
  8
Ebene 1
370
    18
  0
POLYLINE
  5
4C1
330
311
100
AcDbEntity
  8
Ebene 1
 62
   179
420
  1709851
370
    18
100
AcDb2dPolyline
 66
     1
 10
0.0
 20
0.0
 30
0.0
  0
VERTEX
  5
4C2
330
4C1
100
AcDbEntity
  8
Ebene 1
 62
   179
420
  1709851
370
    18
100
AcDbVertex
100
AcDb2dVertex
 10
41.45483397401129
 20
-189.2266926610267
 30
0.0
  0
VERTEX
  5
4C3
330
4C1
100
AcDbEntity
  8
Ebene 1
 62
   179
420
  1709851
370
    18
100
AcDbVertex
100
AcDb2dVertex
 10
41.45483397401129
 20
-188.9297254301981
 30
0.0
  0
SEQEND
  5
4C4
330
4C1
100
AcDbEntity
  8
Ebene 1
370
    18
  0
POLYLINE
  5
4C5
330
311
100
AcDbEntity
  8
Ebene 1
 62
   179
420
  1709851
370
    18
100
AcDb2dPolyline
 66
     1
 10
0.0
 20
0.0
 30
0.0
  0
VERTEX
  5
4C6
330
4C5
100
AcDbEntity
  8
Ebene 1
 62
   179
420
  1709851
370
    18
100
AcDbVertex
100
AcDb2dVertex
 10
41.45483397401129
 20
-187.342225430595
 30
0.0
  0
VERTEX
  5
4C7
330
4C5
100
AcDbEntity
  8
Ebene 1
 62
   179
420
  1709851
370
    18
100
AcDbVertex
100
AcDb2dVertex
 10
41.45483397401129
 20
-187.2368055087464
 30
0.0
  0
SEQEND
  5
4C8
330
4C5
100
AcDbEntity
  8
Ebene 1
370
    18
  0
POLYLINE
  5
4C9
330
311
100
AcDbEntity
  8
Ebene 1
 62
   179
420
  1709851
370
    18
100
AcDb2dPolyline
 66
     1
 10
0.0
 20
0.0
 30
0.0
  0
VERTEX
  5
4CA
330
4C9
100
AcDbEntity
  8
Ebene 1
 62
   179
420
  1709851
370
    18
100
AcDbVertex
100
AcDb2dVertex
 10
39.44410399404523
 20
-187.2368055087464
 30
0.0
  0
VERTEX
  5
4CB
330
4C9
100
AcDbEntity
  8
Ebene 1
 62
   179
420
  1709851
370
    18
100
AcDbVertex
100
AcDb2dVertex
 10
39.44410399404523
 20
-187.342225430595
 30
0.0
  0
SEQEND
  5
4CC
330
4C9
100
AcDbEntity
  8
Ebene 1
370
    18
  0
POLYLINE
  5
4CD
330
311
100
AcDbEntity
  8
Ebene 1
 62
   179
420
  1709851
370
    18
100
AcDb2dPolyline
 66
     1
 10
0.0
 20
0.0
 30
0.0
  0
VERTEX
  5
4CE
330
4CD
100
AcDbEntity
  8
Ebene 1
 62
   179
420
  1709851
370
    18
100
AcDbVertex
100
AcDb2dVertex
 10
39.44410399404523
 20
-188.9297254301981
 30
0.0
  0
VERTEX
  5
4CF
330
4CD
100
AcDbEntity
  8
Ebene 1
 62
   179
420
  1709851
370
    18
100
AcDbVertex
100
AcDb2dVertex
 10
39.44410399404523
 20
-189.2266926610267
 30
0.0
  0
SEQEND
  5
4D0
330
4CD
100
AcDbEntity
  8
Ebene 1
370
    18
  0
POLYLINE
  5
4D1
330
311
100
AcDbEntity
  8
Ebene 1
 62
   179
420
  1709851
370
    18
100
AcDb2dPolyline
 66
     1
 10
0.0
 20
0.0
 30
0.0
  0
VERTEX
  5
4D2
330
4D1
100
AcDbEntity
  8
Ebene 1
 62
   179
420
  1709851
370
    18
100
AcDbVertex
100
AcDb2dVertex
 10
49.58284775236123
 20
-186.9825574619349
 30
0.0
  0
VERTEX
  5
4D3
330
4D1
100
AcDbEntity
  8
Ebene 1
 62
   179
420
  1709851
370
    18
100
AcDbVertex
100
AcDb2dVertex
 10
49.60403508959552
 20
-186.9405272970149
 30
0.0
  0
SEQEND
  5
4D4
330
4D1
100
AcDbEntity
  8
Ebene 1
370
    18
  0
POLYLINE
  5
4D5
330
311
100
AcDbEntity
  8
Ebene 1
 62
   179
420
  1709851
370
    18
100
AcDb2dPolyline
 66
     1
 10
0.0
 20
0.0
 30
0.0
  0
VERTEX
  5
4D6
330
4D5
100
AcDbEntity
  8
Ebene 1
 62
   179
420
  1709851
370
    18
100
AcDbVertex
100
AcDb2dVertex
 10
47.69906954102662
 20
-187.342225430595
 30
0.0
  0
VERTEX
  5
4D7
330
4D5
100
AcDbEntity
  8
Ebene 1
 62
   179
420
  1709851
370
    18
100
AcDbVertex
100
AcDb2dVertex
 10
49.20199244646687
 20
-187.342225430595
 30
0.0
  0
SEQEND
  5
4D8
330
4D5
100
AcDbEntity
  8
Ebene 1
370
    18
  0
POLYLINE
  5
4D9
330
311
100
AcDbEntity
  8
Ebene 1
 62
   179
420
  1709851
370
    18
100
AcDb2dPolyline
 66
     1
 10
0.0
 20
0.0
 30
0.0
  0
VERTEX
  5
4DA
330
4D9
100
AcDbEntity
  8
Ebene 1
 62
   179
420
  1709851
370
    18
100
AcDbVertex
100
AcDb2dVertex
 10
49.20199244646687
 20
-187.342225430595
 30
0.0
  0
VERTEX
  5
4DB
330
4D9
100
AcDbEntity
  8
Ebene 1
 62
   179
420
  1709851
370
    18
100
AcDbVertex
100
AcDb2dVertex
 10
49.37131888956689
 20
-187.300195265675
 30
0.0
  0
VERTEX
  5
4DC
330
4D9
100
AcDbEntity
  8
Ebene 1
 62
   179
420
  1709851
370
    18
100
AcDbVertex
100
AcDb2dVertex
 10
49.51945799543264
 20
-187.1734157518178
 30
0.0
  0
VERTEX
  5
4DD
330
4D9
100
AcDbEntity
  8
Ebene 1
 62
   179
420
  1709851
370
    18
100
AcDbVertex
100
AcDb2dVertex
 10
49.58284775236123
 20
-187.0039170539435
 30
0.0
  0
VERTEX
  5
4DE
330
4D9
100
AcDbEntity
  8
Ebene 1
 62
   179
420
  1709851
370
    18
100
AcDbVertex
100
AcDb2dVertex
 10
49.58284775236123
 20
-186.9825574619349
 30
0.0
  0
SEQEND
  5
4DF
330
4D9
100
AcDbEntity
  8
Ebene 1
370
    18
  0
POLYLINE
  5
4E0
330
311
100
AcDbEntity
  8
Ebene 1
 62
   179
420
  1709851
370
    18
100
AcDb2dPolyline
 66
     1
 10
0.0
 20
0.0
 30
0.0
  0
VERTEX
  5
4E1
330
4E0
100
AcDbEntity
  8
Ebene 1
 62
   179
420
  1709851
370
    18
100
AcDbVertex
100
AcDb2dVertex
 10
47.29685464312371
 20
-186.9405272970149
 30
0.0
  0
VERTEX
  5
4E2
330
4E0
100
AcDbEntity
  8
Ebene 1
 62
   179
420
  1709851
370
    18
100
AcDbVertex
100
AcDb2dVertex
 10
47.29685464312371
 20
-186.9825574619349
 30
0.0
  0
SEQEND
  5
4E3
330
4E0
100
AcDbEntity
  8
Ebene 1
370
    18
  0
POLYLINE
  5
4E4
330
311
100
AcDbEntity
  8
Ebene 1
 62
   179
420
  1709851
370
    18
100
AcDb2dPolyline
 66
     1
 10
0.0
 20
0.0
 30
0.0
  0
VERTEX
  5
4E5
330
4E4
100
AcDbEntity
  8
Ebene 1
 62
   179
420
  1709851
370
    18
100
AcDbVertex
100
AcDb2dVertex
 10
47.29685464312371
 20
-186.9825574619349
 30
0.0
  0
VERTEX
  5
4E6
330
4E4
100
AcDbEntity
  8
Ebene 1
 62
   179
420
  1709851
370
    18
100
AcDbVertex
100
AcDb2dVertex
 10
47.36041665482657
 20
-187.1520561598092
 30
0.0
  0
VERTEX
  5
4E7
330
4E4
100
AcDbEntity
  8
Ebene 1
 62
   179
420
  1709851
370
    18
100
AcDbVertex
100
AcDb2dVertex
 10
47.50855576069231
 20
-187.2788356736664
 30
0.0
  0
VERTEX
  5
4E8
330
4E4
100
AcDbEntity
  8
Ebene 1
 62
   179
420
  1709851
370
    18
100
AcDbVertex
100
AcDb2dVertex
 10
47.67788220379234
 20
-187.342225430595
 30
0.0
  0
VERTEX
  5
4E9
330
4E4
100
AcDbEntity
  8
Ebene 1
 62
   179
420
  1709851
370
    18
100
AcDbVertex
100
AcDb2dVertex
 10
47.69906954102662
 20
-187.342225430595
 30
0.0
  0
SEQEND
  5
4EA
330
4E4
100
AcDbEntity
  8
Ebene 1
370
    18
  0
POLYLINE
  5
4EB
330
311
100
AcDbEntity
  8
Ebene 1
 62
   179
420
  1709851
370
    18
100
AcDb2dPolyline
 66
     1
 10
0.0
 20
0.0
 30
0.0
  0
VERTEX
  5
4EC
330
4EB
100
AcDbEntity
  8
Ebene 1
 62
   179
420
  1709851
370
    18
100
AcDbVertex
100
AcDb2dVertex
 10
41.6031453346513
 20
-186.9825574619349
 30
0.0
  0
VERTEX
  5
4ED
330
4EB
100
AcDbEntity
  8
Ebene 1
 62
   179
420
  1709851
370
    18
100
AcDbVertex
100
AcDb2dVertex
 10
41.6031453346513
 20
-186.9405272970149
 30
0.0
  0
SEQEND
  5
4EE
330
4EB
100
AcDbEntity
  8
Ebene 1
370
    18
  0
POLYLINE
  5
4EF
330
311
100
AcDbEntity
  8
Ebene 1
 62
   179
420
  1709851
370
    18
100
AcDb2dPolyline
 66
     1
 10
0.0
 20
0.0
 30
0.0
  0
VERTEX
  5
4F0
330
4EF
100
AcDbEntity
  8
Ebene 1
 62
   179
420
  1709851
370
    18
100
AcDbVertex
100
AcDb2dVertex
 10
39.69800753130814
 20
-187.342225430595
 30
0.0
  0
VERTEX
  5
4F1
330
4EF
100
AcDbEntity
  8
Ebene 1
 62
   179
420
  1709851
370
    18
100
AcDbVertex
100
AcDb2dVertex
 10
41.20093043674838
 20
-187.342225430595
 30
0.0
  0
SEQEND
  5
4F2
330
4EF
100
AcDbEntity
  8
Ebene 1
370
    18
  0
POLYLINE
  5
4F3
330
311
100
AcDbEntity
  8
Ebene 1
 62
   179
420
  1709851
370
    18
100
AcDb2dPolyline
 66
     1
 10
0.0
 20
0.0
 30
0.0
  0
VERTEX
  5
4F4
330
4F3
100
AcDbEntity
  8
Ebene 1
 62
   179
420
  1709851
370
    18
100
AcDbVertex
100
AcDb2dVertex
 10
41.20093043674838
 20
-187.342225430595
 30
0.0
  0
VERTEX
  5
4F5
330
4F3
100
AcDbEntity
  8
Ebene 1
 62
   179
420
  1709851
370
    18
100
AcDbVertex
100
AcDb2dVertex
 10
41.37025687984841
 20
-187.300195265675
 30
0.0
  0
VERTEX
  5
4F6
330
4F3
100
AcDbEntity
  8
Ebene 1
 62
   179
420
  1709851
370
    18
100
AcDbVertex
100
AcDb2dVertex
 10
41.51839598571415
 20
-187.1734157518178
 30
0.0
  0
VERTEX
  5
4F7
330
4F3
100
AcDbEntity
  8
Ebene 1
 62
   179
420
  1709851
370
    18
100
AcDbVertex
100
AcDb2dVertex
 10
41.58195799741701
 20
-187.0039170539435
 30
0.0
  0
VERTEX
  5
4F8
330
4F3
100
AcDbEntity
  8
Ebene 1
 62
   179
420
  1709851
370
    18
100
AcDbVertex
100
AcDb2dVertex
 10
41.6031453346513
 20
-186.9825574619349
 30
0.0
  0
SEQEND
  5
4F9
330
4F3
100
AcDbEntity
  8
Ebene 1
370
    18
  0
POLYLINE
  5
4FA
330
311
100
AcDbEntity
  8
Ebene 1
 62
   179
420
  1709851
370
    18
100
AcDb2dPolyline
 66
     1
 10
0.0
 20
0.0
 30
0.0
  0
VERTEX
  5
4FB
330
4FA
100
AcDbEntity
  8
Ebene 1
 62
   179
420
  1709851
370
    18
100
AcDbVertex
100
AcDb2dVertex
 10
39.29596488817948
 20
-186.9405272970149
 30
0.0
  0
VERTEX
  5
4FC
330
4FA
100
AcDbEntity
  8
Ebene 1
 62
   179
420
  1709851
370
    18
100
AcDbVertex
100
AcDb2dVertex
 10
39.29596488817948
 20
-186.9825574619349
 30
0.0
  0
SEQEND
  5
4FD
330
4FA
100
AcDbEntity
  8
Ebene 1
370
    18
  0
POLYLINE
  5
4FE
330
311
100
AcDbEntity
  8
Ebene 1
 62
   179
420
  1709851
370
    18
100
AcDb2dPolyline
 66
     1
 10
0.0
 20
0.0
 30
0.0
  0
VERTEX
  5
4FF
330
4FE
100
AcDbEntity
  8
Ebene 1
 62
   179
420
  1709851
370
    18
100
AcDbVertex
100
AcDb2dVertex
 10
39.29596488817948
 20
-186.9825574619349
 30
0.0
  0
VERTEX
  5
500
330
4FE
100
AcDbEntity
  8
Ebene 1
 62
   179
420
  1709851
370
    18
100
AcDbVertex
100
AcDb2dVertex
 10
39.35935464510808
 20
-187.1520561598092
 30
0.0
  0
VERTEX
  5
501
330
4FE
100
AcDbEntity
  8
Ebene 1
 62
   179
420
  1709851
370
    18
100
AcDbVertex
100
AcDb2dVertex
 10
39.50766600574809
 20
-187.2788356736664
 30
0.0
  0
VERTEX
  5
502
330
4FE
100
AcDbEntity
  8
Ebene 1
 62
   179
420
  1709851
370
    18
100
AcDbVertex
100
AcDb2dVertex
 10
39.67699244884812
 20
-187.342225430595
 30
0.0
  0
VERTEX
  5
503
330
4FE
100
AcDbEntity
  8
Ebene 1
 62
   179
420
  1709851
370
    18
100
AcDbVertex
100
AcDb2dVertex
 10
39.69800753130814
 20
-187.342225430595
 30
0.0
  0
SEQEND
  5
504
330
4FE
100
AcDbEntity
  8
Ebene 1
370
    18
  0
POLYLINE
  5
505
330
311
100
AcDbEntity
  8
Ebene 1
 62
   179
420
  1709851
370
    18
100
AcDb2dPolyline
 66
     1
 10
0.0
 20
0.0
 30
0.0
  0
VERTEX
  5
506
330
505
100
AcDbEntity
  8
Ebene 1
 62
   179
420
  1709851
370
    18
100
AcDbVertex
100
AcDb2dVertex
 10
49.45589598372977
 20
-188.0408907950037
 30
0.0
  0
VERTEX
  5
507
330
505
100
AcDbEntity
  8
Ebene 1
 62
   179
420
  1709851
370
    18
100
AcDbVertex
100
AcDb2dVertex
 10
49.54064533266693
 20
-188.0408907950037
 30
0.0
  0
SEQEND
  5
508
330
505
100
AcDbEntity
  8
Ebene 1
370
    18
  0
POLYLINE
  5
509
330
311
100
AcDbEntity
  8
Ebene 1
 62
   179
420
  1709851
370
    18
100
AcDb2dPolyline
 66
     1
 10
0.0
 20
0.0
 30
0.0
  0
VERTEX
  5
50A
330
509
100
AcDbEntity
  8
Ebene 1
 62
   179
420
  1709851
370
    18
100
AcDbVertex
100
AcDb2dVertex
 10
47.33922931759228
 20
-188.0408907950037
 30
0.0
  0
VERTEX
  5
50B
330
509
100
AcDbEntity
  8
Ebene 1
 62
   179
420
  1709851
370
    18
100
AcDbVertex
100
AcDb2dVertex
 10
47.44516600376371
 20
-188.0408907950037
 30
0.0
  0
SEQEND
  5
50C
330
509
100
AcDbEntity
  8
Ebene 1
370
    18
  0
POLYLINE
  5
50D
330
311
100
AcDbEntity
  8
Ebene 1
 62
   179
420
  1709851
370
    18
100
AcDb2dPolyline
 66
     1
 10
0.0
 20
0.0
 30
0.0
  0
VERTEX
  5
50E
330
50D
100
AcDbEntity
  8
Ebene 1
 62
   179
420
  1709851
370
    18
100
AcDbVertex
100
AcDb2dVertex
 10
39.44410399404523
 20
-188.0408907950037
 30
0.0
  0
VERTEX
  5
50F
330
50D
100
AcDbEntity
  8
Ebene 1
 62
   179
420
  1709851
370
    18
100
AcDbVertex
100
AcDb2dVertex
 10
39.35935464510808
 20
-188.0408907950037
 30
0.0
  0
SEQEND
  5
510
330
50D
100
AcDbEntity
  8
Ebene 1
370
    18
  0
POLYLINE
  5
511
330
311
100
AcDbEntity
  8
Ebene 1
 62
   179
420
  1709851
370
    18
100
AcDb2dPolyline
 66
     1
 10
0.0
 20
0.0
 30
0.0
  0
VERTEX
  5
512
330
511
100
AcDbEntity
  8
Ebene 1
 62
   179
420
  1709851
370
    18
100
AcDbVertex
100
AcDb2dVertex
 10
41.53958332294844
 20
-188.0408907950037
 30
0.0
  0
VERTEX
  5
513
330
511
100
AcDbEntity
  8
Ebene 1
 62
   179
420
  1709851
370
    18
100
AcDbVertex
100
AcDb2dVertex
 10
41.45483397401129
 20
-188.0408907950037
 30
0.0
  0
SEQEND
  5
514
330
511
100
AcDbEntity
  8
Ebene 1
370
    18
  0
POLYLINE
  5
515
330
311
100
AcDbEntity
  8
Ebene 1
 62
   179
420
  1709851
370
    18
100
AcDb2dPolyline
 66
     1
 10
0.0
 20
0.0
 30
0.0
  0
VERTEX
  5
516
330
515
100
AcDbEntity
  8
Ebene 1
 62
   179
420
  1709851
370
    18
100
AcDbVertex
100
AcDb2dVertex
 10
39.25359021371091
 20
-186.7289984342205
 30
0.0
  0
VERTEX
  5
517
330
515
100
AcDbEntity
  8
Ebene 1
 62
   179
420
  1709851
370
    18
100
AcDbVertex
100
AcDb2dVertex
 10
49.6464097640641
 20
-186.7289984342205
 30
0.0
  0
SEQEND
  5
518
330
515
100
AcDbEntity
  8
Ebene 1
370
    18
  0
POLYLINE
  5
519
330
311
100
AcDbEntity
  8
Ebene 1
 62
   179
420
  1709851
370
    18
100
AcDb2dPolyline
 66
     1
 10
0.0
 20
0.0
 30
0.0
  0
VERTEX
  5
51A
330
519
100
AcDbEntity
  8
Ebene 1
 62
   179
420
  1709851
370
    18
100
AcDbVertex
100
AcDb2dVertex
 10
39.16884086477376
 20
-186.9405272970149
 30
0.0
  0
VERTEX
  5
51B
330
519
100
AcDbEntity
  8
Ebene 1
 62
   179
420
  1709851
370
    18
100
AcDbVertex
100
AcDb2dVertex
 10
49.73115911300124
 20
-186.9405272970149
 30
0.0
  0
SEQEND
  5
51C
330
519
100
AcDbEntity
  8
Ebene 1
370
    18
  0
POLYLINE
  5
51D
330
311
100
AcDbEntity
  8
Ebene 1
 62
   179
420
  1709851
370
    18
100
AcDb2dPolyline
 66
     1
 10
0.0
 20
0.0
 30
0.0
  0
VERTEX
  5
51E
330
51D
100
AcDbEntity
  8
Ebene 1
 62
   179
420
  1709851
370
    18
100
AcDbVertex
100
AcDb2dVertex
 10
39.44410399404523
 20
-186.4533907954005
 30
0.0
  0
VERTEX
  5
51F
330
51D
100
AcDbEntity
  8
Ebene 1
 62
   179
420
  1709851
370
    18
100
AcDbVertex
100
AcDb2dVertex
 10
39.44410399404523
 20
-186.7289984342205
 30
0.0
  0
SEQEND
  5
520
330
51D
100
AcDbEntity
  8
Ebene 1
370
    18
  0
POLYLINE
  5
521
330
311
100
AcDbEntity
  8
Ebene 1
 62
   179
420
  1709851
370
    18
100
AcDb2dPolyline
 66
     1
 10
0.0
 20
0.0
 30
0.0
  0
VERTEX
  5
522
330
521
100
AcDbEntity
  8
Ebene 1
 62
   179
420
  1709851
370
    18
100
AcDbVertex
100
AcDb2dVertex
 10
41.45483397401129
 20
-186.7289984342205
 30
0.0
  0
VERTEX
  5
523
330
521
100
AcDbEntity
  8
Ebene 1
 62
   179
420
  1709851
370
    18
100
AcDbVertex
100
AcDb2dVertex
 10
41.45483397401129
 20
-186.4533907954005
 30
0.0
  0
SEQEND
  5
524
330
521
100
AcDbEntity
  8
Ebene 1
370
    18
  0
POLYLINE
  5
525
330
311
100
AcDbEntity
  8
Ebene 1
 62
   179
420
  1709851
370
    18
100
AcDb2dPolyline
 66
     1
 10
0.0
 20
0.0
 30
0.0
  0
VERTEX
  5
526
330
525
100
AcDbEntity
  8
Ebene 1
 62
   179
420
  1709851
370
    18
100
AcDbVertex
100
AcDb2dVertex
 10
49.45589598372977
 20
-186.7289984342205
 30
0.0
  0
VERTEX
  5
527
330
525
100
AcDbEntity
  8
Ebene 1
 62
   179
420
  1709851
370
    18
100
AcDbVertex
100
AcDb2dVertex
 10
49.45589598372977
 20
-186.4533907954005
 30
0.0
  0
SEQEND
  5
528
330
525
100
AcDbEntity
  8
Ebene 1
370
    18
  0
POLYLINE
  5
529
330
311
100
AcDbEntity
  8
Ebene 1
 62
   179
420
  1709851
370
    18
100
AcDb2dPolyline
 66
     1
 10
0.0
 20
0.0
 30
0.0
  0
VERTEX
  5
52A
330
529
100
AcDbEntity
  8
Ebene 1
 62
   179
420
  1709851
370
    18
100
AcDbVertex
100
AcDb2dVertex
 10
47.44516600376371
 20
-186.4533907954005
 30
0.0
  0
VERTEX
  5
52B
330
529
100
AcDbEntity
  8
Ebene 1
 62
   179
420
  1709851
370
    18
100
AcDbVertex
100
AcDb2dVertex
 10
47.44516600376371
 20
-186.7289984342205
 30
0.0
  0
SEQEND
  5
52C
330
529
100
AcDbEntity
  8
Ebene 1
370
    18
  0
POLYLINE
  5
52D
330
311
100
AcDbEntity
  8
Ebene 1
 62
   179
420
  1709851
370
    18
100
AcDb2dPolyline
 66
     1
 10
0.0
 20
0.0
 30
0.0
  0
VERTEX
  5
52E
330
52D
100
AcDbEntity
  8
Ebene 1
 62
   179
420
  1709851
370
    18
100
AcDbVertex
100
AcDb2dVertex
 10
47.44516600376371
 20
-189.2266926610267
 30
0.0
  0
VERTEX
  5
52F
330
52D
100
AcDbEntity
  8
Ebene 1
 62
   179
420
  1709851
370
    18
100
AcDbVertex
100
AcDb2dVertex
 10
49.45589598372977
 20
-189.2266926610267
 30
0.0
  0
SEQEND
  5
530
330
52D
100
AcDbEntity
  8
Ebene 1
370
    18
  0
POLYLINE
  5
531
330
311
100
AcDbEntity
  8
Ebene 1
 62
   179
420
  1709851
370
    18
100
AcDb2dPolyline
 66
     1
 10
0.0
 20
0.0
 30
0.0
  0
VERTEX
  5
532
330
531
100
AcDbEntity
  8
Ebene 1
 62
   179
420
  1709851
370
    18
100
AcDbVertex
100
AcDb2dVertex
 10
39.44410399404523
 20
-189.2266926610267
 30
0.0
  0
VERTEX
  5
533
330
531
100
AcDbEntity
  8
Ebene 1
 62
   179
420
  1709851
370
    18
100
AcDbVertex
100
AcDb2dVertex
 10
41.45483397401129
 20
-189.2266926610267
 30
0.0
  0
SEQEND
  5
534
330
531
100
AcDbEntity
  8
Ebene 1
370
    18
  0
POLYLINE
  5
535
330
311
100
AcDbEntity
  8
Ebene 1
 62
   179
420
  1709851
370
    18
100
AcDb2dPolyline
 66
     1
 10
0.0
 20
0.0
 30
0.0
  0
VERTEX
  5
536
330
535
100
AcDbEntity
  8
Ebene 1
 62
   179
420
  1709851
370
    18
100
AcDbVertex
100
AcDb2dVertex
 10
41.45483397401129
 20
-186.4533907954005
 30
0.0
  0
VERTEX
  5
537
330
535
100
AcDbEntity
  8
Ebene 1
 62
   179
420
  1709851
370
    18
100
AcDbVertex
100
AcDb2dVertex
 10
39.44410399404523
 20
-186.4533907954005
 30
0.0
  0
SEQEND
  5
538
330
535
100
AcDbEntity
  8
Ebene 1
370
    18
  0
POLYLINE
  5
539
330
311
100
AcDbEntity
  8
Ebene 1
 62
   179
420
  1709851
370
    18
100
AcDb2dPolyline
 66
     1
 10
0.0
 20
0.0
 30
0.0
  0
VERTEX
  5
53A
330
539
100
AcDbEntity
  8
Ebene 1
 62
   179
420
  1709851
370
    18
100
AcDbVertex
100
AcDb2dVertex
 10
47.44516600376371
 20
-186.4533907954005
 30
0.0
  0
VERTEX
  5
53B
330
539
100
AcDbEntity
  8
Ebene 1
 62
   179
420
  1709851
370
    18
100
AcDbVertex
100
AcDb2dVertex
 10
49.45589598372977
 20
-186.4533907954005
 30
0.0
  0
SEQEND
  5
53C
330
539
100
AcDbEntity
  8
Ebene 1
370
    18
  0
POLYLINE
  5
53D
330
311
100
AcDbEntity
  8
Ebene 1
 62
   179
420
  1709851
370
    18
100
AcDb2dPolyline
 66
     1
 10
0.0
 20
0.0
 30
0.0
  0
VERTEX
  5
53E
330
53D
100
AcDbEntity
  8
Ebene 1
 62
   179
420
  1709851
370
    18
100
AcDbVertex
100
AcDb2dVertex
 10
50.1332017561299
 20
-186.6649196581949
 30
0.0
  0
VERTEX
  5
53F
330
53D
100
AcDbEntity
  8
Ebene 1
 62
   179
420
  1709851
370
    18
100
AcDbVertex
100
AcDb2dVertex
 10
50.00624998749844
 20
-186.707638842212
 30
0.0
  0
VERTEX
  5
540
330
53D
100
AcDbEntity
  8
Ebene 1
 62
   179
420
  1709851
370
    18
100
AcDbVertex
100
AcDb2dVertex
 10
49.98506265026415
 20
-186.707638842212
 30
0.0
  0
SEQEND
  5
541
330
53D
100
AcDbEntity
  8
Ebene 1
370
    18
  0
POLYLINE
  5
542
330
311
100
AcDbEntity
  8
Ebene 1
 62
   179
420
  1709851
370
    18
100
AcDb2dPolyline
 66
     1
 10
0.0
 20
0.0
 30
0.0
  0
VERTEX
  5
543
330
542
100
AcDbEntity
  8
Ebene 1
 62
   179
420
  1709851
370
    18
100
AcDbVertex
100
AcDb2dVertex
 10
47.00057643139222
 20
-186.5167805523292
 30
0.0
  0
VERTEX
  5
544
330
542
100
AcDbEntity
  8
Ebene 1
 62
   179
420
  1709851
370
    18
100
AcDbVertex
100
AcDb2dVertex
 10
46.87362466276076
 20
-186.4533907954005
 30
0.0
  0
VERTEX
  5
545
330
542
100
AcDbEntity
  8
Ebene 1
 62
   179
420
  1709851
370
    18
100
AcDbVertex
100
AcDb2dVertex
 10
46.85243732552647
 20
-186.4533907954005
 30
0.0
  0
SEQEND
  5
546
330
542
100
AcDbEntity
  8
Ebene 1
370
    18
  0
POLYLINE
  5
547
330
311
100
AcDbEntity
  8
Ebene 1
 62
   179
420
  1709851
370
    18
100
AcDb2dPolyline
 66
     1
 10
0.0
 20
0.0
 30
0.0
  0
VERTEX
  5
548
330
547
100
AcDbEntity
  8
Ebene 1
 62
   179
420
  1709851
370
    18
100
AcDbVertex
100
AcDb2dVertex
 10
50.04862466196701
 20
-186.4533907954005
 30
0.0
  0
VERTEX
  5
549
330
547
100
AcDbEntity
  8
Ebene 1
 62
   179
420
  1709851
370
    18
100
AcDbVertex
100
AcDb2dVertex
 10
49.92150063856129
 20
-186.4961099794176
 30
0.0
  0
VERTEX
  5
54A
330
547
100
AcDbEntity
  8
Ebene 1
 62
   179
420
  1709851
370
    18
100
AcDbVertex
100
AcDb2dVertex
 10
49.90048555610127
 20
-186.5167805523292
 30
0.0
  0
SEQEND
  5
54B
330
547
100
AcDbEntity
  8
Ebene 1
370
    18
  0
POLYLINE
  5
54C
330
311
100
AcDbEntity
  8
Ebene 1
 62
   179
420
  1709851
370
    18
100
AcDb2dPolyline
 66
     1
 10
0.0
 20
0.0
 30
0.0
  0
VERTEX
  5
54D
330
54C
100
AcDbEntity
  8
Ebene 1
 62
   179
420
  1709851
370
    18
100
AcDbVertex
100
AcDb2dVertex
 10
49.73115911300124
 20
-186.9405272970149
 30
0.0
  0
VERTEX
  5
54E
330
54C
100
AcDbEntity
  8
Ebene 1
 62
   179
420
  1709851
370
    18
100
AcDbVertex
100
AcDb2dVertex
 10
49.79454886992983
 20
-186.8978081129978
 30
0.0
  0
SEQEND
  5
54F
330
54C
100
AcDbEntity
  8
Ebene 1
370
    18
  0
POLYLINE
  5
550
330
311
100
AcDbEntity
  8
Ebene 1
 62
   179
420
  1709851
370
    18
100
AcDb2dPolyline
 66
     1
 10
0.0
 20
0.0
 30
0.0
  0
VERTEX
  5
551
330
550
100
AcDbEntity
  8
Ebene 1
 62
   179
420
  1709851
370
    18
100
AcDbVertex
100
AcDb2dVertex
 10
49.6464097640641
 20
-186.7289984342205
 30
0.0
  0
VERTEX
  5
552
330
550
100
AcDbEntity
  8
Ebene 1
 62
   179
420
  1709851
370
    18
100
AcDbVertex
100
AcDb2dVertex
 10
49.70997177576695
 20
-186.707638842212
 30
0.0
  0
SEQEND
  5
553
330
550
100
AcDbEntity
  8
Ebene 1
370
    18
  0
POLYLINE
  5
554
330
311
100
AcDbEntity
  8
Ebene 1
 62
   179
420
  1709851
370
    18
100
AcDb2dPolyline
 66
     1
 10
0.0
 20
0.0
 30
0.0
  0
VERTEX
  5
555
330
554
100
AcDbEntity
  8
Ebene 1
 62
   179
420
  1709851
370
    18
100
AcDbVertex
100
AcDb2dVertex
 10
47.19109021172653
 20
-186.707638842212
 30
0.0
  0
VERTEX
  5
556
330
554
100
AcDbEntity
  8
Ebene 1
 62
   179
420
  1709851
370
    18
100
AcDbVertex
100
AcDb2dVertex
 10
47.2546522234294
 20
-186.7289984342205
 30
0.0
  0
SEQEND
  5
557
330
554
100
AcDbEntity
  8
Ebene 1
370
    18
  0
POLYLINE
  5
558
330
311
100
AcDbEntity
  8
Ebene 1
 62
   179
420
  1709851
370
    18
100
AcDb2dPolyline
 66
     1
 10
0.0
 20
0.0
 30
0.0
  0
VERTEX
  5
559
330
558
100
AcDbEntity
  8
Ebene 1
 62
   179
420
  1709851
370
    18
100
AcDbVertex
100
AcDb2dVertex
 10
41.64534775434561
 20
-186.7289984342205
 30
0.0
  0
VERTEX
  5
55A
330
558
100
AcDbEntity
  8
Ebene 1
 62
   179
420
  1709851
370
    18
100
AcDbVertex
100
AcDb2dVertex
 10
41.70890976604847
 20
-186.707638842212
 30
0.0
  0
SEQEND
  5
55B
330
558
100
AcDbEntity
  8
Ebene 1
370
    18
  0
POLYLINE
  5
55C
330
311
100
AcDbEntity
  8
Ebene 1
 62
   179
420
  1709851
370
    18
100
AcDb2dPolyline
 66
     1
 10
0.0
 20
0.0
 30
0.0
  0
VERTEX
  5
55D
330
55C
100
AcDbEntity
  8
Ebene 1
 62
   179
420
  1709851
370
    18
100
AcDbVertex
100
AcDb2dVertex
 10
39.19002820200805
 20
-186.707638842212
 30
0.0
  0
VERTEX
  5
55E
330
55C
100
AcDbEntity
  8
Ebene 1
 62
   179
420
  1709851
370
    18
100
AcDbVertex
100
AcDb2dVertex
 10
39.25359021371091
 20
-186.7289984342205
 30
0.0
  0
SEQEND
  5
55F
330
55C
100
AcDbEntity
  8
Ebene 1
370
    18
  0
POLYLINE
  5
560
330
311
100
AcDbEntity
  8
Ebene 1
 62
   179
420
  1709851
370
    18
100
AcDb2dPolyline
 66
     1
 10
0.0
 20
0.0
 30
0.0
  0
VERTEX
  5
561
330
560
100
AcDbEntity
  8
Ebene 1
 62
   179
420
  1709851
370
    18
100
AcDbVertex
100
AcDb2dVertex
 10
39.10545110784517
 20
-186.8978081129978
 30
0.0
  0
VERTEX
  5
562
330
560
100
AcDbEntity
  8
Ebene 1
 62
   179
420
  1709851
370
    18
100
AcDbVertex
100
AcDb2dVertex
 10
39.16884086477376
 20
-186.9405272970149
 30
0.0
  0
SEQEND
  5
563
330
560
100
AcDbEntity
  8
Ebene 1
370
    18
  0
POLYLINE
  5
564
330
311
100
AcDbEntity
  8
Ebene 1
 62
   179
420
  1709851
370
    18
100
AcDb2dPolyline
 66
     1
 10
0.0
 20
0.0
 30
0.0
  0
VERTEX
  5
565
330
564
100
AcDbEntity
  8
Ebene 1
 62
   179
420
  1709851
370
    18
100
AcDbVertex
100
AcDb2dVertex
 10
38.99951442167374
 20
-186.5167805523292
 30
0.0
  0
VERTEX
  5
566
330
564
100
AcDbEntity
  8
Ebene 1
 62
   179
420
  1709851
370
    18
100
AcDbVertex
100
AcDb2dVertex
 10
38.87256265304228
 20
-186.4533907954005
 30
0.0
  0
VERTEX
  5
567
330
564
100
AcDbEntity
  8
Ebene 1
 62
   179
420
  1709851
370
    18
100
AcDbVertex
100
AcDb2dVertex
 10
38.85137531580799
 20
-186.4533907954005
 30
0.0
  0
SEQEND
  5
568
330
564
100
AcDbEntity
  8
Ebene 1
370
    18
  0
POLYLINE
  5
569
330
311
100
AcDbEntity
  8
Ebene 1
 62
   179
420
  1709851
370
    18
100
AcDb2dPolyline
 66
     1
 10
0.0
 20
0.0
 30
0.0
  0
VERTEX
  5
56A
330
569
100
AcDbEntity
  8
Ebene 1
 62
   179
420
  1709851
370
    18
100
AcDbVertex
100
AcDb2dVertex
 10
38.91493732751085
 20
-186.707638842212
 30
0.0
  0
VERTEX
  5
56B
330
569
100
AcDbEntity
  8
Ebene 1
 62
   179
420
  1709851
370
    18
100
AcDbVertex
100
AcDb2dVertex
 10
38.78798555887939
 20
-186.6649196581949
 30
0.0
  0
VERTEX
  5
56C
330
569
100
AcDbEntity
  8
Ebene 1
 62
   179
420
  1709851
370
    18
100
AcDbVertex
100
AcDb2dVertex
 10
38.76679822164511
 20
-186.6649196581949
 30
0.0
  0
SEQEND
  5
56D
330
569
100
AcDbEntity
  8
Ebene 1
370
    18
  0
POLYLINE
  5
56E
330
311
100
AcDbEntity
  8
Ebene 1
 62
   179
420
  1709851
370
    18
100
AcDb2dPolyline
 66
     1
 10
0.0
 20
0.0
 30
0.0
  0
VERTEX
  5
56F
330
56E
100
AcDbEntity
  8
Ebene 1
 62
   179
420
  1709851
370
    18
100
AcDbVertex
100
AcDb2dVertex
 10
42.04756265224853
 20
-186.4533907954005
 30
0.0
  0
VERTEX
  5
570
330
56E
100
AcDbEntity
  8
Ebene 1
 62
   179
420
  1709851
370
    18
100
AcDbVertex
100
AcDb2dVertex
 10
41.92061088361707
 20
-186.4961099794176
 30
0.0
  0
VERTEX
  5
571
330
56E
100
AcDbEntity
  8
Ebene 1
 62
   179
420
  1709851
370
    18
100
AcDbVertex
100
AcDb2dVertex
 10
41.89942354638278
 20
-186.5167805523292
 30
0.0
  0
SEQEND
  5
572
330
56E
100
AcDbEntity
  8
Ebene 1
370
    18
  0
POLYLINE
  5
573
330
311
100
AcDbEntity
  8
Ebene 1
 62
   179
420
  1709851
370
    18
100
AcDb2dPolyline
 66
     1
 10
0.0
 20
0.0
 30
0.0
  0
VERTEX
  5
574
330
573
100
AcDbEntity
  8
Ebene 1
 62
   179
420
  1709851
370
    18
100
AcDbVertex
100
AcDb2dVertex
 10
38.76679822164511
 20
-186.6649196581949
 30
0.0
  0
VERTEX
  5
575
330
573
100
AcDbEntity
  8
Ebene 1
 62
   179
420
  1709851
370
    18
100
AcDbVertex
100
AcDb2dVertex
 10
38.44933267267933
 20
-186.6649196581949
 30
0.0
  0
VERTEX
  5
576
330
573
100
AcDbEntity
  8
Ebene 1
 62
   179
420
  1709851
370
    18
100
AcDbVertex
100
AcDb2dVertex
 10
38.44933267267933
 20
-186.4533907954005
 30
0.0
  0
SEQEND
  5
577
330
573
100
AcDbEntity
  8
Ebene 1
370
    18
  0
POLYLINE
  5
578
330
311
100
AcDbEntity
  8
Ebene 1
 62
   179
420
  1709851
370
    18
100
AcDb2dPolyline
 66
     1
 10
0.0
 20
0.0
 30
0.0
  0
VERTEX
  5
579
330
578
100
AcDbEntity
  8
Ebene 1
 62
   179
420
  1709851
370
    18
100
AcDbVertex
100
AcDb2dVertex
 10
39.10545110784517
 20
-186.8978081129978
 30
0.0
  0
VERTEX
  5
57A
330
578
100
AcDbEntity
  8
Ebene 1
 62
   179
420
  1709851
370
    18
100
AcDbVertex
100
AcDb2dVertex
 10
38.91493732751085
 20
-186.707638842212
 30
0.0
  0
SEQEND
  5
57B
330
578
100
AcDbEntity
  8
Ebene 1
370
    18
  0
POLYLINE
  5
57C
330
311
100
AcDbEntity
  8
Ebene 1
 62
   179
420
  1709851
370
    18
100
AcDb2dPolyline
 66
     1
 10
0.0
 20
0.0
 30
0.0
  0
VERTEX
  5
57D
330
57C
100
AcDbEntity
  8
Ebene 1
 62
   179
420
  1709851
370
    18
100
AcDbVertex
100
AcDb2dVertex
 10
49.98506265026415
 20
-186.707638842212
 30
0.0
  0
VERTEX
  5
57E
330
57C
100
AcDbEntity
  8
Ebene 1
 62
   179
420
  1709851
370
    18
100
AcDbVertex
100
AcDb2dVertex
 10
49.79454886992983
 20
-186.8978081129978
 30
0.0
  0
SEQEND
  5
57F
330
57C
100
AcDbEntity
  8
Ebene 1
370
    18
  0
POLYLINE
  5
580
330
311
100
AcDbEntity
  8
Ebene 1
 62
   179
420
  1709851
370
    18
100
AcDb2dPolyline
 66
     1
 10
0.0
 20
0.0
 30
0.0
  0
VERTEX
  5
581
330
580
100
AcDbEntity
  8
Ebene 1
 62
   179
420
  1709851
370
    18
100
AcDbVertex
100
AcDb2dVertex
 10
50.04862466196701
 20
-186.4533907954005
 30
0.0
  0
VERTEX
  5
582
330
580
100
AcDbEntity
  8
Ebene 1
 62
   179
420
  1709851
370
    18
100
AcDbVertex
100
AcDb2dVertex
 10
50.45066730509567
 20
-186.4533907954005
 30
0.0
  0
VERTEX
  5
583
330
580
100
AcDbEntity
  8
Ebene 1
 62
   179
420
  1709851
370
    18
100
AcDbVertex
100
AcDb2dVertex
 10
50.45066730509567
 20
-186.6649196581949
 30
0.0
  0
VERTEX
  5
584
330
580
100
AcDbEntity
  8
Ebene 1
 62
   179
420
  1709851
370
    18
100
AcDbVertex
100
AcDb2dVertex
 10
50.1332017561299
 20
-186.6649196581949
 30
0.0
  0
SEQEND
  5
585
330
580
100
AcDbEntity
  8
Ebene 1
370
    18
  0
POLYLINE
  5
586
330
311
100
AcDbEntity
  8
Ebene 1
 62
   179
420
  1709851
370
    18
100
AcDb2dPolyline
 66
     1
 10
0.0
 20
0.0
 30
0.0
  0
VERTEX
  5
587
330
586
100
AcDbEntity
  8
Ebene 1
 62
   179
420
  1709851
370
    18
100
AcDbVertex
100
AcDb2dVertex
 10
49.70997177576695
 20
-186.707638842212
 30
0.0
  0
VERTEX
  5
588
330
586
100
AcDbEntity
  8
Ebene 1
 62
   179
420
  1709851
370
    18
100
AcDbVertex
100
AcDb2dVertex
 10
49.90048555610127
 20
-186.5167805523292
 30
0.0
  0
SEQEND
  5
589
330
586
100
AcDbEntity
  8
Ebene 1
370
    18
  0
POLYLINE
  5
58A
330
311
100
AcDbEntity
  8
Ebene 1
 62
   179
420
  1709851
370
    18
100
AcDb2dPolyline
 66
     1
 10
0.0
 20
0.0
 30
0.0
  0
VERTEX
  5
58B
330
58A
100
AcDbEntity
  8
Ebene 1
 62
   179
420
  1709851
370
    18
100
AcDbVertex
100
AcDb2dVertex
 10
47.00057643139222
 20
-186.5167805523292
 30
0.0
  0
VERTEX
  5
58C
330
58A
100
AcDbEntity
  8
Ebene 1
 62
   179
420
  1709851
370
    18
100
AcDbVertex
100
AcDb2dVertex
 10
47.19109021172653
 20
-186.707638842212
 30
0.0
  0
SEQEND
  5
58D
330
58A
100
AcDbEntity
  8
Ebene 1
370
    18
  0
POLYLINE
  5
58E
330
311
100
AcDbEntity
  8
Ebene 1
 62
   179
420
  1709851
370
    18
100
AcDb2dPolyline
 66
     1
 10
0.0
 20
0.0
 30
0.0
  0
VERTEX
  5
58F
330
58E
100
AcDbEntity
  8
Ebene 1
 62
   179
420
  1709851
370
    18
100
AcDbVertex
100
AcDb2dVertex
 10
41.70890976604847
 20
-186.707638842212
 30
0.0
  0
VERTEX
  5
590
330
58E
100
AcDbEntity
  8
Ebene 1
 62
   179
420
  1709851
370
    18
100
AcDbVertex
100
AcDb2dVertex
 10
41.89942354638278
 20
-186.5167805523292
 30
0.0
  0
SEQEND
  5
591
330
58E
100
AcDbEntity
  8
Ebene 1
370
    18
  0
POLYLINE
  5
592
330
311
100
AcDbEntity
  8
Ebene 1
 62
   179
420
  1709851
370
    18
100
AcDb2dPolyline
 66
     1
 10
0.0
 20
0.0
 30
0.0
  0
VERTEX
  5
593
330
592
100
AcDbEntity
  8
Ebene 1
 62
   179
420
  1709851
370
    18
100
AcDbVertex
100
AcDb2dVertex
 10
38.99951442167374
 20
-186.5167805523292
 30
0.0
  0
VERTEX
  5
594
330
592
100
AcDbEntity
  8
Ebene 1
 62
   179
420
  1709851
370
    18
100
AcDbVertex
100
AcDb2dVertex
 10
39.19002820200805
 20
-186.707638842212
 30
0.0
  0
SEQEND
  5
595
330
592
100
AcDbEntity
  8
Ebene 1
370
    18
  0
POLYLINE
  5
596
330
311
100
AcDbEntity
  8
Ebene 1
 62
   179
420
  1709851
370
    18
100
AcDb2dPolyline
 66
     1
 10
0.0
 20
0.0
 30
0.0
  0
VERTEX
  5
597
330
596
100
AcDbEntity
  8
Ebene 1
 62
   179
420
  1709851
370
    18
100
AcDbVertex
100
AcDb2dVertex
 10
38.44933267267933
 20
-186.4533907954005
 30
0.0
  0
VERTEX
  5
598
330
596
100
AcDbEntity
  8
Ebene 1
 62
   179
420
  1709851
370
    18
100
AcDbVertex
100
AcDb2dVertex
 10
38.85137531580799
 20
-186.4533907954005
 30
0.0
  0
SEQEND
  5
599
330
596
100
AcDbEntity
  8
Ebene 1
370
    18
  0
POLYLINE
  5
59A
330
311
100
AcDbEntity
  8
Ebene 1
 62
   179
420
  1709851
370
    18
100
AcDb2dPolyline
 66
     1
 10
0.0
 20
0.0
 30
0.0
  0
VERTEX
  5
59B
330
59A
100
AcDbEntity
  8
Ebene 1
 62
   179
420
  1709851
370
    18
100
AcDbVertex
100
AcDb2dVertex
 10
175.3340006072082
 20
-178.9396375420706
 30
0.0
  0
VERTEX
  5
59C
330
59A
100
AcDbEntity
  8
Ebene 1
 62
   179
420
  1709851
370
    18
100
AcDbVertex
100
AcDb2dVertex
 10
180.3510931623775
 20
-162.9371690130852
 30
0.0
  0
VERTEX
  5
59D
330
59A
100
AcDbEntity
  8
Ebene 1
 62
   179
420
  1709851
370
    18
100
AcDbVertex
100
AcDb2dVertex
 10
185.3457925968927
 20
-178.9396375420706
 30
0.0
  0
VERTEX
  5
59E
330
59A
100
AcDbEntity
  8
Ebene 1
 62
   179
420
  1709851
370
    18
100
AcDbVertex
100
AcDb2dVertex
 10
188.3516384077732
 20
-169.3298881955148
 30
0.0
  0
SEQEND
  5
59F
330
59A
100
AcDbEntity
  8
Ebene 1
370
    18
  0
POLYLINE
  5
5A0
330
311
100
AcDbEntity
  8
Ebene 1
 62
   179
420
  1709851
370
    18
100
AcDb2dPolyline
 66
     1
 10
0.0
 20
0.0
 30
0.0
  0
VERTEX
  5
5A1
330
5A0
100
AcDbEntity
  8
Ebene 1
 62
   179
420
  1709851
370
    18
100
AcDbVertex
100
AcDb2dVertex
 10
115.347998018038
 20
-178.9396375420706
 30
0.0
  0
VERTEX
  5
5A2
330
5A0
100
AcDbEntity
  8
Ebene 1
 62
   179
420
  1709851
370
    18
100
AcDbVertex
100
AcDb2dVertex
 10
120.3430419621018
 20
-162.9371690130852
 30
0.0
  0
VERTEX
  5
5A3
330
5A0
100
AcDbEntity
  8
Ebene 1
 62
   179
420
  1709851
370
    18
100
AcDbVertex
100
AcDb2dVertex
 10
125.338430415714
 20
-178.9396375420706
 30
0.0
  0
VERTEX
  5
5A4
330
5A0
100
AcDbEntity
  8
Ebene 1
 62
   179
420
  1709851
370
    18
100
AcDbVertex
100
AcDb2dVertex
 10
130.3548339517863
 20
-162.9371690130852
 30
0.0
  0
VERTEX
  5
5A5
330
5A0
100
AcDbEntity
  8
Ebene 1
 62
   179
420
  1709851
370
    18
100
AcDbVertex
100
AcDb2dVertex
 10
135.3502224053986
 20
-178.9396375420706
 30
0.0
  0
VERTEX
  5
5A6
330
5A0
100
AcDbEntity
  8
Ebene 1
 62
   179
420
  1709851
370
    18
100
AcDbVertex
100
AcDb2dVertex
 10
140.3456108590108
 20
-162.9371690130852
 30
0.0
  0
VERTEX
  5
5A7
330
5A0
100
AcDbEntity
  8
Ebene 1
 62
   179
420
  1709851
370
    18
100
AcDbVertex
100
AcDb2dVertex
 10
145.3409993126231
 20
-178.9396375420706
 30
0.0
  0
VERTEX
  5
5A8
330
5A0
100
AcDbEntity
  8
Ebene 1
 62
   179
420
  1709851
370
    18
100
AcDbVertex
100
AcDb2dVertex
 10
150.3363877662354
 20
-162.9371690130852
 30
0.0
  0
VERTEX
  5
5A9
330
5A0
100
AcDbEntity
  8
Ebene 1
 62
   179
420
  1709851
370
    18
100
AcDbVertex
100
AcDb2dVertex
 10
155.3527913023077
 20
-178.9396375420706
 30
0.0
  0
SEQEND
  5
5AA
330
5A0
100
AcDbEntity
  8
Ebene 1
370
    18
  0
POLYLINE
  5
5AB
330
311
100
AcDbEntity
  8
Ebene 1
 62
   179
420
  1709851
370
    18
100
AcDb2dPolyline
 66
     1
 10
0.0
 20
0.0
 30
0.0
  0
VERTEX
  5
5AC
330
5AB
100
AcDbEntity
  8
Ebene 1
 62
   179
420
  1709851
370
    18
100
AcDbVertex
100
AcDb2dVertex
 10
55.36147866454505
 20
-178.9396375420706
 30
0.0
  0
VERTEX
  5
5AD
330
5AB
100
AcDbEntity
  8
Ebene 1
 62
   179
420
  1709851
370
    18
100
AcDbVertex
100
AcDb2dVertex
 10
60.35669486338305
 20
-162.9371690130852
 30
0.0
  0
VERTEX
  5
5AE
330
5AB
100
AcDbEntity
  8
Ebene 1
 62
   179
420
  1709851
370
    18
100
AcDbVertex
100
AcDb2dVertex
 10
65.35208331699532
 20
-178.9396375420706
 30
0.0
  0
VERTEX
  5
5AF
330
5AB
100
AcDbEntity
  8
Ebene 1
 62
   179
420
  1709851
370
    18
100
AcDbVertex
100
AcDb2dVertex
 10
70.34747177060758
 20
-162.9371690130852
 30
0.0
  0
VERTEX
  5
5B0
330
5AB
100
AcDbEntity
  8
Ebene 1
 62
   179
420
  1709851
370
    18
100
AcDbVertex
100
AcDb2dVertex
 10
75.34268796944558
 20
-178.9396375420706
 30
0.0
  0
VERTEX
  5
5B1
330
5AB
100
AcDbEntity
  8
Ebene 1
 62
   179
420
  1709851
370
    18
100
AcDbVertex
100
AcDb2dVertex
 10
80.35926376029214
 20
-162.9371690130852
 30
0.0
  0
VERTEX
  5
5B2
330
5AB
100
AcDbEntity
  8
Ebene 1
 62
   179
420
  1709851
370
    18
100
AcDbVertex
100
AcDb2dVertex
 10
85.3546522139044
 20
-178.9396375420706
 30
0.0
  0
VERTEX
  5
5B3
330
5AB
100
AcDbEntity
  8
Ebene 1
 62
   179
420
  1709851
370
    18
100
AcDbVertex
100
AcDb2dVertex
 10
90.3498684127424
 20
-162.9371690130852
 30
0.0
  0
VERTEX
  5
5B4
330
5AB
100
AcDbEntity
  8
Ebene 1
 62
   179
420
  1709851
370
    18
100
AcDbVertex
100
AcDb2dVertex
 10
95.34525686635466
 20
-178.9396375420706
 30
0.0
  0
SEQEND
  5
5B5
330
5AB
100
AcDbEntity
  8
Ebene 1
370
    18
  0
POLYLINE
  5
5B6
330
311
100
AcDbEntity
  8
Ebene 1
 62
   179
420
  1709851
370
    18
100
AcDb2dPolyline
 66
     1
 10
0.0
 20
0.0
 30
0.0
  0
VERTEX
  5
5B7
330
5B6
100
AcDbEntity
  8
Ebene 1
 62
   179
420
  1709851
370
    18
100
AcDbVertex
100
AcDb2dVertex
 10
20.35172932433915
 20
-162.9371690130852
 30
0.0
  0
VERTEX
  5
5B8
330
5B6
100
AcDbEntity
  8
Ebene 1
 62
   179
420
  1709851
370
    18
100
AcDbVertex
100
AcDb2dVertex
 10
25.34711777795142
 20
-178.9396375420706
 30
0.0
  0
VERTEX
  5
5B9
330
5B6
100
AcDbEntity
  8
Ebene 1
 62
   179
420
  1709851
370
    18
100
AcDbVertex
100
AcDb2dVertex
 10
30.3635213140237
 20
-162.9371690130852
 30
0.0
  0
VERTEX
  5
5BA
330
5B6
100
AcDbEntity
  8
Ebene 1
 62
   179
420
  1709851
370
    18
100
AcDbVertex
100
AcDb2dVertex
 10
35.35890976763597
 20
-178.9396375420706
 30
0.0
  0
SEQEND
  5
5BB
330
5B6
100
AcDbEntity
  8
Ebene 1
370
    18
  0
POLYLINE
  5
5BC
330
311
100
AcDbEntity
  8
Ebene 1
 62
   179
420
  1709851
370
    18
100
AcDb2dPolyline
 66
     1
 10
0.0
 20
0.0
 30
0.0
  0
VERTEX
  5
5BD
330
5BC
100
AcDbEntity
  8
Ebene 1
 62
   179
420
  1709851
370
    18
100
AcDbVertex
100
AcDb2dVertex
 10
164.6449028451235
 20
-176.462613888176
 30
0.0
  0
VERTEX
  5
5BE
330
5BC
100
AcDbEntity
  8
Ebene 1
 62
   179
420
  1709851
370
    18
100
AcDbVertex
100
AcDb2dVertex
 10
164.2428602019949
 20
-176.462613888176
 30
0.0
  0
SEQEND
  5
5BF
330
5BC
100
AcDbEntity
  8
Ebene 1
370
    18
  0
POLYLINE
  5
5C0
330
311
100
AcDbEntity
  8
Ebene 1
 62
   179
420
  1709851
370
    18
100
AcDb2dPolyline
 66
     1
 10
0.0
 20
0.0
 30
0.0
  0
VERTEX
  5
5C1
330
5C0
100
AcDbEntity
  8
Ebene 1
 62
   179
420
  1709851
370
    18
100
AcDbVertex
100
AcDb2dVertex
 10
164.2428602019949
 20
-176.462613888176
 30
0.0
  0
VERTEX
  5
5C2
330
5C0
100
AcDbEntity
  8
Ebene 1
 62
   179
420
  1709851
370
    18
100
AcDbVertex
100
AcDb2dVertex
 10
164.2428602019949
 20
-186.0516926618204
 30
0.0
  0
SEQEND
  5
5C3
330
5C0
100
AcDbEntity
  8
Ebene 1
370
    18
  0
POLYLINE
  5
5C4
330
311
100
AcDbEntity
  8
Ebene 1
 62
   179
420
  1709851
370
    18
100
AcDb2dPolyline
 66
     1
 10
0.0
 20
0.0
 30
0.0
  0
VERTEX
  5
5C5
330
5C4
100
AcDbEntity
  8
Ebene 1
 62
   179
420
  1709851
370
    18
100
AcDbVertex
100
AcDb2dVertex
 10
164.2428602019949
 20
-186.0516926618204
 30
0.0
  0
VERTEX
  5
5C6
330
5C4
100
AcDbEntity
  8
Ebene 1
 62
   179
420
  1709851
370
    18
100
AcDbVertex
100
AcDb2dVertex
 10
157.4484428859851
 20
-186.0516926618204
 30
0.0
  0
SEQEND
  5
5C7
330
5C4
100
AcDbEntity
  8
Ebene 1
370
    18
  0
POLYLINE
  5
5C8
330
311
100
AcDbEntity
  8
Ebene 1
 62
   179
420
  1709851
370
    18
100
AcDb2dPolyline
 66
     1
 10
0.0
 20
0.0
 30
0.0
  0
VERTEX
  5
5C9
330
5C8
100
AcDbEntity
  8
Ebene 1
 62
   179
420
  1709851
370
    18
100
AcDbVertex
100
AcDb2dVertex
 10
157.4484428859851
 20
-186.0516926618204
 30
0.0
  0
VERTEX
  5
5CA
330
5C8
100
AcDbEntity
  8
Ebene 1
 62
   179
420
  1709851
370
    18
100
AcDbVertex
100
AcDb2dVertex
 10
157.4484428859851
 20
-186.4533907954005
 30
0.0
  0
SEQEND
  5
5CB
330
5C8
100
AcDbEntity
  8
Ebene 1
370
    18
  0
POLYLINE
  5
5CC
330
311
100
AcDbEntity
  8
Ebene 1
 62
   179
420
  1709851
370
    18
100
AcDb2dPolyline
 66
     1
 10
0.0
 20
0.0
 30
0.0
  0
VERTEX
  5
5CD
330
5CC
100
AcDbEntity
  8
Ebene 1
 62
   179
420
  1709851
370
    18
100
AcDbVertex
100
AcDb2dVertex
 10
157.4484428859851
 20
-186.4533907954005
 30
0.0
  0
VERTEX
  5
5CE
330
5CC
100
AcDbEntity
  8
Ebene 1
 62
   179
420
  1709851
370
    18
100
AcDbVertex
100
AcDb2dVertex
 10
171.4393201611332
 20
-186.4533907954005
 30
0.0
  0
SEQEND
  5
5CF
330
5CC
100
AcDbEntity
  8
Ebene 1
370
    18
  0
POLYLINE
  5
5D0
330
311
100
AcDbEntity
  8
Ebene 1
 62
   179
420
  1709851
370
    18
100
AcDb2dPolyline
 66
     1
 10
0.0
 20
0.0
 30
0.0
  0
VERTEX
  5
5D1
330
5D0
100
AcDbEntity
  8
Ebene 1
 62
   179
420
  1709851
370
    18
100
AcDbVertex
100
AcDb2dVertex
 10
171.4393201611332
 20
-186.4533907954005
 30
0.0
  0
VERTEX
  5
5D2
330
5D0
100
AcDbEntity
  8
Ebene 1
 62
   179
420
  1709851
370
    18
100
AcDbVertex
100
AcDb2dVertex
 10
171.4393201611332
 20
-186.0516926618204
 30
0.0
  0
SEQEND
  5
5D3
330
5D0
100
AcDbEntity
  8
Ebene 1
370
    18
  0
POLYLINE
  5
5D4
330
311
100
AcDbEntity
  8
Ebene 1
 62
   179
420
  1709851
370
    18
100
AcDb2dPolyline
 66
     1
 10
0.0
 20
0.0
 30
0.0
  0
VERTEX
  5
5D5
330
5D4
100
AcDbEntity
  8
Ebene 1
 62
   179
420
  1709851
370
    18
100
AcDbVertex
100
AcDb2dVertex
 10
171.4393201611332
 20
-186.0516926618204
 30
0.0
  0
VERTEX
  5
5D6
330
5D4
100
AcDbEntity
  8
Ebene 1
 62
   179
420
  1709851
370
    18
100
AcDbVertex
100
AcDb2dVertex
 10
164.6449028451235
 20
-186.0516926618204
 30
0.0
  0
SEQEND
  5
5D7
330
5D4
100
AcDbEntity
  8
Ebene 1
370
    18
  0
POLYLINE
  5
5D8
330
311
100
AcDbEntity
  8
Ebene 1
 62
   179
420
  1709851
370
    18
100
AcDb2dPolyline
 66
     1
 10
0.0
 20
0.0
 30
0.0
  0
VERTEX
  5
5D9
330
5D8
100
AcDbEntity
  8
Ebene 1
 62
   179
420
  1709851
370
    18
100
AcDbVertex
100
AcDb2dVertex
 10
157.1308050822451
 20
-163.9321125892253
 30
0.0
  0
VERTEX
  5
5DA
330
5D8
100
AcDbEntity
  8
Ebene 1
 62
   179
420
  1709851
370
    18
100
AcDbVertex
100
AcDb2dVertex
 10
165.1316948371893
 20
-163.9321125892253
 30
0.0
  0
VERTEX
  5
5DB
330
5D8
100
AcDbEntity
  8
Ebene 1
 62
   179
420
  1709851
370
    18
100
AcDbVertex
100
AcDb2dVertex
 10
165.1316948371893
 20
-162.9371690130852
 30
0.0
  0
SEQEND
  5
5DC
330
5D8
100
AcDbEntity
  8
Ebene 1
370
    18
  0
POLYLINE
  5
5DD
330
311
100
AcDbEntity
  8
Ebene 1
 62
   179
420
  1709851
370
    18
100
AcDb2dPolyline
 66
     1
 10
0.0
 20
0.0
 30
0.0
  0
VERTEX
  5
5DE
330
5DD
100
AcDbEntity
  8
Ebene 1
 62
   179
420
  1709851
370
    18
100
AcDbVertex
100
AcDb2dVertex
 10
157.1308050822451
 20
-163.9321125892253
 30
0.0
  0
VERTEX
  5
5DF
330
5DD
100
AcDbEntity
  8
Ebene 1
 62
   179
420
  1709851
370
    18
100
AcDbVertex
100
AcDb2dVertex
 10
157.1308050822451
 20
-162.9371690130852
 30
0.0
  0
SEQEND
  5
5E0
330
5DD
100
AcDbEntity
  8
Ebene 1
370
    18
  0
POLYLINE
  5
5E1
330
311
100
AcDbEntity
  8
Ebene 1
 62
   179
420
  1709851
370
    18
100
AcDb2dPolyline
 66
     1
 10
0.0
 20
0.0
 30
0.0
  0
VERTEX
  5
5E2
330
5E1
100
AcDbEntity
  8
Ebene 1
 62
   179
420
  1709851
370
    18
100
AcDbVertex
100
AcDb2dVertex
 10
157.1308050822451
 20
-163.9321125892253
 30
0.0
  0
VERTEX
  5
5E3
330
5E1
100
AcDbEntity
  8
Ebene 1
 62
   179
420
  1709851
370
    18
100
AcDbVertex
100
AcDb2dVertex
 10
157.1308050822451
 20
-164.5460286046968
 30
0.0
  0
SEQEND
  5
5E4
330
5E1
100
AcDbEntity
  8
Ebene 1
370
    18
  0
POLYLINE
  5
5E5
330
311
100
AcDbEntity
  8
Ebene 1
 62
   179
420
  1709851
370
    18
100
AcDb2dPolyline
 66
     1
 10
0.0
 20
0.0
 30
0.0
  0
VERTEX
  5
5E6
330
5E5
100
AcDbEntity
  8
Ebene 1
 62
   179
420
  1709851
370
    18
100
AcDbVertex
100
AcDb2dVertex
 10
157.1308050822451
 20
-164.5460286046968
 30
0.0
  0
VERTEX
  5
5E7
330
5E5
100
AcDbEntity
  8
Ebene 1
 62
   179
420
  1709851
370
    18
100
AcDbVertex
100
AcDb2dVertex
 10
164.6449028451235
 20
-164.5460286046968
 30
0.0
  0
SEQEND
  5
5E8
330
5E5
100
AcDbEntity
  8
Ebene 1
370
    18
  0
POLYLINE
  5
5E9
330
311
100
AcDbEntity
  8
Ebene 1
 62
   179
420
  1709851
370
    18
100
AcDb2dPolyline
 66
     1
 10
0.0
 20
0.0
 30
0.0
  0
VERTEX
  5
5EA
330
5E9
100
AcDbEntity
  8
Ebene 1
 62
   179
420
  1709851
370
    18
100
AcDbVertex
100
AcDb2dVertex
 10
164.6449028451235
 20
-164.5460286046968
 30
0.0
  0
VERTEX
  5
5EB
330
5E9
100
AcDbEntity
  8
Ebene 1
 62
   179
420
  1709851
370
    18
100
AcDbVertex
100
AcDb2dVertex
 10
164.6449028451235
 20
-181.9451388434026
 30
0.0
  0
SEQEND
  5
5EC
330
5E9
100
AcDbEntity
  8
Ebene 1
370
    18
  0
POLYLINE
  5
5ED
330
311
100
AcDbEntity
  8
Ebene 1
 62
   179
420
  1709851
370
    18
100
AcDb2dPolyline
 66
     1
 10
0.0
 20
0.0
 30
0.0
  0
VERTEX
  5
5EE
330
5ED
100
AcDbEntity
  8
Ebene 1
 62
   179
420
  1709851
370
    18
100
AcDbVertex
100
AcDb2dVertex
 10
164.6449028451235
 20
-181.9451388434026
 30
0.0
  0
VERTEX
  5
5EF
330
5ED
100
AcDbEntity
  8
Ebene 1
 62
   179
420
  1709851
370
    18
100
AcDbVertex
100
AcDb2dVertex
 10
165.1316948371893
 20
-181.9451388434026
 30
0.0
  0
SEQEND
  5
5F0
330
5ED
100
AcDbEntity
  8
Ebene 1
370
    18
  0
POLYLINE
  5
5F1
330
311
100
AcDbEntity
  8
Ebene 1
 62
   179
420
  1709851
370
    18
100
AcDb2dPolyline
 66
     1
 10
0.0
 20
0.0
 30
0.0
  0
VERTEX
  5
5F2
330
5F1
100
AcDbEntity
  8
Ebene 1
 62
   179
420
  1709851
370
    18
100
AcDbVertex
100
AcDb2dVertex
 10
165.1316948371893
 20
-181.9451388434026
 30
0.0
  0
VERTEX
  5
5F3
330
5F1
100
AcDbEntity
  8
Ebene 1
 62
   179
420
  1709851
370
    18
100
AcDbVertex
100
AcDb2dVertex
 10
165.1316948371893
 20
-163.9321125892253
 30
0.0
  0
SEQEND
  5
5F4
330
5F1
100
AcDbEntity
  8
Ebene 1
370
    18
  0
POLYLINE
  5
5F5
330
311
100
AcDbEntity
  8
Ebene 1
 62
   179
420
  1709851
370
    18
100
AcDb2dPolyline
 66
     1
 10
0.0
 20
0.0
 30
0.0
  0
VERTEX
  5
5F6
330
5F5
100
AcDbEntity
  8
Ebene 1
 62
   179
420
  1709851
370
    18
100
AcDbVertex
100
AcDb2dVertex
 10
166.1476534957895
 20
-179.3413356756508
 30
0.0
  0
VERTEX
  5
5F7
330
5F5
100
AcDbEntity
  8
Ebene 1
 62
   179
420
  1709851
370
    18
100
AcDbVertex
100
AcDb2dVertex
 10
163.2479166258547
 20
-179.3413356756508
 30
0.0
  0
SEQEND
  5
5F8
330
5F5
100
AcDbEntity
  8
Ebene 1
370
    18
  0
POLYLINE
  5
5F9
330
311
100
AcDbEntity
  8
Ebene 1
 62
   179
420
  1709851
370
    18
100
AcDb2dPolyline
 66
     1
 10
0.0
 20
0.0
 30
0.0
  0
VERTEX
  5
5FA
330
5F9
100
AcDbEntity
  8
Ebene 1
 62
   179
420
  1709851
370
    18
100
AcDbVertex
100
AcDb2dVertex
 10
162.845873982726
 20
-187.342225430595
 30
0.0
  0
VERTEX
  5
5FB
330
5F9
100
AcDbEntity
  8
Ebene 1
 62
   179
420
  1709851
370
    18
100
AcDbVertex
100
AcDb2dVertex
 10
162.845873982726
 20
-185.0567490856803
 30
0.0
  0
SEQEND
  5
5FC
330
5F9
100
AcDbEntity
  8
Ebene 1
370
    18
  0
POLYLINE
  5
5FD
330
311
100
AcDbEntity
  8
Ebene 1
 62
   179
420
  1709851
370
    18
100
AcDb2dPolyline
 66
     1
 10
0.0
 20
0.0
 30
0.0
  0
VERTEX
  5
5FE
330
5FD
100
AcDbEntity
  8
Ebene 1
 62
   179
420
  1709851
370
    18
100
AcDbVertex
100
AcDb2dVertex
 10
166.0418890643923
 20
-185.0567490856803
 30
0.0
  0
VERTEX
  5
5FF
330
5FD
100
AcDbEntity
  8
Ebene 1
 62
   179
420
  1709851
370
    18
100
AcDbVertex
100
AcDb2dVertex
 10
166.0418890643923
 20
-187.342225430595
 30
0.0
  0
SEQEND
  5
600
330
5FD
100
AcDbEntity
  8
Ebene 1
370
    18
  0
POLYLINE
  5
601
330
311
100
AcDbEntity
  8
Ebene 1
370
     0
100
AcDb2dPolyline
 66
     1
 10
0.0
 20
0.0
 30
0.0
  0
VERTEX
  5
602
330
601
100
AcDbEntity
  8
Ebene 1
370
     0
100
AcDbVertex
100
AcDb2dVertex
 10
20.10833332830625
 20
-192.9308593267673
 30
0.0
  0
VERTEX
  5
603
330
601
100
AcDbEntity
  8
Ebene 1
370
     0
100
AcDbVertex
100
AcDb2dVertex
 10
188.5948621490319
 20
-192.9308593267673
 30
0.0
  0
VERTEX
  5
604
330
601
100
AcDbEntity
  8
Ebene 1
370
     0
100
AcDbVertex
100
AcDb2dVertex
 10
188.5948621490319
 20
-98.86614445228
 30
0.0
  0
VERTEX
  5
605
330
601
100
AcDbEntity
  8
Ebene 1
370
     0
100
AcDbVertex
100
AcDb2dVertex
 10
20.10833332830625
 20
-98.86614445228
 30
0.0
  0
VERTEX
  5
606
330
601
100
AcDbEntity
  8
Ebene 1
370
     0
100
AcDbVertex
100
AcDb2dVertex
 10
20.10833332830625
 20
-192.9308593267673
 30
0.0
  0
SEQEND
  5
607
330
601
100
AcDbEntity
  8
Ebene 1
370
     0
  0
ENDBLK
  5
314
330
311
100
AcDbEntity
  8
0
100
AcDbBlockEnd
  0
ENDSEC
  0
SECTION
  2
ENTITIES
  0
INSERT
  5
3D
330
1F
100
AcDbEntity
  8
Ebene 1
100
AcDbBlockReference
  2
block 2
 10
0.0
 20
0.0
 30
0.0
  0
POLYLINE
  5
CB
330
1F
100
AcDbEntity
  8
Ebene 1
370
     0
100
AcDb2dPolyline
 66
     1
 10
0.0
 20
0.0
 30
0.0
  0
VERTEX
  5
CC
330
CB
100
AcDbEntity
  8
Ebene 1
370
     0
100
AcDbVertex
100
AcDb2dVertex
 10
44.65119356522609
 20
-176.462613888176
 30
0.0
  0
VERTEX
  5
CD
330
CB
100
AcDbEntity
  8
Ebene 1
370
     0
100
AcDbVertex
100
AcDb2dVertex
 10
44.24897866732317
 20
-186.0516926618204
 30
0.0
  0
VERTEX
  5
CE
330
CB
100
AcDbEntity
  8
Ebene 1
370
     0
100
AcDbVertex
100
AcDb2dVertex
 10
44.24897866732317
 20
-176.462613888176
 30
0.0
  0
VERTEX
  5
CF
330
CB
100
AcDbEntity
  8
Ebene 1
370
     0
100
AcDbVertex
100
AcDb2dVertex
 10
44.65119356522609
 20
-176.462613888176
 30
0.0
  0
SEQEND
  5
D0
330
CB
100
AcDbEntity
  8
Ebene 1
370
     0
  0
HATCH
  5
D1
330
1F
100
AcDbEntity
  8
Ebene 1
 62
   179
420
  1709851
100
AcDbHatch
 10
0.0
 20
0.0
 30
0.0
210
0.0
220
0.0
230
1.0
  2
SOLID
 70
     1
 71
     0
 91
        1
 92
        1
 93
        3
 72
     1
 10
44.65119356522609
 20
-176.462613888176
 11
44.24897866732317
 21
-186.0516926618204
 72
     1
 10
44.24897866732317
 20
-186.0516926618204
 11
44.24897866732317
 21
-176.462613888176
 72
     1
 10
44.24897866732317
 20
-176.462613888176
 11
44.65119356522609
 21
-176.462613888176
 97
        0
 75
     2
 76
     1
 98
        0
  0
POLYLINE
  5
D2
330
1F
100
AcDbEntity
  8
Ebene 1
370
     0
100
AcDb2dPolyline
 66
     1
 10
0.0
 20
0.0
 30
0.0
  0
VERTEX
  5
D3
330
D2
100
AcDbEntity
  8
Ebene 1
370
     0
100
AcDbVertex
100
AcDb2dVertex
 10
44.24897866732317
 20
-186.0516926618204
 30
0.0
  0
VERTEX
  5
D4
330
D2
100
AcDbEntity
  8
Ebene 1
370
     0
100
AcDbVertex
100
AcDb2dVertex
 10
37.45456135131344
 20
-186.4533907954005
 30
0.0
  0
VERTEX
  5
D5
330
D2
100
AcDbEntity
  8
Ebene 1
370
     0
100
AcDbVertex
100
AcDb2dVertex
 10
37.45456135131344
 20
-186.0516926618204
 30
0.0
  0
VERTEX
  5
D6
330
D2
100
AcDbEntity
  8
Ebene 1
370
     0
100
AcDbVertex
100
AcDb2dVertex
 10
44.24897866732317
 20
-186.0516926618204
 30
0.0
  0
SEQEND
  5
D7
330
D2
100
AcDbEntity
  8
Ebene 1
370
     0
  0
HATCH
  5
D8
330
1F
100
AcDbEntity
  8
Ebene 1
 62
   179
420
  1709851
100
AcDbHatch
 10
0.0
 20
0.0
 30
0.0
210
0.0
220
0.0
230
1.0
  2
SOLID
 70
     1
 71
     0
 91
        1
 92
        1
 93
        3
 72
     1
 10
44.24897866732317
 20
-186.0516926618204
 11
37.45456135131344
 21
-186.4533907954005
 72
     1
 10
37.45456135131344
 20
-186.4533907954005
 11
37.45456135131344
 21
-186.0516926618204
 72
     1
 10
37.45456135131344
 20
-186.0516926618204
 11
44.24897866732317
 21
-186.0516926618204
 97
        0
 75
     2
 76
     1
 98
        0
  0
POLYLINE
  5
D9
330
1F
100
AcDbEntity
  8
Ebene 1
370
     0
100
AcDb2dPolyline
 66
     1
 10
0.0
 20
0.0
 30
0.0
  0
VERTEX
  5
DA
330
D9
100
AcDbEntity
  8
Ebene 1
370
     0
100
AcDbVertex
100
AcDb2dVertex
 10
37.45438909653918
 20
-186.4533907954005
 30
0.0
  0
VERTEX
  5
DB
330
D9
100
AcDbEntity
  8
Ebene 1
370
     0
100
AcDbVertex
100
AcDb2dVertex
 10
44.24897866732317
 20
-186.0516926618204
 30
0.0
  0
VERTEX
  5
DC
330
D9
100
AcDbEntity
  8
Ebene 1
370
     0
100
AcDbVertex
100
AcDb2dVertex
 10
51.44561088123582
 20
-186.4533907954005
 30
0.0
  0
VERTEX
  5
DD
330
D9
100
AcDbEntity
  8
Ebene 1
370
     0
100
AcDbVertex
100
AcDb2dVertex
 10
37.45438909653918
 20
-186.4533907954005
 30
0.0
  0
SEQEND
  5
DE
330
D9
100
AcDbEntity
  8
Ebene 1
370
     0
  0
HATCH
  5
DF
330
1F
100
AcDbEntity
  8
Ebene 1
 62
   179
420
  1709851
100
AcDbHatch
 10
0.0
 20
0.0
 30
0.0
210
0.0
220
0.0
230
1.0
  2
SOLID
 70
     1
 71
     0
 91
        1
 92
        1
 93
        3
 72
     1
 10
37.45438909653918
 20
-186.4533907954005
 11
44.24897866732317
 21
-186.0516926618204
 72
     1
 10
44.24897866732317
 20
-186.0516926618204
 11
51.44561088123582
 21
-186.4533907954005
 72
     1
 10
51.44561088123582
 20
-186.4533907954005
 11
37.45438909653918
 21
-186.4533907954005
 97
        0
 75
     2
 76
     1
 98
        0
  0
POLYLINE
  5
E0
330
1F
100
AcDbEntity
  8
Ebene 1
370
     0
100
AcDb2dPolyline
 66
     1
 10
0.0
 20
0.0
 30
0.0
  0
VERTEX
  5
E1
330
E0
100
AcDbEntity
  8
Ebene 1
370
     0
100
AcDbVertex
100
AcDb2dVertex
 10
51.44561088123582
 20
-186.4533907954005
 30
0.0
  0
VERTEX
  5
E2
330
E0
100
AcDbEntity
  8
Ebene 1
370
     0
100
AcDbVertex
100
AcDb2dVertex
 10
44.24897866732317
 20
-186.0516926618204
 30
0.0
  0
VERTEX
  5
E3
330
E0
100
AcDbEntity
  8
Ebene 1
370
     0
100
AcDbVertex
100
AcDb2dVertex
 10
44.65119356522609
 20
-186.0516926618204
 30
0.0
  0
VERTEX
  5
E4
330
E0
100
AcDbEntity
  8
Ebene 1
370
     0
100
AcDbVertex
100
AcDb2dVertex
 10
51.44561088123582
 20
-186.4533907954005
 30
0.0
  0
SEQEND
  5
E5
330
E0
100
AcDbEntity
  8
Ebene 1
370
     0
  0
HATCH
  5
E6
330
1F
100
AcDbEntity
  8
Ebene 1
 62
   179
420
  1709851
100
AcDbHatch
 10
0.0
 20
0.0
 30
0.0
210
0.0
220
0.0
230
1.0
  2
SOLID
 70
     1
 71
     0
 91
        1
 92
        1
 93
        3
 72
     1
 10
51.44561088123582
 20
-186.4533907954005
 11
44.24897866732317
 21
-186.0516926618204
 72
     1
 10
44.24897866732317
 20
-186.0516926618204
 11
44.65119356522609
 21
-186.0516926618204
 72
     1
 10
44.65119356522609
 20
-186.0516926618204
 11
51.44561088123582
 21
-186.4533907954005
 97
        0
 75
     2
 76
     1
 98
        0
  0
POLYLINE
  5
E7
330
1F
100
AcDbEntity
  8
Ebene 1
370
     0
100
AcDb2dPolyline
 66
     1
 10
0.0
 20
0.0
 30
0.0
  0
VERTEX
  5
E8
330
E7
100
AcDbEntity
  8
Ebene 1
370
     0
100
AcDbVertex
100
AcDb2dVertex
 10
44.65119356522609
 20
-186.0516926618204
 30
0.0
  0
VERTEX
  5
E9
330
E7
100
AcDbEntity
  8
Ebene 1
370
     0
100
AcDbVertex
100
AcDb2dVertex
 10
44.24897866732317
 20
-186.0516926618204
 30
0.0
  0
VERTEX
  5
EA
330
E7
100
AcDbEntity
  8
Ebene 1
370
     0
100
AcDbVertex
100
AcDb2dVertex
 10
44.65119356522609
 20
-176.462613888176
 30
0.0
  0
VERTEX
  5
EB
330
E7
100
AcDbEntity
  8
Ebene 1
370
     0
100
AcDbVertex
100
AcDb2dVertex
 10
44.65119356522609
 20
-186.0516926618204
 30
0.0
  0
SEQEND
  5
EC
330
E7
100
AcDbEntity
  8
Ebene 1
370
     0
  0
HATCH
  5
ED
330
1F
100
AcDbEntity
  8
Ebene 1
 62
   179
420
  1709851
100
AcDbHatch
 10
0.0
 20
0.0
 30
0.0
210
0.0
220
0.0
230
1.0
  2
SOLID
 70
     1
 71
     0
 91
        1
 92
        1
 93
        3
 72
     1
 10
44.65119356522609
 20
-186.0516926618204
 11
44.24897866732317
 21
-186.0516926618204
 72
     1
 10
44.24897866732317
 20
-186.0516926618204
 11
44.65119356522609
 21
-176.462613888176
 72
     1
 10
44.65119356522609
 20
-176.462613888176
 11
44.65119356522609
 21
-186.0516926618204
 97
        0
 75
     2
 76
     1
 98
        0
  0
POLYLINE
  5
EE
330
1F
100
AcDbEntity
  8
Ebene 1
370
     0
100
AcDb2dPolyline
 66
     1
 10
0.0
 20
0.0
 30
0.0
  0
VERTEX
  5
EF
330
EE
100
AcDbEntity
  8
Ebene 1
370
     0
100
AcDbVertex
100
AcDb2dVertex
 10
51.44561088123582
 20
-186.4533907954005
 30
0.0
  0
VERTEX
  5
F0
330
EE
100
AcDbEntity
  8
Ebene 1
370
     0
100
AcDbVertex
100
AcDb2dVertex
 10
44.65119356522609
 20
-186.0516926618204
 30
0.0
  0
VERTEX
  5
F1
330
EE
100
AcDbEntity
  8
Ebene 1
370
     0
100
AcDbVertex
100
AcDb2dVertex
 10
51.44561088123582
 20
-186.0516926618204
 30
0.0
  0
VERTEX
  5
F2
330
EE
100
AcDbEntity
  8
Ebene 1
370
     0
100
AcDbVertex
100
AcDb2dVertex
 10
51.44561088123582
 20
-186.4533907954005
 30
0.0
  0
SEQEND
  5
F3
330
EE
100
AcDbEntity
  8
Ebene 1
370
     0
  0
HATCH
  5
F4
330
1F
100
AcDbEntity
  8
Ebene 1
 62
   179
420
  1709851
100
AcDbHatch
 10
0.0
 20
0.0
 30
0.0
210
0.0
220
0.0
230
1.0
  2
SOLID
 70
     1
 71
     0
 91
        1
 92
        1
 93
        3
 72
     1
 10
51.44561088123582
 20
-186.4533907954005
 11
44.65119356522609
 21
-186.0516926618204
 72
     1
 10
44.65119356522609
 20
-186.0516926618204
 11
51.44561088123582
 21
-186.0516926618204
 72
     1
 10
51.44561088123582
 20
-186.0516926618204
 11
51.44561088123582
 21
-186.4533907954005
 97
        0
 75
     2
 76
     1
 98
        0
  0
POLYLINE
  5
F5
330
1F
100
AcDbEntity
  8
Ebene 1
370
     0
100
AcDb2dPolyline
 66
     1
 10
0.0
 20
0.0
 30
0.0
  0
VERTEX
  5
F6
330
F5
100
AcDbEntity
  8
Ebene 1
370
     0
100
AcDbVertex
100
AcDb2dVertex
 10
164.6449028451235
 20
-176.462613888176
 30
0.0
  0
VERTEX
  5
F7
330
F5
100
AcDbEntity
  8
Ebene 1
370
     0
100
AcDbVertex
100
AcDb2dVertex
 10
164.2428602019949
 20
-186.0516926618204
 30
0.0
  0
VERTEX
  5
F8
330
F5
100
AcDbEntity
  8
Ebene 1
370
     0
100
AcDbVertex
100
AcDb2dVertex
 10
164.2428602019949
 20
-176.462613888176
 30
0.0
  0
VERTEX
  5
F9
330
F5
100
AcDbEntity
  8
Ebene 1
370
     0
100
AcDbVertex
100
AcDb2dVertex
 10
164.6449028451235
 20
-176.462613888176
 30
0.0
  0
SEQEND
  5
FA
330
F5
100
AcDbEntity
  8
Ebene 1
370
     0
  0
HATCH
  5
FB
330
1F
100
AcDbEntity
  8
Ebene 1
 62
   179
420
  1709851
100
AcDbHatch
 10
0.0
 20
0.0
 30
0.0
210
0.0
220
0.0
230
1.0
  2
SOLID
 70
     1
 71
     0
 91
        1
 92
        1
 93
        3
 72
     1
 10
164.6449028451235
 20
-176.462613888176
 11
164.2428602019949
 21
-186.0516926618204
 72
     1
 10
164.2428602019949
 20
-186.0516926618204
 11
164.2428602019949
 21
-176.462613888176
 72
     1
 10
164.2428602019949
 20
-176.462613888176
 11
164.6449028451235
 21
-176.462613888176
 97
        0
 75
     2
 76
     1
 98
        0
  0
POLYLINE
  5
FC
330
1F
100
AcDbEntity
  8
Ebene 1
370
     0
100
AcDb2dPolyline
 66
     1
 10
0.0
 20
0.0
 30
0.0
  0
VERTEX
  5
FD
330
FC
100
AcDbEntity
  8
Ebene 1
370
     0
100
AcDbVertex
100
AcDb2dVertex
 10
164.2428602019949
 20
-186.0516926618204
 30
0.0
  0
VERTEX
  5
FE
330
FC
100
AcDbEntity
  8
Ebene 1
370
     0
100
AcDbVertex
100
AcDb2dVertex
 10
157.4484428859851
 20
-186.4533907954005
 30
0.0
  0
VERTEX
  5
FF
330
FC
100
AcDbEntity
  8
Ebene 1
370
     0
100
AcDbVertex
100
AcDb2dVertex
 10
157.4484428859851
 20
-186.0516926618204
 30
0.0
  0
VERTEX
  5
100
330
FC
100
AcDbEntity
  8
Ebene 1
370
     0
100
AcDbVertex
100
AcDb2dVertex
 10
164.2428602019949
 20
-186.0516926618204
 30
0.0
  0
SEQEND
  5
101
330
FC
100
AcDbEntity
  8
Ebene 1
370
     0
  0
HATCH
  5
102
330
1F
100
AcDbEntity
  8
Ebene 1
 62
   179
420
  1709851
100
AcDbHatch
 10
0.0
 20
0.0
 30
0.0
210
0.0
220
0.0
230
1.0
  2
SOLID
 70
     1
 71
     0
 91
        1
 92
        1
 93
        3
 72
     1
 10
164.2428602019949
 20
-186.0516926618204
 11
157.4484428859851
 21
-186.4533907954005
 72
     1
 10
157.4484428859851
 20
-186.4533907954005
 11
157.4484428859851
 21
-186.0516926618204
 72
     1
 10
157.4484428859851
 20
-186.0516926618204
 11
164.2428602019949
 21
-186.0516926618204
 97
        0
 75
     2
 76
     1
 98
        0
  0
POLYLINE
  5
103
330
1F
100
AcDbEntity
  8
Ebene 1
370
     0
100
AcDb2dPolyline
 66
     1
 10
0.0
 20
0.0
 30
0.0
  0
VERTEX
  5
104
330
103
100
AcDbEntity
  8
Ebene 1
370
     0
100
AcDbVertex
100
AcDb2dVertex
 10
157.4484428859851
 20
-186.4533907954005
 30
0.0
  0
VERTEX
  5
105
330
103
100
AcDbEntity
  8
Ebene 1
370
     0
100
AcDbVertex
100
AcDb2dVertex
 10
164.2428602019949
 20
-186.0516926618204
 30
0.0
  0
VERTEX
  5
106
330
103
100
AcDbEntity
  8
Ebene 1
370
     0
100
AcDbVertex
100
AcDb2dVertex
 10
171.4393201611332
 20
-186.4533907954005
 30
0.0
  0
VERTEX
  5
107
330
103
100
AcDbEntity
  8
Ebene 1
370
     0
100
AcDbVertex
100
AcDb2dVertex
 10
157.4484428859851
 20
-186.4533907954005
 30
0.0
  0
SEQEND
  5
108
330
103
100
AcDbEntity
  8
Ebene 1
370
     0
  0
HATCH
  5
109
330
1F
100
AcDbEntity
  8
Ebene 1
 62
   179
420
  1709851
100
AcDbHatch
 10
0.0
 20
0.0
 30
0.0
210
0.0
220
0.0
230
1.0
  2
SOLID
 70
     1
 71
     0
 91
        1
 92
        1
 93
        3
 72
     1
 10
157.4484428859851
 20
-186.4533907954005
 11
164.2428602019949
 21
-186.0516926618204
 72
     1
 10
164.2428602019949
 20
-186.0516926618204
 11
171.4393201611332
 21
-186.4533907954005
 72
     1
 10
171.4393201611332
 20
-186.4533907954005
 11
157.4484428859851
 21
-186.4533907954005
 97
        0
 75
     2
 76
     1
 98
        0
  0
POLYLINE
  5
10A
330
1F
100
AcDbEntity
  8
Ebene 1
370
     0
100
AcDb2dPolyline
 66
     1
 10
0.0
 20
0.0
 30
0.0
  0
VERTEX
  5
10B
330
10A
100
AcDbEntity
  8
Ebene 1
370
     0
100
AcDbVertex
100
AcDb2dVertex
 10
171.4393201611332
 20
-186.4533907954005
 30
0.0
  0
VERTEX
  5
10C
330
10A
100
AcDbEntity
  8
Ebene 1
370
     0
100
AcDbVertex
100
AcDb2dVertex
 10
164.2428602019949
 20
-186.0516926618204
 30
0.0
  0
VERTEX
  5
10D
330
10A
100
AcDbEntity
  8
Ebene 1
370
     0
100
AcDbVertex
100
AcDb2dVertex
 10
164.6449028451235
 20
-186.0516926618204
 30
0.0
  0
VERTEX
  5
10E
330
10A
100
AcDbEntity
  8
Ebene 1
370
     0
100
AcDbVertex
100
AcDb2dVertex
 10
171.4393201611332
 20
-186.4533907954005
 30
0.0
  0
SEQEND
  5
10F
330
10A
100
AcDbEntity
  8
Ebene 1
370
     0
  0
HATCH
  5
110
330
1F
100
AcDbEntity
  8
Ebene 1
 62
   179
420
  1709851
100
AcDbHatch
 10
0.0
 20
0.0
 30
0.0
210
0.0
220
0.0
230
1.0
  2
SOLID
 70
     1
 71
     0
 91
        1
 92
        1
 93
        3
 72
     1
 10
171.4393201611332
 20
-186.4533907954005
 11
164.2428602019949
 21
-186.0516926618204
 72
     1
 10
164.2428602019949
 20
-186.0516926618204
 11
164.6449028451235
 21
-186.0516926618204
 72
     1
 10
164.6449028451235
 20
-186.0516926618204
 11
171.4393201611332
 21
-186.4533907954005
 97
        0
 75
     2
 76
     1
 98
        0
  0
POLYLINE
  5
111
330
1F
100
AcDbEntity
  8
Ebene 1
370
     0
100
AcDb2dPolyline
 66
     1
 10
0.0
 20
0.0
 30
0.0
  0
VERTEX
  5
112
330
111
100
AcDbEntity
  8
Ebene 1
370
     0
100
AcDbVertex
100
AcDb2dVertex
 10
164.6449028451235
 20
-186.0516926618204
 30
0.0
  0
VERTEX
  5
113
330
111
100
AcDbEntity
  8
Ebene 1
370
     0
100
AcDbVertex
100
AcDb2dVertex
 10
164.2428602019949
 20
-186.0516926618204
 30
0.0
  0
VERTEX
  5
114
330
111
100
AcDbEntity
  8
Ebene 1
370
     0
100
AcDbVertex
100
AcDb2dVertex
 10
164.6449028451235
 20
-176.462613888176
 30
0.0
  0
VERTEX
  5
115
330
111
100
AcDbEntity
  8
Ebene 1
370
     0
100
AcDbVertex
100
AcDb2dVertex
 10
164.6449028451235
 20
-186.0516926618204
 30
0.0
  0
SEQEND
  5
116
330
111
100
AcDbEntity
  8
Ebene 1
370
     0
  0
HATCH
  5
117
330
1F
100
AcDbEntity
  8
Ebene 1
 62
   179
420
  1709851
100
AcDbHatch
 10
0.0
 20
0.0
 30
0.0
210
0.0
220
0.0
230
1.0
  2
SOLID
 70
     1
 71
     0
 91
        1
 92
        1
 93
        3
 72
     1
 10
164.6449028451235
 20
-186.0516926618204
 11
164.2428602019949
 21
-186.0516926618204
 72
     1
 10
164.2428602019949
 20
-186.0516926618204
 11
164.6449028451235
 21
-176.462613888176
 72
     1
 10
164.6449028451235
 20
-176.462613888176
 11
164.6449028451235
 21
-186.0516926618204
 97
        0
 75
     2
 76
     1
 98
        0
  0
POLYLINE
  5
118
330
1F
100
AcDbEntity
  8
Ebene 1
370
     0
100
AcDb2dPolyline
 66
     1
 10
0.0
 20
0.0
 30
0.0
  0
VERTEX
  5
119
330
118
100
AcDbEntity
  8
Ebene 1
370
     0
100
AcDbVertex
100
AcDb2dVertex
 10
171.4393201611332
 20
-186.4533907954005
 30
0.0
  0
VERTEX
  5
11A
330
118
100
AcDbEntity
  8
Ebene 1
370
     0
100
AcDbVertex
100
AcDb2dVertex
 10
164.6449028451235
 20
-186.0516926618204
 30
0.0
  0
VERTEX
  5
11B
330
118
100
AcDbEntity
  8
Ebene 1
370
     0
100
AcDbVertex
100
AcDb2dVertex
 10
171.4393201611332
 20
-186.0516926618204
 30
0.0
  0
VERTEX
  5
11C
330
118
100
AcDbEntity
  8
Ebene 1
370
     0
100
AcDbVertex
100
AcDb2dVertex
 10
171.4393201611332
 20
-186.4533907954005
 30
0.0
  0
SEQEND
  5
11D
330
118
100
AcDbEntity
  8
Ebene 1
370
     0
  0
HATCH
  5
11E
330
1F
100
AcDbEntity
  8
Ebene 1
 62
   179
420
  1709851
100
AcDbHatch
 10
0.0
 20
0.0
 30
0.0
210
0.0
220
0.0
230
1.0
  2
SOLID
 70
     1
 71
     0
 91
        1
 92
        1
 93
        3
 72
     1
 10
171.4393201611332
 20
-186.4533907954005
 11
164.6449028451235
 21
-186.0516926618204
 72
     1
 10
164.6449028451235
 20
-186.0516926618204
 11
171.4393201611332
 21
-186.0516926618204
 72
     1
 10
171.4393201611332
 20
-186.0516926618204
 11
171.4393201611332
 21
-186.4533907954005
 97
        0
 75
     2
 76
     1
 98
        0
  0
POLYLINE
  5
11F
330
1F
100
AcDbEntity
  8
Ebene 1
370
     0
100
AcDb2dPolyline
 66
     1
 10
0.0
 20
0.0
 30
0.0
  0
VERTEX
  5
120
330
11F
100
AcDbEntity
  8
Ebene 1
370
     0
100
AcDbVertex
100
AcDb2dVertex
 10
188.3516384077732
 20
-188.9297254301981
 30
0.0
  0
VERTEX
  5
121
330
11F
100
AcDbEntity
  8
Ebene 1
370
     0
100
AcDbVertex
100
AcDb2dVertex
 10
165.237803778135
 20
-187.342225430595
 30
0.0
  0
VERTEX
  5
122
330
11F
100
AcDbEntity
  8
Ebene 1
370
     0
100
AcDbVertex
100
AcDb2dVertex
 10
165.237803778135
 20
-188.9297254301981
 30
0.0
  0
VERTEX
  5
123
330
11F
100
AcDbEntity
  8
Ebene 1
370
     0
100
AcDbVertex
100
AcDb2dVertex
 10
188.3516384077732
 20
-188.9297254301981
 30
0.0
  0
SEQEND
  5
124
330
11F
100
AcDbEntity
  8
Ebene 1
370
     0
  0
HATCH
  5
125
330
1F
100
AcDbEntity
  8
Ebene 1
 62
   254
420
 14803683
100
AcDbHatch
 10
0.0
 20
0.0
 30
0.0
210
0.0
220
0.0
230
1.0
  2
SOLID
 70
     1
 71
     0
 91
        1
 92
        1
 93
        3
 72
     1
 10
188.3516384077732
 20
-188.9297254301981
 11
165.237803778135
 21
-187.342225430595
 72
     1
 10
165.237803778135
 20
-187.342225430595
 11
165.237803778135
 21
-188.9297254301981
 72
     1
 10
165.237803778135
 20
-188.9297254301981
 11
188.3516384077732
 21
-188.9297254301981
 97
        0
 75
     2
 76
     1
 98
        0
  0
POLYLINE
  5
126
330
1F
100
AcDbEntity
  8
Ebene 1
370
     0
100
AcDb2dPolyline
 66
     1
 10
0.0
 20
0.0
 30
0.0
  0
VERTEX
  5
127
330
126
100
AcDbEntity
  8
Ebene 1
370
     0
100
AcDbVertex
100
AcDb2dVertex
 10
165.237803778135
 20
-187.342225430595
 30
0.0
  0
VERTEX
  5
128
330
126
100
AcDbEntity
  8
Ebene 1
370
     0
100
AcDbVertex
100
AcDb2dVertex
 10
188.3519829173217
 20
-188.9297254301981
 30
0.0
  0
VERTEX
  5
129
330
126
100
AcDbEntity
  8
Ebene 1
370
     0
100
AcDbVertex
100
AcDb2dVertex
 10
188.3519829173217
 20
-187.342225430595
 30
0.0
  0
VERTEX
  5
12A
330
126
100
AcDbEntity
  8
Ebene 1
370
     0
100
AcDbVertex
100
AcDb2dVertex
 10
165.237803778135
 20
-187.342225430595
 30
0.0
  0
SEQEND
  5
12B
330
126
100
AcDbEntity
  8
Ebene 1
370
     0
  0
HATCH
  5
12C
330
1F
100
AcDbEntity
  8
Ebene 1
 62
   254
420
 14803683
100
AcDbHatch
 10
0.0
 20
0.0
 30
0.0
210
0.0
220
0.0
230
1.0
  2
SOLID
 70
     1
 71
     0
 91
        1
 92
        1
 93
        3
 72
     1
 10
165.237803778135
 20
-187.342225430595
 11
188.3519829173217
 21
-188.9297254301981
 72
     1
 10
188.3519829173217
 20
-188.9297254301981
 11
188.3519829173217
 21
-187.342225430595
 72
     1
 10
188.3519829173217
 20
-187.342225430595
 11
165.237803778135
 21
-187.342225430595
 97
        0
 75
     2
 76
     1
 98
        0
  0
POLYLINE
  5
12D
330
1F
100
AcDbEntity
  8
Ebene 1
370
     0
100
AcDb2dPolyline
 66
     1
 10
0.0
 20
0.0
 30
0.0
  0
VERTEX
  5
12E
330
12D
100
AcDbEntity
  8
Ebene 1
370
     0
100
AcDbVertex
100
AcDb2dVertex
 10
163.6289441865233
 20
-188.9297254301981
 30
0.0
  0
VERTEX
  5
12F
330
12D
100
AcDbEntity
  8
Ebene 1
370
     0
100
AcDbVertex
100
AcDb2dVertex
 10
45.24374998868907
 20
-187.342225430595
 30
0.0
  0
VERTEX
  5
130
330
12D
100
AcDbEntity
  8
Ebene 1
370
     0
100
AcDbVertex
100
AcDb2dVertex
 10
45.24374998868907
 20
-188.9297254301981
 30
0.0
  0
VERTEX
  5
131
330
12D
100
AcDbEntity
  8
Ebene 1
370
     0
100
AcDbVertex
100
AcDb2dVertex
 10
163.6289441865233
 20
-188.9297254301981
 30
0.0
  0
SEQEND
  5
132
330
12D
100
AcDbEntity
  8
Ebene 1
370
     0
  0
HATCH
  5
133
330
1F
100
AcDbEntity
  8
Ebene 1
 62
   254
420
 14803683
100
AcDbHatch
 10
0.0
 20
0.0
 30
0.0
210
0.0
220
0.0
230
1.0
  2
SOLID
 70
     1
 71
     0
 91
        1
 92
        1
 93
        3
 72
     1
 10
163.6289441865233
 20
-188.9297254301981
 11
45.24374998868907
 21
-187.342225430595
 72
     1
 10
45.24374998868907
 20
-187.342225430595
 11
45.24374998868907
 21
-188.9297254301981
 72
     1
 10
45.24374998868907
 20
-188.9297254301981
 11
163.6289441865233
 21
-188.9297254301981
 97
        0
 75
     2
 76
     1
 98
        0
  0
POLYLINE
  5
134
330
1F
100
AcDbEntity
  8
Ebene 1
370
     0
100
AcDb2dPolyline
 66
     1
 10
0.0
 20
0.0
 30
0.0
  0
VERTEX
  5
135
330
134
100
AcDbEntity
  8
Ebene 1
370
     0
100
AcDbVertex
100
AcDb2dVertex
 10
45.24374998868907
 20
-187.342225430595
 30
0.0
  0
VERTEX
  5
136
330
134
100
AcDbEntity
  8
Ebene 1
370
     0
100
AcDbVertex
100
AcDb2dVertex
 10
163.6289441865233
 20
-188.9297254301981
 30
0.0
  0
VERTEX
  5
137
330
134
100
AcDbEntity
  8
Ebene 1
370
     0
100
AcDbVertex
100
AcDb2dVertex
 10
163.6289441865233
 20
-187.342225430595
 30
0.0
  0
VERTEX
  5
138
330
134
100
AcDbEntity
  8
Ebene 1
370
     0
100
AcDbVertex
100
AcDb2dVertex
 10
45.24374998868907
 20
-187.342225430595
 30
0.0
  0
SEQEND
  5
139
330
134
100
AcDbEntity
  8
Ebene 1
370
     0
  0
HATCH
  5
13A
330
1F
100
AcDbEntity
  8
Ebene 1
 62
   254
420
 14803683
100
AcDbHatch
 10
0.0
 20
0.0
 30
0.0
210
0.0
220
0.0
230
1.0
  2
SOLID
 70
     1
 71
     0
 91
        1
 92
        1
 93
        3
 72
     1
 10
45.24374998868907
 20
-187.342225430595
 11
163.6289441865233
 21
-188.9297254301981
 72
     1
 10
163.6289441865233
 20
-188.9297254301981
 11
163.6289441865233
 21
-187.342225430595
 72
     1
 10
163.6289441865233
 20
-187.342225430595
 11
45.24374998868907
 21
-187.342225430595
 97
        0
 75
     2
 76
     1
 98
        0
  0
POLYLINE
  5
13B
330
1F
100
AcDbEntity
  8
Ebene 1
370
     0
100
AcDb2dPolyline
 66
     1
 10
0.0
 20
0.0
 30
0.0
  0
VERTEX
  5
13C
330
13B
100
AcDbEntity
  8
Ebene 1
370
     0
100
AcDbVertex
100
AcDb2dVertex
 10
20.35190157911341
 20
-188.9297254301981
 30
0.0
  0
VERTEX
  5
13D
330
13B
100
AcDbEntity
  8
Ebene 1
370
     0
100
AcDbVertex
100
AcDb2dVertex
 10
43.6564222438602
 20
-188.9297254301981
 30
0.0
  0
VERTEX
  5
13E
330
13B
100
AcDbEntity
  8
Ebene 1
370
     0
100
AcDbVertex
100
AcDb2dVertex
 10
20.35190157911341
 20
-187.342225430595
 30
0.0
  0
VERTEX
  5
13F
330
13B
100
AcDbEntity
  8
Ebene 1
370
     0
100
AcDbVertex
100
AcDb2dVertex
 10
20.35190157911341
 20
-188.9297254301981
 30
0.0
  0
SEQEND
  5
140
330
13B
100
AcDbEntity
  8
Ebene 1
370
     0
  0
HATCH
  5
141
330
1F
100
AcDbEntity
  8
Ebene 1
 62
   254
420
 14803683
100
AcDbHatch
 10
0.0
 20
0.0
 30
0.0
210
0.0
220
0.0
230
1.0
  2
SOLID
 70
     1
 71
     0
 91
        1
 92
        1
 93
        3
 72
     1
 10
20.35190157911341
 20
-188.9297254301981
 11
43.6564222438602
 21
-188.9297254301981
 72
     1
 10
43.6564222438602
 20
-188.9297254301981
 11
20.35190157911341
 21
-187.342225430595
 72
     1
 10
20.35190157911341
 20
-187.342225430595
 11
20.35190157911341
 21
-188.9297254301981
 97
        0
 75
     2
 76
     1
 98
        0
  0
POLYLINE
  5
142
330
1F
100
AcDbEntity
  8
Ebene 1
370
     0
100
AcDb2dPolyline
 66
     1
 10
0.0
 20
0.0
 30
0.0
  0
VERTEX
  5
143
330
142
100
AcDbEntity
  8
Ebene 1
370
     0
100
AcDbVertex
100
AcDb2dVertex
 10
20.35190157911341
 20
-187.342225430595
 30
0.0
  0
VERTEX
  5
144
330
142
100
AcDbEntity
  8
Ebene 1
370
     0
100
AcDbVertex
100
AcDb2dVertex
 10
43.6564222438602
 20
-188.9297254301981
 30
0.0
  0
VERTEX
  5
145
330
142
100
AcDbEntity
  8
Ebene 1
370
     0
100
AcDbVertex
100
AcDb2dVertex
 10
43.6564222438602
 20
-187.342225430595
 30
0.0
  0
VERTEX
  5
146
330
142
100
AcDbEntity
  8
Ebene 1
370
     0
100
AcDbVertex
100
AcDb2dVertex
 10
20.35190157911341
 20
-187.342225430595
 30
0.0
  0
SEQEND
  5
147
330
142
100
AcDbEntity
  8
Ebene 1
370
     0
  0
HATCH
  5
148
330
1F
100
AcDbEntity
  8
Ebene 1
 62
   254
420
 14803683
100
AcDbHatch
 10
0.0
 20
0.0
 30
0.0
210
0.0
220
0.0
230
1.0
  2
SOLID
 70
     1
 71
     0
 91
        1
 92
        1
 93
        3
 72
     1
 10
20.35190157911341
 20
-187.342225430595
 11
43.6564222438602
 21
-188.9297254301981
 72
     1
 10
43.6564222438602
 20
-188.9297254301981
 11
43.6564222438602
 21
-187.342225430595
 72
     1
 10
43.6564222438602
 20
-187.342225430595
 11
20.35190157911341
 21
-187.342225430595
 97
        0
 75
     2
 76
     1
 98
        0
  0
POLYLINE
  5
149
330
1F
100
AcDbEntity
  8
Ebene 1
370
     0
100
AcDb2dPolyline
 66
     1
 10
0.0
 20
0.0
 30
0.0
  0
VERTEX
  5
14A
330
149
100
AcDbEntity
  8
Ebene 1
370
     0
100
AcDbVertex
100
AcDb2dVertex
 10
104.6375406639448
 20
-176.462613888176
 30
0.0
  0
VERTEX
  5
14B
330
149
100
AcDbEntity
  8
Ebene 1
370
     0
100
AcDbVertex
100
AcDb2dVertex
 10
104.2349812564933
 20
-186.0516926618204
 30
0.0
  0
VERTEX
  5
14C
330
149
100
AcDbEntity
  8
Ebene 1
370
     0
100
AcDbVertex
100
AcDb2dVertex
 10
104.2349812564933
 20
-176.462613888176
 30
0.0
  0
VERTEX
  5
14D
330
149
100
AcDbEntity
  8
Ebene 1
370
     0
100
AcDbVertex
100
AcDb2dVertex
 10
104.6375406639448
 20
-176.462613888176
 30
0.0
  0
SEQEND
  5
14E
330
149
100
AcDbEntity
  8
Ebene 1
370
     0
  0
HATCH
  5
14F
330
1F
100
AcDbEntity
  8
Ebene 1
 62
   179
420
  1709851
100
AcDbHatch
 10
0.0
 20
0.0
 30
0.0
210
0.0
220
0.0
230
1.0
  2
SOLID
 70
     1
 71
     0
 91
        1
 92
        1
 93
        3
 72
     1
 10
104.6375406639448
 20
-176.462613888176
 11
104.2349812564933
 21
-186.0516926618204
 72
     1
 10
104.2349812564933
 20
-186.0516926618204
 11
104.2349812564933
 21
-176.462613888176
 72
     1
 10
104.2349812564933
 20
-176.462613888176
 11
104.6375406639448
 21
-176.462613888176
 97
        0
 75
     2
 76
     1
 98
        0
  0
POLYLINE
  5
150
330
1F
100
AcDbEntity
  8
Ebene 1
370
     0
100
AcDb2dPolyline
 66
     1
 10
0.0
 20
0.0
 30
0.0
  0
VERTEX
  5
151
330
150
100
AcDbEntity
  8
Ebene 1
370
     0
100
AcDbVertex
100
AcDb2dVertex
 10
104.2351535112676
 20
-186.0516926618204
 30
0.0
  0
VERTEX
  5
152
330
150
100
AcDbEntity
  8
Ebene 1
370
     0
100
AcDbVertex
100
AcDb2dVertex
 10
97.44073619525787
 20
-186.4533907954005
 30
0.0
  0
VERTEX
  5
153
330
150
100
AcDbEntity
  8
Ebene 1
370
     0
100
AcDbVertex
100
AcDb2dVertex
 10
97.44073619525787
 20
-186.0516926618204
 30
0.0
  0
VERTEX
  5
154
330
150
100
AcDbEntity
  8
Ebene 1
370
     0
100
AcDbVertex
100
AcDb2dVertex
 10
104.2351535112676
 20
-186.0516926618204
 30
0.0
  0
SEQEND
  5
155
330
150
100
AcDbEntity
  8
Ebene 1
370
     0
  0
HATCH
  5
156
330
1F
100
AcDbEntity
  8
Ebene 1
 62
   179
420
  1709851
100
AcDbHatch
 10
0.0
 20
0.0
 30
0.0
210
0.0
220
0.0
230
1.0
  2
SOLID
 70
     1
 71
     0
 91
        1
 92
        1
 93
        3
 72
     1
 10
104.2351535112676
 20
-186.0516926618204
 11
97.44073619525787
 21
-186.4533907954005
 72
     1
 10
97.44073619525787
 20
-186.4533907954005
 11
97.44073619525787
 21
-186.0516926618204
 72
     1
 10
97.44073619525787
 20
-186.0516926618204
 11
104.2351535112676
 21
-186.0516926618204
 97
        0
 75
     2
 76
     1
 98
        0
  0
POLYLINE
  5
157
330
1F
100
AcDbEntity
  8
Ebene 1
370
     0
100
AcDb2dPolyline
 66
     1
 10
0.0
 20
0.0
 30
0.0
  0
VERTEX
  5
158
330
157
100
AcDbEntity
  8
Ebene 1
370
     0
100
AcDbVertex
100
AcDb2dVertex
 10
97.44073619525787
 20
-186.4533907954005
 30
0.0
  0
VERTEX
  5
159
330
157
100
AcDbEntity
  8
Ebene 1
370
     0
100
AcDbVertex
100
AcDb2dVertex
 10
104.2353257660419
 20
-186.0516926618204
 30
0.0
  0
VERTEX
  5
15A
330
157
100
AcDbEntity
  8
Ebene 1
370
     0
100
AcDbVertex
100
AcDb2dVertex
 10
111.4529730624145
 20
-186.4533907954005
 30
0.0
  0
VERTEX
  5
15B
330
157
100
AcDbEntity
  8
Ebene 1
370
     0
100
AcDbVertex
100
AcDb2dVertex
 10
97.44073619525787
 20
-186.4533907954005
 30
0.0
  0
SEQEND
  5
15C
330
157
100
AcDbEntity
  8
Ebene 1
370
     0
  0
HATCH
  5
15D
330
1F
100
AcDbEntity
  8
Ebene 1
 62
   179
420
  1709851
100
AcDbHatch
 10
0.0
 20
0.0
 30
0.0
210
0.0
220
0.0
230
1.0
  2
SOLID
 70
     1
 71
     0
 91
        1
 92
        1
 93
        3
 72
     1
 10
97.44073619525787
 20
-186.4533907954005
 11
104.2353257660419
 21
-186.0516926618204
 72
     1
 10
104.2353257660419
 20
-186.0516926618204
 11
111.4529730624145
 21
-186.4533907954005
 72
     1
 10
111.4529730624145
 20
-186.4533907954005
 11
97.44073619525787
 21
-186.4533907954005
 97
        0
 75
     2
 76
     1
 98
        0
  0
POLYLINE
  5
15E
330
1F
100
AcDbEntity
  8
Ebene 1
370
     0
100
AcDb2dPolyline
 66
     1
 10
0.0
 20
0.0
 30
0.0
  0
VERTEX
  5
15F
330
15E
100
AcDbEntity
  8
Ebene 1
370
     0
100
AcDbVertex
100
AcDb2dVertex
 10
111.4529730624145
 20
-186.4533907954005
 30
0.0
  0
VERTEX
  5
160
330
15E
100
AcDbEntity
  8
Ebene 1
370
     0
100
AcDbVertex
100
AcDb2dVertex
 10
104.2351535112676
 20
-186.0516926618204
 30
0.0
  0
VERTEX
  5
161
330
15E
100
AcDbEntity
  8
Ebene 1
370
     0
100
AcDbVertex
100
AcDb2dVertex
 10
104.637712918719
 20
-186.0516926618204
 30
0.0
  0
VERTEX
  5
162
330
15E
100
AcDbEntity
  8
Ebene 1
370
     0
100
AcDbVertex
100
AcDb2dVertex
 10
111.4529730624145
 20
-186.4533907954005
 30
0.0
  0
SEQEND
  5
163
330
15E
100
AcDbEntity
  8
Ebene 1
370
     0
  0
HATCH
  5
164
330
1F
100
AcDbEntity
  8
Ebene 1
 62
   179
420
  1709851
100
AcDbHatch
 10
0.0
 20
0.0
 30
0.0
210
0.0
220
0.0
230
1.0
  2
SOLID
 70
     1
 71
     0
 91
        1
 92
        1
 93
        3
 72
     1
 10
111.4529730624145
 20
-186.4533907954005
 11
104.2351535112676
 21
-186.0516926618204
 72
     1
 10
104.2351535112676
 20
-186.0516926618204
 11
104.637712918719
 21
-186.0516926618204
 72
     1
 10
104.637712918719
 20
-186.0516926618204
 11
111.4529730624145
 21
-186.4533907954005
 97
        0
 75
     2
 76
     1
 98
        0
  0
POLYLINE
  5
165
330
1F
100
AcDbEntity
  8
Ebene 1
370
     0
100
AcDb2dPolyline
 66
     1
 10
0.0
 20
0.0
 30
0.0
  0
VERTEX
  5
166
330
165
100
AcDbEntity
  8
Ebene 1
370
     0
100
AcDbVertex
100
AcDb2dVertex
 10
104.6375406639448
 20
-186.0516926618204
 30
0.0
  0
VERTEX
  5
167
330
165
100
AcDbEntity
  8
Ebene 1
370
     0
100
AcDbVertex
100
AcDb2dVertex
 10
104.2349812564933
 20
-186.0516926618204
 30
0.0
  0
VERTEX
  5
168
330
165
100
AcDbEntity
  8
Ebene 1
370
     0
100
AcDbVertex
100
AcDb2dVertex
 10
104.6375406639448
 20
-176.462613888176
 30
0.0
  0
VERTEX
  5
169
330
165
100
AcDbEntity
  8
Ebene 1
370
     0
100
AcDbVertex
100
AcDb2dVertex
 10
104.6375406639448
 20
-186.0516926618204
 30
0.0
  0
SEQEND
  5
16A
330
165
100
AcDbEntity
  8
Ebene 1
370
     0
  0
HATCH
  5
16B
330
1F
100
AcDbEntity
  8
Ebene 1
 62
   179
420
  1709851
100
AcDbHatch
 10
0.0
 20
0.0
 30
0.0
210
0.0
220
0.0
230
1.0
  2
SOLID
 70
     1
 71
     0
 91
        1
 92
        1
 93
        3
 72
     1
 10
104.6375406639448
 20
-186.0516926618204
 11
104.2349812564933
 21
-186.0516926618204
 72
     1
 10
104.2349812564933
 20
-186.0516926618204
 11
104.6375406639448
 21
-176.462613888176
 72
     1
 10
104.6375406639448
 20
-176.462613888176
 11
104.6375406639448
 21
-186.0516926618204
 97
        0
 75
     2
 76
     1
 98
        0
  0
POLYLINE
  5
16C
330
1F
100
AcDbEntity
  8
Ebene 1
370
     0
100
AcDb2dPolyline
 66
     1
 10
0.0
 20
0.0
 30
0.0
  0
VERTEX
  5
16D
330
16C
100
AcDbEntity
  8
Ebene 1
370
     0
100
AcDbVertex
100
AcDb2dVertex
 10
111.4529730624145
 20
-186.4533907954005
 30
0.0
  0
VERTEX
  5
16E
330
16C
100
AcDbEntity
  8
Ebene 1
370
     0
100
AcDbVertex
100
AcDb2dVertex
 10
104.637712918719
 20
-186.0516926618204
 30
0.0
  0
VERTEX
  5
16F
330
16C
100
AcDbEntity
  8
Ebene 1
370
     0
100
AcDbVertex
100
AcDb2dVertex
 10
111.4529730624145
 20
-186.0516926618204
 30
0.0
  0
VERTEX
  5
170
330
16C
100
AcDbEntity
  8
Ebene 1
370
     0
100
AcDbVertex
100
AcDb2dVertex
 10
111.4529730624145
 20
-186.4533907954005
 30
0.0
  0
SEQEND
  5
171
330
16C
100
AcDbEntity
  8
Ebene 1
370
     0
  0
HATCH
  5
172
330
1F
100
AcDbEntity
  8
Ebene 1
 62
   179
420
  1709851
100
AcDbHatch
 10
0.0
 20
0.0
 30
0.0
210
0.0
220
0.0
230
1.0
  2
SOLID
 70
     1
 71
     0
 91
        1
 92
        1
 93
        3
 72
     1
 10
111.4529730624145
 20
-186.4533907954005
 11
104.637712918719
 21
-186.0516926618204
 72
     1
 10
104.637712918719
 20
-186.0516926618204
 11
111.4529730624145
 21
-186.0516926618204
 72
     1
 10
111.4529730624145
 20
-186.0516926618204
 11
111.4529730624145
 21
-186.4533907954005
 97
        0
 75
     2
 76
     1
 98
        0
  0
INSERT
  5
174
330
1F
100
AcDbEntity
  8
Ebene 1
100
AcDbBlockReference
  2
block 3
 10
0.0
 20
0.0
 30
0.0
  0
POLYLINE
  5
248
330
1F
100
AcDbEntity
  8
Ebene 1
 62
   179
420
  1709851
370
    25
100
AcDb2dPolyline
 66
     1
 10
0.0
 20
0.0
 30
0.0
  0
VERTEX
  5
249
330
248
100
AcDbEntity
  8
Ebene 1
 62
   179
420
  1709851
370
    25
100
AcDbVertex
100
AcDb2dVertex
 10
104.2349812564933
 20
-186.0516926618204
 30
0.0
  0
VERTEX
  5
24A
330
248
100
AcDbEntity
  8
Ebene 1
 62
   179
420
  1709851
370
    25
100
AcDbVertex
100
AcDb2dVertex
 10
104.2349812564933
 20
-181.9451388434026
 30
0.0
  0
SEQEND
  5
24B
330
248
100
AcDbEntity
  8
Ebene 1
370
    25
  0
POLYLINE
  5
24C
330
1F
100
AcDbEntity
  8
Ebene 1
 62
   179
420
  1709851
370
    25
100
AcDb2dPolyline
 66
     1
 10
0.0
 20
0.0
 30
0.0
  0
VERTEX
  5
24D
330
24C
100
AcDbEntity
  8
Ebene 1
 62
   179
420
  1709851
370
    25
100
AcDbVertex
100
AcDb2dVertex
 10
164.2428602019949
 20
-186.0516926618204
 30
0.0
  0
VERTEX
  5
24E
330
24C
100
AcDbEntity
  8
Ebene 1
 62
   179
420
  1709851
370
    25
100
AcDbVertex
100
AcDb2dVertex
 10
164.2428602019949
 20
-181.9451388434026
 30
0.0
  0
SEQEND
  5
24F
330
24C
100
AcDbEntity
  8
Ebene 1
370
    25
  0
POLYLINE
  5
250
330
1F
100
AcDbEntity
  8
Ebene 1
 62
   179
420
  1709851
370
    35
100
AcDb2dPolyline
 66
     1
 10
0.0
 20
0.0
 30
0.0
  0
VERTEX
  5
251
330
250
100
AcDbEntity
  8
Ebene 1
 62
   179
420
  1709851
370
    35
100
AcDbVertex
100
AcDb2dVertex
 10
40.9046522250169
 20
-150.6395561689373
 30
0.0
  0
VERTEX
  5
252
330
250
100
AcDbEntity
  8
Ebene 1
 62
   179
420
  1709851
370
    35
100
AcDbVertex
100
AcDb2dVertex
 10
40.9046522250169
 20
-143.633437735359
 30
0.0
  0
SEQEND
  5
253
330
250
100
AcDbEntity
  8
Ebene 1
370
    35
  0
POLYLINE
  5
254
330
1F
100
AcDbEntity
  8
Ebene 1
 62
   179
420
  1709851
370
    35
100
AcDb2dPolyline
 66
     1
 10
0.0
 20
0.0
 30
0.0
  0
VERTEX
  5
255
330
254
100
AcDbEntity
  8
Ebene 1
 62
   179
420
  1709851
370
    35
100
AcDbVertex
100
AcDb2dVertex
 10
40.9046522250169
 20
-152.6294433212177
 30
0.0
  0
VERTEX
  5
256
330
254
100
AcDbEntity
  8
Ebene 1
 62
   179
420
  1709851
370
    35
100
AcDbVertex
100
AcDb2dVertex
 10
40.9046522250169
 20
-151.6344997450775
 30
0.0
  0
SEQEND
  5
257
330
254
100
AcDbEntity
  8
Ebene 1
370
    35
  0
POLYLINE
  5
258
330
1F
100
AcDbEntity
  8
Ebene 1
 62
   179
420
  1709851
370
    35
100
AcDb2dPolyline
 66
     1
 10
0.0
 20
0.0
 30
0.0
  0
VERTEX
  5
259
330
258
100
AcDbEntity
  8
Ebene 1
 62
   179
420
  1709851
370
    35
100
AcDbVertex
100
AcDb2dVertex
 10
40.9046522250169
 20
-160.6303330761619
 30
0.0
  0
VERTEX
  5
25A
330
258
100
AcDbEntity
  8
Ebene 1
 62
   179
420
  1709851
370
    35
100
AcDbVertex
100
AcDb2dVertex
 10
40.9046522250169
 20
-153.6243868973578
 30
0.0
  0
SEQEND
  5
25B
330
258
100
AcDbEntity
  8
Ebene 1
370
    35
  0
POLYLINE
  5
25C
330
1F
100
AcDbEntity
  8
Ebene 1
 62
   179
420
  1709851
370
    35
100
AcDb2dPolyline
 66
     1
 10
0.0
 20
0.0
 30
0.0
  0
VERTEX
  5
25D
330
25C
100
AcDbEntity
  8
Ebene 1
 62
   179
420
  1709851
370
    35
100
AcDbVertex
100
AcDb2dVertex
 10
40.9046522250169
 20
-162.6202202284422
 30
0.0
  0
VERTEX
  5
25E
330
25C
100
AcDbEntity
  8
Ebene 1
 62
   179
420
  1709851
370
    35
100
AcDbVertex
100
AcDb2dVertex
 10
40.9046522250169
 20
-161.625276652302
 30
0.0
  0
SEQEND
  5
25F
330
25C
100
AcDbEntity
  8
Ebene 1
370
    35
  0
POLYLINE
  5
260
330
1F
100
AcDbEntity
  8
Ebene 1
 62
   179
420
  1709851
370
    35
100
AcDb2dPolyline
 66
     1
 10
0.0
 20
0.0
 30
0.0
  0
VERTEX
  5
261
330
260
100
AcDbEntity
  8
Ebene 1
 62
   179
420
  1709851
370
    35
100
AcDbVertex
100
AcDb2dVertex
 10
40.9046522250169
 20
-166.5359157569771
 30
0.0
  0
VERTEX
  5
262
330
260
100
AcDbEntity
  8
Ebene 1
 62
   179
420
  1709851
370
    35
100
AcDbVertex
100
AcDb2dVertex
 10
40.9046522250169
 20
-163.6358343774938
 30
0.0
  0
SEQEND
  5
263
330
260
100
AcDbEntity
  8
Ebene 1
370
    35
  0
POLYLINE
  5
264
330
1F
100
AcDbEntity
  8
Ebene 1
 62
   179
420
  1709851
370
    18
100
AcDb2dPolyline
 66
     1
 10
0.0
 20
0.0
 30
0.0
  0
VERTEX
  5
265
330
264
100
AcDbEntity
  8
Ebene 1
 62
   179
420
  1709851
370
    18
100
AcDbVertex
100
AcDb2dVertex
 10
44.24897866732317
 20
-186.0516926618204
 30
0.0
  0
VERTEX
  5
266
330
264
100
AcDbEntity
  8
Ebene 1
 62
   179
420
  1709851
370
    18
100
AcDbVertex
100
AcDb2dVertex
 10
37.45456135131344
 20
-186.0516926618204
 30
0.0
  0
VERTEX
  5
267
330
264
100
AcDbEntity
  8
Ebene 1
 62
   179
420
  1709851
370
    18
100
AcDbVertex
100
AcDb2dVertex
 10
37.45456135131344
 20
-186.4533907954005
 30
0.0
  0
SEQEND
  5
268
330
264
100
AcDbEntity
  8
Ebene 1
370
    18
  0
POLYLINE
  5
269
330
1F
100
AcDbEntity
  8
Ebene 1
 62
   179
420
  1709851
370
    18
100
AcDb2dPolyline
 66
     1
 10
0.0
 20
0.0
 30
0.0
  0
VERTEX
  5
26A
330
269
100
AcDbEntity
  8
Ebene 1
 62
   179
420
  1709851
370
    18
100
AcDbVertex
100
AcDb2dVertex
 10
44.65119356522609
 20
-176.462613888176
 30
0.0
  0
VERTEX
  5
26B
330
269
100
AcDbEntity
  8
Ebene 1
 62
   179
420
  1709851
370
    18
100
AcDbVertex
100
AcDb2dVertex
 10
44.24897866732317
 20
-176.462613888176
 30
0.0
  0
SEQEND
  5
26C
330
269
100
AcDbEntity
  8
Ebene 1
370
    18
  0
POLYLINE
  5
26D
330
1F
100
AcDbEntity
  8
Ebene 1
 62
   179
420
  1709851
370
    18
100
AcDb2dPolyline
 66
     1
 10
0.0
 20
0.0
 30
0.0
  0
VERTEX
  5
26E
330
26D
100
AcDbEntity
  8
Ebene 1
 62
   179
420
  1709851
370
    18
100
AcDbVertex
100
AcDb2dVertex
 10
44.24897866732317
 20
-176.462613888176
 30
0.0
  0
VERTEX
  5
26F
330
26D
100
AcDbEntity
  8
Ebene 1
 62
   179
420
  1709851
370
    18
100
AcDbVertex
100
AcDb2dVertex
 10
44.24897866732317
 20
-186.0516926618204
 30
0.0
  0
SEQEND
  5
270
330
26D
100
AcDbEntity
  8
Ebene 1
370
    18
  0
POLYLINE
  5
271
330
1F
100
AcDbEntity
  8
Ebene 1
 62
   179
420
  1709851
370
    18
100
AcDb2dPolyline
 66
     1
 10
0.0
 20
0.0
 30
0.0
  0
VERTEX
  5
272
330
271
100
AcDbEntity
  8
Ebene 1
 62
   179
420
  1709851
370
    18
100
AcDbVertex
100
AcDb2dVertex
 10
37.45456135131344
 20
-186.4533907954005
 30
0.0
  0
VERTEX
  5
273
330
271
100
AcDbEntity
  8
Ebene 1
 62
   179
420
  1709851
370
    18
100
AcDbVertex
100
AcDb2dVertex
 10
51.44561088123582
 20
-186.4533907954005
 30
0.0
  0
VERTEX
  5
274
330
271
100
AcDbEntity
  8
Ebene 1
 62
   179
420
  1709851
370
    18
100
AcDbVertex
100
AcDb2dVertex
 10
51.44561088123582
 20
-186.0516926618204
 30
0.0
  0
VERTEX
  5
275
330
271
100
AcDbEntity
  8
Ebene 1
 62
   179
420
  1709851
370
    18
100
AcDbVertex
100
AcDb2dVertex
 10
44.65119356522609
 20
-186.0516926618204
 30
0.0
  0
VERTEX
  5
276
330
271
100
AcDbEntity
  8
Ebene 1
 62
   179
420
  1709851
370
    18
100
AcDbVertex
100
AcDb2dVertex
 10
44.65119356522609
 20
-181.9451388434026
 30
0.0
  0
SEQEND
  5
277
330
271
100
AcDbEntity
  8
Ebene 1
370
    18
  0
POLYLINE
  5
278
330
1F
100
AcDbEntity
  8
Ebene 1
 62
   179
420
  1709851
370
    18
100
AcDb2dPolyline
 66
     1
 10
0.0
 20
0.0
 30
0.0
  0
VERTEX
  5
279
330
278
100
AcDbEntity
  8
Ebene 1
 62
   179
420
  1709851
370
    18
100
AcDbVertex
100
AcDb2dVertex
 10
37.1581108848077
 20
-163.9321125892253
 30
0.0
  0
VERTEX
  5
27A
330
278
100
AcDbEntity
  8
Ebene 1
 62
   179
420
  1709851
370
    18
100
AcDbVertex
100
AcDb2dVertex
 10
37.1581108848077
 20
-164.5460286046968
 30
0.0
  0
SEQEND
  5
27B
330
278
100
AcDbEntity
  8
Ebene 1
370
    18
  0
POLYLINE
  5
27C
330
1F
100
AcDbEntity
  8
Ebene 1
 62
   179
420
  1709851
370
    18
100
AcDb2dPolyline
 66
     1
 10
0.0
 20
0.0
 30
0.0
  0
VERTEX
  5
27D
330
27C
100
AcDbEntity
  8
Ebene 1
 62
   179
420
  1709851
370
    18
100
AcDbVertex
100
AcDb2dVertex
 10
45.15917289452618
 20
-163.9321125892253
 30
0.0
  0
VERTEX
  5
27E
330
27C
100
AcDbEntity
  8
Ebene 1
 62
   179
420
  1709851
370
    18
100
AcDbVertex
100
AcDb2dVertex
 10
45.15917289452618
 20
-162.9371690130852
 30
0.0
  0
SEQEND
  5
27F
330
27C
100
AcDbEntity
  8
Ebene 1
370
    18
  0
POLYLINE
  5
280
330
1F
100
AcDbEntity
  8
Ebene 1
 62
   179
420
  1709851
370
    18
100
AcDb2dPolyline
 66
     1
 10
0.0
 20
0.0
 30
0.0
  0
VERTEX
  5
281
330
280
100
AcDbEntity
  8
Ebene 1
 62
   179
420
  1709851
370
    18
100
AcDbVertex
100
AcDb2dVertex
 10
37.1581108848077
 20
-163.9321125892253
 30
0.0
  0
VERTEX
  5
282
330
280
100
AcDbEntity
  8
Ebene 1
 62
   179
420
  1709851
370
    18
100
AcDbVertex
100
AcDb2dVertex
 10
37.1581108848077
 20
-162.9371690130852
 30
0.0
  0
SEQEND
  5
283
330
280
100
AcDbEntity
  8
Ebene 1
370
    18
  0
POLYLINE
  5
284
330
1F
100
AcDbEntity
  8
Ebene 1
 62
   179
420
  1709851
370
    18
100
AcDb2dPolyline
 66
     1
 10
0.0
 20
0.0
 30
0.0
  0
VERTEX
  5
285
330
284
100
AcDbEntity
  8
Ebene 1
 62
   179
420
  1709851
370
    18
100
AcDbVertex
100
AcDb2dVertex
 10
37.1581108848077
 20
-163.9321125892253
 30
0.0
  0
VERTEX
  5
286
330
284
100
AcDbEntity
  8
Ebene 1
 62
   179
420
  1709851
370
    18
100
AcDbVertex
100
AcDb2dVertex
 10
45.15917289452618
 20
-163.9321125892253
 30
0.0
  0
SEQEND
  5
287
330
284
100
AcDbEntity
  8
Ebene 1
370
    18
  0
POLYLINE
  5
288
330
1F
100
AcDbEntity
  8
Ebene 1
 62
   179
420
  1709851
370
    18
100
AcDb2dPolyline
 66
     1
 10
0.0
 20
0.0
 30
0.0
  0
VERTEX
  5
289
330
288
100
AcDbEntity
  8
Ebene 1
 62
   179
420
  1709851
370
    18
100
AcDbVertex
100
AcDb2dVertex
 10
37.1581108848077
 20
-164.5460286046968
 30
0.0
  0
VERTEX
  5
28A
330
288
100
AcDbEntity
  8
Ebene 1
 62
   179
420
  1709851
370
    18
100
AcDbVertex
100
AcDb2dVertex
 10
44.65119356522609
 20
-164.5460286046968
 30
0.0
  0
SEQEND
  5
28B
330
288
100
AcDbEntity
  8
Ebene 1
370
    18
  0
POLYLINE
  5
28C
330
1F
100
AcDbEntity
  8
Ebene 1
 62
   179
420
  1709851
370
    18
100
AcDb2dPolyline
 66
     1
 10
0.0
 20
0.0
 30
0.0
  0
VERTEX
  5
28D
330
28C
100
AcDbEntity
  8
Ebene 1
 62
   179
420
  1709851
370
    18
100
AcDbVertex
100
AcDb2dVertex
 10
44.65119356522609
 20
-164.5460286046968
 30
0.0
  0
VERTEX
  5
28E
330
28C
100
AcDbEntity
  8
Ebene 1
 62
   179
420
  1709851
370
    18
100
AcDbVertex
100
AcDb2dVertex
 10
44.65119356522609
 20
-181.9451388434026
 30
0.0
  0
SEQEND
  5
28F
330
28C
100
AcDbEntity
  8
Ebene 1
370
    18
  0
POLYLINE
  5
290
330
1F
100
AcDbEntity
  8
Ebene 1
 62
   179
420
  1709851
370
    18
100
AcDb2dPolyline
 66
     1
 10
0.0
 20
0.0
 30
0.0
  0
VERTEX
  5
291
330
290
100
AcDbEntity
  8
Ebene 1
 62
   179
420
  1709851
370
    18
100
AcDbVertex
100
AcDb2dVertex
 10
44.65119356522609
 20
-181.9451388434026
 30
0.0
  0
VERTEX
  5
292
330
290
100
AcDbEntity
  8
Ebene 1
 62
   179
420
  1709851
370
    18
100
AcDbVertex
100
AcDb2dVertex
 10
45.15917289452618
 20
-181.9451388434026
 30
0.0
  0
SEQEND
  5
293
330
290
100
AcDbEntity
  8
Ebene 1
370
    18
  0
POLYLINE
  5
294
330
1F
100
AcDbEntity
  8
Ebene 1
 62
   179
420
  1709851
370
    18
100
AcDb2dPolyline
 66
     1
 10
0.0
 20
0.0
 30
0.0
  0
VERTEX
  5
295
330
294
100
AcDbEntity
  8
Ebene 1
 62
   179
420
  1709851
370
    18
100
AcDbVertex
100
AcDb2dVertex
 10
45.15917289452618
 20
-181.9451388434026
 30
0.0
  0
VERTEX
  5
296
330
294
100
AcDbEntity
  8
Ebene 1
 62
   179
420
  1709851
370
    18
100
AcDbVertex
100
AcDb2dVertex
 10
45.15917289452618
 20
-163.9321125892253
 30
0.0
  0
SEQEND
  5
297
330
294
100
AcDbEntity
  8
Ebene 1
370
    18
  0
POLYLINE
  5
298
330
1F
100
AcDbEntity
  8
Ebene 1
 62
   179
420
  1709851
370
    18
100
AcDb2dPolyline
 66
     1
 10
0.0
 20
0.0
 30
0.0
  0
VERTEX
  5
299
330
298
100
AcDbEntity
  8
Ebene 1
 62
   179
420
  1709851
370
    18
100
AcDbVertex
100
AcDb2dVertex
 10
46.15394421589207
 20
-179.3413356756508
 30
0.0
  0
VERTEX
  5
29A
330
298
100
AcDbEntity
  8
Ebene 1
 62
   179
420
  1709851
370
    18
100
AcDbVertex
100
AcDb2dVertex
 10
43.25420734595728
 20
-179.3413356756508
 30
0.0
  0
SEQEND
  5
29B
330
298
100
AcDbEntity
  8
Ebene 1
370
    18
  0
POLYLINE
  5
29C
330
1F
100
AcDbEntity
  8
Ebene 1
 62
   179
420
  1709851
370
    18
100
AcDb2dPolyline
 66
     1
 10
0.0
 20
0.0
 30
0.0
  0
VERTEX
  5
29D
330
29C
100
AcDbEntity
  8
Ebene 1
 62
   179
420
  1709851
370
    18
100
AcDbVertex
100
AcDb2dVertex
 10
42.85199244805437
 20
-187.342225430595
 30
0.0
  0
VERTEX
  5
29E
330
29C
100
AcDbEntity
  8
Ebene 1
 62
   179
420
  1709851
370
    18
100
AcDbVertex
100
AcDb2dVertex
 10
42.85199244805437
 20
-185.0567490856803
 30
0.0
  0
SEQEND
  5
29F
330
29C
100
AcDbEntity
  8
Ebene 1
370
    18
  0
POLYLINE
  5
2A0
330
1F
100
AcDbEntity
  8
Ebene 1
 62
   179
420
  1709851
370
    18
100
AcDb2dPolyline
 66
     1
 10
0.0
 20
0.0
 30
0.0
  0
VERTEX
  5
2A1
330
2A0
100
AcDbEntity
  8
Ebene 1
 62
   179
420
  1709851
370
    18
100
AcDbVertex
100
AcDb2dVertex
 10
46.0481797844949
 20
-185.0567490856803
 30
0.0
  0
VERTEX
  5
2A2
330
2A0
100
AcDbEntity
  8
Ebene 1
 62
   179
420
  1709851
370
    18
100
AcDbVertex
100
AcDb2dVertex
 10
46.0481797844949
 20
-187.342225430595
 30
0.0
  0
SEQEND
  5
2A3
330
2A0
100
AcDbEntity
  8
Ebene 1
370
    18
  0
POLYLINE
  5
2A4
330
1F
100
AcDbEntity
  8
Ebene 1
 62
   179
420
  1709851
370
    35
100
AcDb2dPolyline
 66
     1
 10
0.0
 20
0.0
 30
0.0
  0
VERTEX
  5
2A5
330
2A4
100
AcDbEntity
  8
Ebene 1
 62
   179
420
  1709851
370
    35
100
AcDbVertex
100
AcDb2dVertex
 10
100.8909993237356
 20
-150.6395561689373
 30
0.0
  0
VERTEX
  5
2A6
330
2A4
100
AcDbEntity
  8
Ebene 1
 62
   179
420
  1709851
370
    35
100
AcDbVertex
100
AcDb2dVertex
 10
100.8909993237356
 20
-143.633437735359
 30
0.0
  0
SEQEND
  5
2A7
330
2A4
100
AcDbEntity
  8
Ebene 1
370
    35
  0
POLYLINE
  5
2A8
330
1F
100
AcDbEntity
  8
Ebene 1
 62
   179
420
  1709851
370
    35
100
AcDb2dPolyline
 66
     1
 10
0.0
 20
0.0
 30
0.0
  0
VERTEX
  5
2A9
330
2A8
100
AcDbEntity
  8
Ebene 1
 62
   179
420
  1709851
370
    35
100
AcDbVertex
100
AcDb2dVertex
 10
100.8909993237356
 20
-152.6294433212177
 30
0.0
  0
VERTEX
  5
2AA
330
2A8
100
AcDbEntity
  8
Ebene 1
 62
   179
420
  1709851
370
    35
100
AcDbVertex
100
AcDb2dVertex
 10
100.8909993237356
 20
-151.6344997450775
 30
0.0
  0
SEQEND
  5
2AB
330
2A8
100
AcDbEntity
  8
Ebene 1
370
    35
  0
POLYLINE
  5
2AC
330
1F
100
AcDbEntity
  8
Ebene 1
 62
   179
420
  1709851
370
    35
100
AcDb2dPolyline
 66
     1
 10
0.0
 20
0.0
 30
0.0
  0
VERTEX
  5
2AD
330
2AC
100
AcDbEntity
  8
Ebene 1
 62
   179
420
  1709851
370
    35
100
AcDbVertex
100
AcDb2dVertex
 10
100.8909993237356
 20
-160.6303330761619
 30
0.0
  0
VERTEX
  5
2AE
330
2AC
100
AcDbEntity
  8
Ebene 1
 62
   179
420
  1709851
370
    35
100
AcDbVertex
100
AcDb2dVertex
 10
100.8909993237356
 20
-153.6243868973578
 30
0.0
  0
SEQEND
  5
2AF
330
2AC
100
AcDbEntity
  8
Ebene 1
370
    35
  0
POLYLINE
  5
2B0
330
1F
100
AcDbEntity
  8
Ebene 1
 62
   179
420
  1709851
370
    35
100
AcDb2dPolyline
 66
     1
 10
0.0
 20
0.0
 30
0.0
  0
VERTEX
  5
2B1
330
2B0
100
AcDbEntity
  8
Ebene 1
 62
   179
420
  1709851
370
    35
100
AcDbVertex
100
AcDb2dVertex
 10
100.8909993237356
 20
-162.6202202284422
 30
0.0
  0
VERTEX
  5
2B2
330
2B0
100
AcDbEntity
  8
Ebene 1
 62
   179
420
  1709851
370
    35
100
AcDbVertex
100
AcDb2dVertex
 10
100.8909993237356
 20
-161.625276652302
 30
0.0
  0
SEQEND
  5
2B3
330
2B0
100
AcDbEntity
  8
Ebene 1
370
    35
  0
POLYLINE
  5
2B4
330
1F
100
AcDbEntity
  8
Ebene 1
 62
   179
420
  1709851
370
    35
100
AcDb2dPolyline
 66
     1
 10
0.0
 20
0.0
 30
0.0
  0
VERTEX
  5
2B5
330
2B4
100
AcDbEntity
  8
Ebene 1
 62
   179
420
  1709851
370
    35
100
AcDbVertex
100
AcDb2dVertex
 10
100.8909993237356
 20
-166.5359157569771
 30
0.0
  0
VERTEX
  5
2B6
330
2B4
100
AcDbEntity
  8
Ebene 1
 62
   179
420
  1709851
370
    35
100
AcDbVertex
100
AcDb2dVertex
 10
100.8909993237356
 20
-163.6358343774938
 30
0.0
  0
SEQEND
  5
2B7
330
2B4
100
AcDbEntity
  8
Ebene 1
370
    35
  0
POLYLINE
  5
2B8
330
1F
100
AcDbEntity
  8
Ebene 1
 62
   179
420
  1709851
370
    18
100
AcDb2dPolyline
 66
     1
 10
0.0
 20
0.0
 30
0.0
  0
VERTEX
  5
2B9
330
2B8
100
AcDbEntity
  8
Ebene 1
 62
   179
420
  1709851
370
    18
100
AcDbVertex
100
AcDb2dVertex
 10
104.6375406639448
 20
-176.462613888176
 30
0.0
  0
VERTEX
  5
2BA
330
2B8
100
AcDbEntity
  8
Ebene 1
 62
   179
420
  1709851
370
    18
100
AcDbVertex
100
AcDb2dVertex
 10
104.2349812564933
 20
-176.462613888176
 30
0.0
  0
SEQEND
  5
2BB
330
2B8
100
AcDbEntity
  8
Ebene 1
370
    18
  0
POLYLINE
  5
2BC
330
1F
100
AcDbEntity
  8
Ebene 1
 62
   179
420
  1709851
370
    18
100
AcDb2dPolyline
 66
     1
 10
0.0
 20
0.0
 30
0.0
  0
VERTEX
  5
2BD
330
2BC
100
AcDbEntity
  8
Ebene 1
 62
   179
420
  1709851
370
    18
100
AcDbVertex
100
AcDb2dVertex
 10
104.2349812564933
 20
-176.462613888176
 30
0.0
  0
VERTEX
  5
2BE
330
2BC
100
AcDbEntity
  8
Ebene 1
 62
   179
420
  1709851
370
    18
100
AcDbVertex
100
AcDb2dVertex
 10
104.2349812564933
 20
-186.0516926618204
 30
0.0
  0
SEQEND
  5
2BF
330
2BC
100
AcDbEntity
  8
Ebene 1
370
    18
  0
POLYLINE
  5
2C0
330
1F
100
AcDbEntity
  8
Ebene 1
 62
   179
420
  1709851
370
    18
100
AcDb2dPolyline
 66
     1
 10
0.0
 20
0.0
 30
0.0
  0
VERTEX
  5
2C1
330
2C0
100
AcDbEntity
  8
Ebene 1
 62
   179
420
  1709851
370
    18
100
AcDbVertex
100
AcDb2dVertex
 10
104.2349812564933
 20
-186.0516926618204
 30
0.0
  0
VERTEX
  5
2C2
330
2C0
100
AcDbEntity
  8
Ebene 1
 62
   179
420
  1709851
370
    18
100
AcDbVertex
100
AcDb2dVertex
 10
97.44090845003214
 20
-186.0516926618204
 30
0.0
  0
SEQEND
  5
2C3
330
2C0
100
AcDbEntity
  8
Ebene 1
370
    18
  0
POLYLINE
  5
2C4
330
1F
100
AcDbEntity
  8
Ebene 1
 62
   179
420
  1709851
370
    18
100
AcDb2dPolyline
 66
     1
 10
0.0
 20
0.0
 30
0.0
  0
VERTEX
  5
2C5
330
2C4
100
AcDbEntity
  8
Ebene 1
 62
   179
420
  1709851
370
    18
100
AcDbVertex
100
AcDb2dVertex
 10
97.44090845003214
 20
-186.0516926618204
 30
0.0
  0
VERTEX
  5
2C6
330
2C4
100
AcDbEntity
  8
Ebene 1
 62
   179
420
  1709851
370
    18
100
AcDbVertex
100
AcDb2dVertex
 10
97.44090845003214
 20
-186.4533907954005
 30
0.0
  0
SEQEND
  5
2C7
330
2C4
100
AcDbEntity
  8
Ebene 1
370
    18
  0
POLYLINE
  5
2C8
330
1F
100
AcDbEntity
  8
Ebene 1
 62
   179
420
  1709851
370
    18
100
AcDb2dPolyline
 66
     1
 10
0.0
 20
0.0
 30
0.0
  0
VERTEX
  5
2C9
330
2C8
100
AcDbEntity
  8
Ebene 1
 62
   179
420
  1709851
370
    18
100
AcDbVertex
100
AcDb2dVertex
 10
97.44090845003214
 20
-186.4533907954005
 30
0.0
  0
VERTEX
  5
2CA
330
2C8
100
AcDbEntity
  8
Ebene 1
 62
   179
420
  1709851
370
    18
100
AcDbVertex
100
AcDb2dVertex
 10
111.4529730624145
 20
-186.4533907954005
 30
0.0
  0
SEQEND
  5
2CB
330
2C8
100
AcDbEntity
  8
Ebene 1
370
    18
  0
POLYLINE
  5
2CC
330
1F
100
AcDbEntity
  8
Ebene 1
 62
   179
420
  1709851
370
    18
100
AcDb2dPolyline
 66
     1
 10
0.0
 20
0.0
 30
0.0
  0
VERTEX
  5
2CD
330
2CC
100
AcDbEntity
  8
Ebene 1
 62
   179
420
  1709851
370
    18
100
AcDbVertex
100
AcDb2dVertex
 10
111.4529730624145
 20
-186.4533907954005
 30
0.0
  0
VERTEX
  5
2CE
330
2CC
100
AcDbEntity
  8
Ebene 1
 62
   179
420
  1709851
370
    18
100
AcDbVertex
100
AcDb2dVertex
 10
111.4529730624145
 20
-186.0516926618204
 30
0.0
  0
SEQEND
  5
2CF
330
2CC
100
AcDbEntity
  8
Ebene 1
370
    18
  0
POLYLINE
  5
2D0
330
1F
100
AcDbEntity
  8
Ebene 1
 62
   179
420
  1709851
370
    18
100
AcDb2dPolyline
 66
     1
 10
0.0
 20
0.0
 30
0.0
  0
VERTEX
  5
2D1
330
2D0
100
AcDbEntity
  8
Ebene 1
 62
   179
420
  1709851
370
    18
100
AcDbVertex
100
AcDb2dVertex
 10
111.4529730624145
 20
-186.0516926618204
 30
0.0
  0
VERTEX
  5
2D2
330
2D0
100
AcDbEntity
  8
Ebene 1
 62
   179
420
  1709851
370
    18
100
AcDbVertex
100
AcDb2dVertex
 10
104.6375406639448
 20
-186.0516926618204
 30
0.0
  0
SEQEND
  5
2D3
330
2D0
100
AcDbEntity
  8
Ebene 1
370
    18
  0
POLYLINE
  5
2D4
330
1F
100
AcDbEntity
  8
Ebene 1
 62
   179
420
  1709851
370
    18
100
AcDb2dPolyline
 66
     1
 10
0.0
 20
0.0
 30
0.0
  0
VERTEX
  5
2D5
330
2D4
100
AcDbEntity
  8
Ebene 1
 62
   179
420
  1709851
370
    18
100
AcDbVertex
100
AcDb2dVertex
 10
97.14463023830065
 20
-163.9321125892253
 30
0.0
  0
VERTEX
  5
2D6
330
2D4
100
AcDbEntity
  8
Ebene 1
 62
   179
420
  1709851
370
    18
100
AcDbVertex
100
AcDb2dVertex
 10
105.1451754836963
 20
-163.9321125892253
 30
0.0
  0
VERTEX
  5
2D7
330
2D4
100
AcDbEntity
  8
Ebene 1
 62
   179
420
  1709851
370
    18
100
AcDbVertex
100
AcDb2dVertex
 10
105.1451754836963
 20
-162.9371690130852
 30
0.0
  0
SEQEND
  5
2D8
330
2D4
100
AcDbEntity
  8
Ebene 1
370
    18
  0
POLYLINE
  5
2D9
330
1F
100
AcDbEntity
  8
Ebene 1
 62
   179
420
  1709851
370
    18
100
AcDb2dPolyline
 66
     1
 10
0.0
 20
0.0
 30
0.0
  0
VERTEX
  5
2DA
330
2D9
100
AcDbEntity
  8
Ebene 1
 62
   179
420
  1709851
370
    18
100
AcDbVertex
100
AcDb2dVertex
 10
97.14463023830065
 20
-163.9321125892253
 30
0.0
  0
VERTEX
  5
2DB
330
2D9
100
AcDbEntity
  8
Ebene 1
 62
   179
420
  1709851
370
    18
100
AcDbVertex
100
AcDb2dVertex
 10
97.14463023830065
 20
-162.9371690130852
 30
0.0
  0
SEQEND
  5
2DC
330
2D9
100
AcDbEntity
  8
Ebene 1
370
    18
  0
POLYLINE
  5
2DD
330
1F
100
AcDbEntity
  8
Ebene 1
 62
   179
420
  1709851
370
    18
100
AcDb2dPolyline
 66
     1
 10
0.0
 20
0.0
 30
0.0
  0
VERTEX
  5
2DE
330
2DD
100
AcDbEntity
  8
Ebene 1
 62
   179
420
  1709851
370
    18
100
AcDbVertex
100
AcDb2dVertex
 10
97.14463023830065
 20
-163.9321125892253
 30
0.0
  0
VERTEX
  5
2DF
330
2DD
100
AcDbEntity
  8
Ebene 1
 62
   179
420
  1709851
370
    18
100
AcDbVertex
100
AcDb2dVertex
 10
97.14463023830065
 20
-164.5460286046968
 30
0.0
  0
SEQEND
  5
2E0
330
2DD
100
AcDbEntity
  8
Ebene 1
370
    18
  0
POLYLINE
  5
2E1
330
1F
100
AcDbEntity
  8
Ebene 1
 62
   179
420
  1709851
370
    18
100
AcDb2dPolyline
 66
     1
 10
0.0
 20
0.0
 30
0.0
  0
VERTEX
  5
2E2
330
2E1
100
AcDbEntity
  8
Ebene 1
 62
   179
420
  1709851
370
    18
100
AcDbVertex
100
AcDb2dVertex
 10
97.14463023830065
 20
-164.5460286046968
 30
0.0
  0
VERTEX
  5
2E3
330
2E1
100
AcDbEntity
  8
Ebene 1
 62
   179
420
  1709851
370
    18
100
AcDbVertex
100
AcDb2dVertex
 10
104.6375406639448
 20
-164.5460286046968
 30
0.0
  0
SEQEND
  5
2E4
330
2E1
100
AcDbEntity
  8
Ebene 1
370
    18
  0
POLYLINE
  5
2E5
330
1F
100
AcDbEntity
  8
Ebene 1
 62
   179
420
  1709851
370
    18
100
AcDb2dPolyline
 66
     1
 10
0.0
 20
0.0
 30
0.0
  0
VERTEX
  5
2E6
330
2E5
100
AcDbEntity
  8
Ebene 1
 62
   179
420
  1709851
370
    18
100
AcDbVertex
100
AcDb2dVertex
 10
104.6375406639448
 20
-164.5460286046968
 30
0.0
  0
VERTEX
  5
2E7
330
2E5
100
AcDbEntity
  8
Ebene 1
 62
   179
420
  1709851
370
    18
100
AcDbVertex
100
AcDb2dVertex
 10
104.6375406639448
 20
-181.9451388434026
 30
0.0
  0
SEQEND
  5
2E8
330
2E5
100
AcDbEntity
  8
Ebene 1
370
    18
  0
POLYLINE
  5
2E9
330
1F
100
AcDbEntity
  8
Ebene 1
 62
   179
420
  1709851
370
    18
100
AcDb2dPolyline
 66
     1
 10
0.0
 20
0.0
 30
0.0
  0
VERTEX
  5
2EA
330
2E9
100
AcDbEntity
  8
Ebene 1
 62
   179
420
  1709851
370
    18
100
AcDbVertex
100
AcDb2dVertex
 10
104.6375406639448
 20
-181.9451388434026
 30
0.0
  0
VERTEX
  5
2EB
330
2E9
100
AcDbEntity
  8
Ebene 1
 62
   179
420
  1709851
370
    18
100
AcDbVertex
100
AcDb2dVertex
 10
105.1451754836963
 20
-181.9451388434026
 30
0.0
  0
SEQEND
  5
2EC
330
2E9
100
AcDbEntity
  8
Ebene 1
370
    18
  0
POLYLINE
  5
2ED
330
1F
100
AcDbEntity
  8
Ebene 1
 62
   179
420
  1709851
370
    18
100
AcDb2dPolyline
 66
     1
 10
0.0
 20
0.0
 30
0.0
  0
VERTEX
  5
2EE
330
2ED
100
AcDbEntity
  8
Ebene 1
 62
   179
420
  1709851
370
    18
100
AcDbVertex
100
AcDb2dVertex
 10
105.1451754836963
 20
-181.9451388434026
 30
0.0
  0
VERTEX
  5
2EF
330
2ED
100
AcDbEntity
  8
Ebene 1
 62
   179
420
  1709851
370
    18
100
AcDbVertex
100
AcDb2dVertex
 10
105.1451754836963
 20
-163.9321125892253
 30
0.0
  0
SEQEND
  5
2F0
330
2ED
100
AcDbEntity
  8
Ebene 1
370
    18
  0
POLYLINE
  5
2F1
330
1F
100
AcDbEntity
  8
Ebene 1
 62
   179
420
  1709851
370
    18
100
AcDb2dPolyline
 66
     1
 10
0.0
 20
0.0
 30
0.0
  0
VERTEX
  5
2F2
330
2F1
100
AcDbEntity
  8
Ebene 1
 62
   179
420
  1709851
370
    18
100
AcDbVertex
100
AcDb2dVertex
 10
106.1406358241593
 20
-179.3413356756508
 30
0.0
  0
VERTEX
  5
2F3
330
2F1
100
AcDbEntity
  8
Ebene 1
 62
   179
420
  1709851
370
    18
100
AcDbVertex
100
AcDb2dVertex
 10
103.240554444676
 20
-179.3413356756508
 30
0.0
  0
SEQEND
  5
2F4
330
2F1
100
AcDbEntity
  8
Ebene 1
370
    18
  0
POLYLINE
  5
2F5
330
1F
100
AcDbEntity
  8
Ebene 1
 62
   179
420
  1709851
370
    18
100
AcDb2dPolyline
 66
     1
 10
0.0
 20
0.0
 30
0.0
  0
VERTEX
  5
2F6
330
2F5
100
AcDbEntity
  8
Ebene 1
 62
   179
420
  1709851
370
    18
100
AcDbVertex
100
AcDb2dVertex
 10
102.8379950372245
 20
-187.342225430595
 30
0.0
  0
VERTEX
  5
2F7
330
2F5
100
AcDbEntity
  8
Ebene 1
 62
   179
420
  1709851
370
    18
100
AcDbVertex
100
AcDb2dVertex
 10
102.8379950372245
 20
-185.0567490856803
 30
0.0
  0
SEQEND
  5
2F8
330
2F5
100
AcDbEntity
  8
Ebene 1
370
    18
  0
POLYLINE
  5
2F9
330
1F
100
AcDbEntity
  8
Ebene 1
 62
   179
420
  1709851
370
    18
100
AcDb2dPolyline
 66
     1
 10
0.0
 20
0.0
 30
0.0
  0
VERTEX
  5
2FA
330
2F9
100
AcDbEntity
  8
Ebene 1
 62
   179
420
  1709851
370
    18
100
AcDbVertex
100
AcDb2dVertex
 10
106.0345268832136
 20
-185.0567490856803
 30
0.0
  0
VERTEX
  5
2FB
330
2F9
100
AcDbEntity
  8
Ebene 1
 62
   179
420
  1709851
370
    18
100
AcDbVertex
100
AcDb2dVertex
 10
106.0345268832136
 20
-187.342225430595
 30
0.0
  0
SEQEND
  5
2FC
330
2F9
100
AcDbEntity
  8
Ebene 1
370
    18
  0
POLYLINE
  5
2FD
330
1F
100
AcDbEntity
  8
Ebene 1
 62
   179
420
  1709851
370
    35
100
AcDb2dPolyline
 66
     1
 10
0.0
 20
0.0
 30
0.0
  0
VERTEX
  5
2FE
330
2FD
100
AcDbEntity
  8
Ebene 1
 62
   179
420
  1709851
370
    35
100
AcDbVertex
100
AcDb2dVertex
 10
160.8983615049143
 20
-150.6395561689373
 30
0.0
  0
VERTEX
  5
2FF
330
2FD
100
AcDbEntity
  8
Ebene 1
 62
   179
420
  1709851
370
    35
100
AcDbVertex
100
AcDb2dVertex
 10
160.8983615049143
 20
-143.633437735359
 30
0.0
  0
SEQEND
  5
300
330
2FD
100
AcDbEntity
  8
Ebene 1
370
    35
  0
POLYLINE
  5
301
330
1F
100
AcDbEntity
  8
Ebene 1
 62
   179
420
  1709851
370
    35
100
AcDb2dPolyline
 66
     1
 10
0.0
 20
0.0
 30
0.0
  0
VERTEX
  5
302
330
301
100
AcDbEntity
  8
Ebene 1
 62
   179
420
  1709851
370
    35
100
AcDbVertex
100
AcDb2dVertex
 10
160.8983615049143
 20
-152.6294433212177
 30
0.0
  0
VERTEX
  5
303
330
301
100
AcDbEntity
  8
Ebene 1
 62
   179
420
  1709851
370
    35
100
AcDbVertex
100
AcDb2dVertex
 10
160.8983615049143
 20
-151.6344997450775
 30
0.0
  0
SEQEND
  5
304
330
301
100
AcDbEntity
  8
Ebene 1
370
    35
  0
POLYLINE
  5
305
330
1F
100
AcDbEntity
  8
Ebene 1
 62
   179
420
  1709851
370
    35
100
AcDb2dPolyline
 66
     1
 10
0.0
 20
0.0
 30
0.0
  0
VERTEX
  5
306
330
305
100
AcDbEntity
  8
Ebene 1
 62
   179
420
  1709851
370
    35
100
AcDbVertex
100
AcDb2dVertex
 10
160.8983615049143
 20
-160.6303330761619
 30
0.0
  0
VERTEX
  5
307
330
305
100
AcDbEntity
  8
Ebene 1
 62
   179
420
  1709851
370
    35
100
AcDbVertex
100
AcDb2dVertex
 10
160.8983615049143
 20
-153.6243868973578
 30
0.0
  0
SEQEND
  5
308
330
305
100
AcDbEntity
  8
Ebene 1
370
    35
  0
POLYLINE
  5
309
330
1F
100
AcDbEntity
  8
Ebene 1
 62
   179
420
  1709851
370
    35
100
AcDb2dPolyline
 66
     1
 10
0.0
 20
0.0
 30
0.0
  0
VERTEX
  5
30A
330
309
100
AcDbEntity
  8
Ebene 1
 62
   179
420
  1709851
370
    35
100
AcDbVertex
100
AcDb2dVertex
 10
160.8983615049143
 20
-162.6202202284422
 30
0.0
  0
VERTEX
  5
30B
330
309
100
AcDbEntity
  8
Ebene 1
 62
   179
420
  1709851
370
    35
100
AcDbVertex
100
AcDb2dVertex
 10
160.8983615049143
 20
-161.625276652302
 30
0.0
  0
SEQEND
  5
30C
330
309
100
AcDbEntity
  8
Ebene 1
370
    35
  0
POLYLINE
  5
30D
330
1F
100
AcDbEntity
  8
Ebene 1
 62
   179
420
  1709851
370
    35
100
AcDb2dPolyline
 66
     1
 10
0.0
 20
0.0
 30
0.0
  0
VERTEX
  5
30E
330
30D
100
AcDbEntity
  8
Ebene 1
 62
   179
420
  1709851
370
    35
100
AcDbVertex
100
AcDb2dVertex
 10
160.8983615049143
 20
-166.5359157569771
 30
0.0
  0
VERTEX
  5
30F
330
30D
100
AcDbEntity
  8
Ebene 1
 62
   179
420
  1709851
370
    35
100
AcDbVertex
100
AcDb2dVertex
 10
160.8983615049143
 20
-163.6358343774938
 30
0.0
  0
SEQEND
  5
310
330
30D
100
AcDbEntity
  8
Ebene 1
370
    35
  0
INSERT
  5
312
330
1F
100
AcDbEntity
  8
Ebene 1
100
AcDbBlockReference
  2
block 4
 10
0.0
 20
0.0
 30
0.0
  0
POLYLINE
  5
608
330
1F
100
AcDbEntity
  8
Ebene 1
 62
   179
420
  1709851
370
    18
100
AcDb2dPolyline
 66
     1
 10
0.0
 20
0.0
 30
0.0
  0
VERTEX
  5
609
330
608
100
AcDbEntity
  8
Ebene 1
 62
   179
420
  1709851
370
    18
100
AcDbVertex
100
AcDb2dVertex
 10
155.3527913023077
 20
-178.9396375420706
 30
0.0
  0
VERTEX
  5
60A
330
608
100
AcDbEntity
  8
Ebene 1
 62
   179
420
  1709851
370
    18
100
AcDbVertex
100
AcDb2dVertex
 10
159.8400281718455
 20
-164.5460286046968
 30
0.0
  0
SEQEND
  5
60B
330
608
100
AcDbEntity
  8
Ebene 1
370
    18
  0
POLYLINE
  5
60C
330
1F
100
AcDbEntity
  8
Ebene 1
 62
   179
420
  1709851
370
    18
100
AcDb2dPolyline
 66
     1
 10
0.0
 20
0.0
 30
0.0
  0
VERTEX
  5
60D
330
60C
100
AcDbEntity
  8
Ebene 1
 62
   179
420
  1709851
370
    18
100
AcDbVertex
100
AcDb2dVertex
 10
160.8349717479857
 20
-164.5460286046968
 30
0.0
  0
VERTEX
  5
60E
330
60C
100
AcDbEntity
  8
Ebene 1
 62
   179
420
  1709851
370
    18
100
AcDbVertex
100
AcDb2dVertex
 10
164.5601534961864
 20
-176.462613888176
 30
0.0
  0
SEQEND
  5
60F
330
60C
100
AcDbEntity
  8
Ebene 1
370
    18
  0
POLYLINE
  5
610
330
1F
100
AcDbEntity
  8
Ebene 1
 62
   179
420
  1709851
370
    18
100
AcDb2dPolyline
 66
     1
 10
0.0
 20
0.0
 30
0.0
  0
VERTEX
  5
611
330
610
100
AcDbEntity
  8
Ebene 1
 62
   179
420
  1709851
370
    18
100
AcDbVertex
100
AcDb2dVertex
 10
165.1316948371893
 20
-178.283002342582
 30
0.0
  0
VERTEX
  5
612
330
610
100
AcDbEntity
  8
Ebene 1
 62
   179
420
  1709851
370
    18
100
AcDbVertex
100
AcDb2dVertex
 10
165.3435682095322
 20
-178.9396375420706
 30
0.0
  0
SEQEND
  5
613
330
610
100
AcDbEntity
  8
Ebene 1
370
    18
  0
POLYLINE
  5
614
330
1F
100
AcDbEntity
  8
Ebene 1
 62
   179
420
  1709851
370
    18
100
AcDb2dPolyline
 66
     1
 10
0.0
 20
0.0
 30
0.0
  0
VERTEX
  5
615
330
614
100
AcDbEntity
  8
Ebene 1
 62
   179
420
  1709851
370
    18
100
AcDbVertex
100
AcDb2dVertex
 10
165.3435682095322
 20
-178.9396375420706
 30
0.0
  0
VERTEX
  5
616
330
614
100
AcDbEntity
  8
Ebene 1
 62
   179
420
  1709851
370
    18
100
AcDbVertex
100
AcDb2dVertex
 10
170.3386121535959
 20
-162.9371690130852
 30
0.0
  0
VERTEX
  5
617
330
614
100
AcDbEntity
  8
Ebene 1
 62
   179
420
  1709851
370
    18
100
AcDbVertex
100
AcDb2dVertex
 10
175.3340006072082
 20
-178.9396375420706
 30
0.0
  0
SEQEND
  5
618
330
614
100
AcDbEntity
  8
Ebene 1
370
    18
  0
POLYLINE
  5
619
330
1F
100
AcDbEntity
  8
Ebene 1
 62
   179
420
  1709851
370
    18
100
AcDb2dPolyline
 66
     1
 10
0.0
 20
0.0
 30
0.0
  0
VERTEX
  5
61A
330
619
100
AcDbEntity
  8
Ebene 1
 62
   179
420
  1709851
370
    18
100
AcDbVertex
100
AcDb2dVertex
 10
105.1455199932449
 20
-178.9396375420706
 30
0.0
  0
VERTEX
  5
61B
330
619
100
AcDbEntity
  8
Ebene 1
 62
   179
420
  1709851
370
    18
100
AcDbVertex
100
AcDb2dVertex
 10
164.2428602019949
 20
-178.9396375420706
 30
0.0
  0
SEQEND
  5
61C
330
619
100
AcDbEntity
  8
Ebene 1
370
    18
  0
POLYLINE
  5
61D
330
1F
100
AcDbEntity
  8
Ebene 1
 62
   179
420
  1709851
370
    18
100
AcDb2dPolyline
 66
     1
 10
0.0
 20
0.0
 30
0.0
  0
VERTEX
  5
61E
330
61D
100
AcDbEntity
  8
Ebene 1
 62
   179
420
  1709851
370
    18
100
AcDbVertex
100
AcDb2dVertex
 10
165.1316948371893
 20
-178.9396375420706
 30
0.0
  0
VERTEX
  5
61F
330
61D
100
AcDbEntity
  8
Ebene 1
 62
   179
420
  1709851
370
    18
100
AcDbVertex
100
AcDb2dVertex
 10
188.3516384077732
 20
-178.9396375420706
 30
0.0
  0
SEQEND
  5
620
330
61D
100
AcDbEntity
  8
Ebene 1
370
    18
  0
POLYLINE
  5
621
330
1F
100
AcDbEntity
  8
Ebene 1
 62
   179
420
  1709851
370
    18
100
AcDb2dPolyline
 66
     1
 10
0.0
 20
0.0
 30
0.0
  0
VERTEX
  5
622
330
621
100
AcDbEntity
  8
Ebene 1
 62
   179
420
  1709851
370
    18
100
AcDbVertex
100
AcDb2dVertex
 10
169.5345268673386
 20
-188.0408907950037
 30
0.0
  0
VERTEX
  5
623
330
621
100
AcDbEntity
  8
Ebene 1
 62
   179
420
  1709851
370
    18
100
AcDbVertex
100
AcDb2dVertex
 10
169.5345268673386
 20
-187.342225430595
 30
0.0
  0
SEQEND
  5
624
330
621
100
AcDbEntity
  8
Ebene 1
370
    18
  0
POLYLINE
  5
625
330
1F
100
AcDbEntity
  8
Ebene 1
 62
   179
420
  1709851
370
    18
100
AcDb2dPolyline
 66
     1
 10
0.0
 20
0.0
 30
0.0
  0
VERTEX
  5
626
330
625
100
AcDbEntity
  8
Ebene 1
 62
   179
420
  1709851
370
    18
100
AcDbVertex
100
AcDb2dVertex
 10
167.333110852264
 20
-188.0408907950037
 30
0.0
  0
VERTEX
  5
627
330
625
100
AcDbEntity
  8
Ebene 1
 62
   179
420
  1709851
370
    18
100
AcDbVertex
100
AcDb2dVertex
 10
167.333110852264
 20
-187.342225430595
 30
0.0
  0
SEQEND
  5
628
330
625
100
AcDbEntity
  8
Ebene 1
370
    18
  0
POLYLINE
  5
629
330
1F
100
AcDbEntity
  8
Ebene 1
 62
   179
420
  1709851
370
    18
100
AcDb2dPolyline
 66
     1
 10
0.0
 20
0.0
 30
0.0
  0
VERTEX
  5
62A
330
629
100
AcDbEntity
  8
Ebene 1
 62
   179
420
  1709851
370
    18
100
AcDbVertex
100
AcDb2dVertex
 10
161.5332926028458
 20
-188.0408907950037
 30
0.0
  0
VERTEX
  5
62B
330
629
100
AcDbEntity
  8
Ebene 1
 62
   179
420
  1709851
370
    18
100
AcDbVertex
100
AcDb2dVertex
 10
161.5332926028458
 20
-187.342225430595
 30
0.0
  0
SEQEND
  5
62C
330
629
100
AcDbEntity
  8
Ebene 1
370
    18
  0
POLYLINE
  5
62D
330
1F
100
AcDbEntity
  8
Ebene 1
 62
   179
420
  1709851
370
    18
100
AcDb2dPolyline
 66
     1
 10
0.0
 20
0.0
 30
0.0
  0
VERTEX
  5
62E
330
62D
100
AcDbEntity
  8
Ebene 1
 62
   179
420
  1709851
370
    18
100
AcDbVertex
100
AcDb2dVertex
 10
159.3322210973197
 20
-188.0408907950037
 30
0.0
  0
VERTEX
  5
62F
330
62D
100
AcDbEntity
  8
Ebene 1
 62
   179
420
  1709851
370
    18
100
AcDbVertex
100
AcDb2dVertex
 10
159.3322210973197
 20
-188.0408907950037
 30
0.0
  0
VERTEX
  5
630
330
62D
100
AcDbEntity
  8
Ebene 1
 62
   179
420
  1709851
370
    18
100
AcDbVertex
100
AcDb2dVertex
 10
159.3322210973197
 20
-187.342225430595
 30
0.0
  0
SEQEND
  5
631
330
62D
100
AcDbEntity
  8
Ebene 1
370
    18
  0
POLYLINE
  5
632
330
1F
100
AcDbEntity
  8
Ebene 1
 62
   179
420
  1709851
370
    18
100
AcDb2dPolyline
 66
     1
 10
0.0
 20
0.0
 30
0.0
  0
VERTEX
  5
633
330
632
100
AcDbEntity
  8
Ebene 1
 62
   179
420
  1709851
370
    18
100
AcDbVertex
100
AcDb2dVertex
 10
169.5345268673386
 20
-187.342225430595
 30
0.0
  0
VERTEX
  5
634
330
632
100
AcDbEntity
  8
Ebene 1
 62
   179
420
  1709851
370
    18
100
AcDbVertex
100
AcDb2dVertex
 10
169.5345268673386
 20
-187.1306965678007
 30
0.0
  0
SEQEND
  5
635
330
632
100
AcDbEntity
  8
Ebene 1
370
    18
  0
POLYLINE
  5
636
330
1F
100
AcDbEntity
  8
Ebene 1
 62
   179
420
  1709851
370
    18
100
AcDb2dPolyline
 66
     1
 10
0.0
 20
0.0
 30
0.0
  0
VERTEX
  5
637
330
636
100
AcDbEntity
  8
Ebene 1
 62
   179
420
  1709851
370
    18
100
AcDbVertex
100
AcDb2dVertex
 10
167.333110852264
 20
-187.1306965678007
 30
0.0
  0
VERTEX
  5
638
330
636
100
AcDbEntity
  8
Ebene 1
 62
   179
420
  1709851
370
    18
100
AcDbVertex
100
AcDb2dVertex
 10
167.333110852264
 20
-187.342225430595
 30
0.0
  0
SEQEND
  5
639
330
636
100
AcDbEntity
  8
Ebene 1
370
    18
  0
POLYLINE
  5
63A
330
1F
100
AcDbEntity
  8
Ebene 1
 62
   179
420
  1709851
370
    18
100
AcDb2dPolyline
 66
     1
 10
0.0
 20
0.0
 30
0.0
  0
VERTEX
  5
63B
330
63A
100
AcDbEntity
  8
Ebene 1
 62
   179
420
  1709851
370
    18
100
AcDbVertex
100
AcDb2dVertex
 10
161.5332926028458
 20
-187.342225430595
 30
0.0
  0
VERTEX
  5
63C
330
63A
100
AcDbEntity
  8
Ebene 1
 62
   179
420
  1709851
370
    18
100
AcDbVertex
100
AcDb2dVertex
 10
161.5332926028458
 20
-187.1306965678007
 30
0.0
  0
SEQEND
  5
63D
330
63A
100
AcDbEntity
  8
Ebene 1
370
    18
  0
POLYLINE
  5
63E
330
1F
100
AcDbEntity
  8
Ebene 1
 62
   179
420
  1709851
370
    18
100
AcDb2dPolyline
 66
     1
 10
0.0
 20
0.0
 30
0.0
  0
VERTEX
  5
63F
330
63E
100
AcDbEntity
  8
Ebene 1
 62
   179
420
  1709851
370
    18
100
AcDbVertex
100
AcDb2dVertex
 10
159.3322210973197
 20
-187.1306965678007
 30
0.0
  0
VERTEX
  5
640
330
63E
100
AcDbEntity
  8
Ebene 1
 62
   179
420
  1709851
370
    18
100
AcDbVertex
100
AcDb2dVertex
 10
159.3322210973197
 20
-187.342225430595
 30
0.0
  0
SEQEND
  5
641
330
63E
100
AcDbEntity
  8
Ebene 1
370
    18
  0
POLYLINE
  5
642
330
1F
100
AcDbEntity
  8
Ebene 1
 62
   179
420
  1709851
370
    18
100
AcDb2dPolyline
 66
     1
 10
0.0
 20
0.0
 30
0.0
  0
VERTEX
  5
643
330
642
100
AcDbEntity
  8
Ebene 1
 62
   179
420
  1709851
370
    18
100
AcDbVertex
100
AcDb2dVertex
 10
169.42910694549
 20
-188.6334472184666
 30
0.0
  0
VERTEX
  5
644
330
642
100
AcDbEntity
  8
Ebene 1
 62
   179
420
  1709851
370
    18
100
AcDbVertex
100
AcDb2dVertex
 10
169.42910694549
 20
-187.342225430595
 30
0.0
  0
SEQEND
  5
645
330
642
100
AcDbEntity
  8
Ebene 1
370
    18
  0
POLYLINE
  5
646
330
1F
100
AcDbEntity
  8
Ebene 1
 62
   179
420
  1709851
370
    18
100
AcDb2dPolyline
 66
     1
 10
0.0
 20
0.0
 30
0.0
  0
VERTEX
  5
647
330
646
100
AcDbEntity
  8
Ebene 1
 62
   179
420
  1709851
370
    18
100
AcDbVertex
100
AcDb2dVertex
 10
167.4388752836611
 20
-188.6334472184666
 30
0.0
  0
VERTEX
  5
648
330
646
100
AcDbEntity
  8
Ebene 1
 62
   179
420
  1709851
370
    18
100
AcDbVertex
100
AcDb2dVertex
 10
167.4388752836611
 20
-187.342225430595
 30
0.0
  0
SEQEND
  5
649
330
646
100
AcDbEntity
  8
Ebene 1
370
    18
  0
POLYLINE
  5
64A
330
1F
100
AcDbEntity
  8
Ebene 1
 62
   179
420
  1709851
370
    18
100
AcDb2dPolyline
 66
     1
 10
0.0
 20
0.0
 30
0.0
  0
VERTEX
  5
64B
330
64A
100
AcDbEntity
  8
Ebene 1
 62
   179
420
  1709851
370
    18
100
AcDbVertex
100
AcDb2dVertex
 10
161.4488877634572
 20
-188.6334472184666
 30
0.0
  0
VERTEX
  5
64C
330
64A
100
AcDbEntity
  8
Ebene 1
 62
   179
420
  1709851
370
    18
100
AcDbVertex
100
AcDb2dVertex
 10
161.4488877634572
 20
-187.342225430595
 30
0.0
  0
SEQEND
  5
64D
330
64A
100
AcDbEntity
  8
Ebene 1
370
    18
  0
POLYLINE
  5
64E
330
1F
100
AcDbEntity
  8
Ebene 1
 62
   179
420
  1709851
370
    18
100
AcDb2dPolyline
 66
     1
 10
0.0
 20
0.0
 30
0.0
  0
VERTEX
  5
64F
330
64E
100
AcDbEntity
  8
Ebene 1
 62
   179
420
  1709851
370
    18
100
AcDbVertex
100
AcDb2dVertex
 10
159.4379855287169
 20
-188.6334472184666
 30
0.0
  0
VERTEX
  5
650
330
64E
100
AcDbEntity
  8
Ebene 1
 62
   179
420
  1709851
370
    18
100
AcDbVertex
100
AcDb2dVertex
 10
159.4379855287169
 20
-187.342225430595
 30
0.0
  0
SEQEND
  5
651
330
64E
100
AcDbEntity
  8
Ebene 1
370
    18
  0
POLYLINE
  5
652
330
1F
100
AcDbEntity
  8
Ebene 1
 62
   179
420
  1709851
370
    18
100
AcDb2dPolyline
 66
     1
 10
0.0
 20
0.0
 30
0.0
  0
VERTEX
  5
653
330
652
100
AcDbEntity
  8
Ebene 1
 62
   179
420
  1709851
370
    18
100
AcDbVertex
100
AcDb2dVertex
 10
169.42910694549
 20
-189.2266926610267
 30
0.0
  0
VERTEX
  5
654
330
652
100
AcDbEntity
  8
Ebene 1
 62
   179
420
  1709851
370
    18
100
AcDbVertex
100
AcDb2dVertex
 10
169.42910694549
 20
-188.9297254301981
 30
0.0
  0
SEQEND
  5
655
330
652
100
AcDbEntity
  8
Ebene 1
370
    18
  0
POLYLINE
  5
656
330
1F
100
AcDbEntity
  8
Ebene 1
 62
   179
420
  1709851
370
    18
100
AcDb2dPolyline
 66
     1
 10
0.0
 20
0.0
 30
0.0
  0
VERTEX
  5
657
330
656
100
AcDbEntity
  8
Ebene 1
 62
   179
420
  1709851
370
    18
100
AcDbVertex
100
AcDb2dVertex
 10
169.42910694549
 20
-187.342225430595
 30
0.0
  0
VERTEX
  5
658
330
656
100
AcDbEntity
  8
Ebene 1
 62
   179
420
  1709851
370
    18
100
AcDbVertex
100
AcDb2dVertex
 10
169.42910694549
 20
-187.2368055087464
 30
0.0
  0
SEQEND
  5
659
330
656
100
AcDbEntity
  8
Ebene 1
370
    18
  0
POLYLINE
  5
65A
330
1F
100
AcDbEntity
  8
Ebene 1
 62
   179
420
  1709851
370
    18
100
AcDb2dPolyline
 66
     1
 10
0.0
 20
0.0
 30
0.0
  0
VERTEX
  5
65B
330
65A
100
AcDbEntity
  8
Ebene 1
 62
   179
420
  1709851
370
    18
100
AcDbVertex
100
AcDb2dVertex
 10
167.4388752836611
 20
-187.2368055087464
 30
0.0
  0
VERTEX
  5
65C
330
65A
100
AcDbEntity
  8
Ebene 1
 62
   179
420
  1709851
370
    18
100
AcDbVertex
100
AcDb2dVertex
 10
167.4388752836611
 20
-187.342225430595
 30
0.0
  0
SEQEND
  5
65D
330
65A
100
AcDbEntity
  8
Ebene 1
370
    18
  0
POLYLINE
  5
65E
330
1F
100
AcDbEntity
  8
Ebene 1
 62
   179
420
  1709851
370
    18
100
AcDb2dPolyline
 66
     1
 10
0.0
 20
0.0
 30
0.0
  0
VERTEX
  5
65F
330
65E
100
AcDbEntity
  8
Ebene 1
 62
   179
420
  1709851
370
    18
100
AcDbVertex
100
AcDb2dVertex
 10
167.4388752836611
 20
-188.9297254301981
 30
0.0
  0
VERTEX
  5
660
330
65E
100
AcDbEntity
  8
Ebene 1
 62
   179
420
  1709851
370
    18
100
AcDbVertex
100
AcDb2dVertex
 10
167.4388752836611
 20
-189.2266926610267
 30
0.0
  0
SEQEND
  5
661
330
65E
100
AcDbEntity
  8
Ebene 1
370
    18
  0
POLYLINE
  5
662
330
1F
100
AcDbEntity
  8
Ebene 1
 62
   179
420
  1709851
370
    18
100
AcDb2dPolyline
 66
     1
 10
0.0
 20
0.0
 30
0.0
  0
VERTEX
  5
663
330
662
100
AcDbEntity
  8
Ebene 1
 62
   179
420
  1709851
370
    18
100
AcDbVertex
100
AcDb2dVertex
 10
161.4488877634572
 20
-189.2266926610267
 30
0.0
  0
VERTEX
  5
664
330
662
100
AcDbEntity
  8
Ebene 1
 62
   179
420
  1709851
370
    18
100
AcDbVertex
100
AcDb2dVertex
 10
161.4488877634572
 20
-188.9297254301981
 30
0.0
  0
SEQEND
  5
665
330
662
100
AcDbEntity
  8
Ebene 1
370
    18
  0
POLYLINE
  5
666
330
1F
100
AcDbEntity
  8
Ebene 1
 62
   179
420
  1709851
370
    18
100
AcDb2dPolyline
 66
     1
 10
0.0
 20
0.0
 30
0.0
  0
VERTEX
  5
667
330
666
100
AcDbEntity
  8
Ebene 1
 62
   179
420
  1709851
370
    18
100
AcDbVertex
100
AcDb2dVertex
 10
161.4488877634572
 20
-187.342225430595
 30
0.0
  0
VERTEX
  5
668
330
666
100
AcDbEntity
  8
Ebene 1
 62
   179
420
  1709851
370
    18
100
AcDbVertex
100
AcDb2dVertex
 10
161.4488877634572
 20
-187.2368055087464
 30
0.0
  0
SEQEND
  5
669
330
666
100
AcDbEntity
  8
Ebene 1
370
    18
  0
POLYLINE
  5
66A
330
1F
100
AcDbEntity
  8
Ebene 1
 62
   179
420
  1709851
370
    18
100
AcDb2dPolyline
 66
     1
 10
0.0
 20
0.0
 30
0.0
  0
VERTEX
  5
66B
330
66A
100
AcDbEntity
  8
Ebene 1
 62
   179
420
  1709851
370
    18
100
AcDbVertex
100
AcDb2dVertex
 10
159.4379855287169
 20
-187.2368055087464
 30
0.0
  0
VERTEX
  5
66C
330
66A
100
AcDbEntity
  8
Ebene 1
 62
   179
420
  1709851
370
    18
100
AcDbVertex
100
AcDb2dVertex
 10
159.4379855287169
 20
-187.342225430595
 30
0.0
  0
SEQEND
  5
66D
330
66A
100
AcDbEntity
  8
Ebene 1
370
    18
  0
POLYLINE
  5
66E
330
1F
100
AcDbEntity
  8
Ebene 1
 62
   179
420
  1709851
370
    18
100
AcDb2dPolyline
 66
     1
 10
0.0
 20
0.0
 30
0.0
  0
VERTEX
  5
66F
330
66E
100
AcDbEntity
  8
Ebene 1
 62
   179
420
  1709851
370
    18
100
AcDbVertex
100
AcDb2dVertex
 10
159.4379855287169
 20
-188.9297254301981
 30
0.0
  0
VERTEX
  5
670
330
66E
100
AcDbEntity
  8
Ebene 1
 62
   179
420
  1709851
370
    18
100
AcDbVertex
100
AcDb2dVertex
 10
159.4379855287169
 20
-189.2266926610267
 30
0.0
  0
SEQEND
  5
671
330
66E
100
AcDbEntity
  8
Ebene 1
370
    18
  0
POLYLINE
  5
672
330
1F
100
AcDbEntity
  8
Ebene 1
 62
   179
420
  1709851
370
    18
100
AcDb2dPolyline
 66
     1
 10
0.0
 20
0.0
 30
0.0
  0
VERTEX
  5
673
330
672
100
AcDbEntity
  8
Ebene 1
 62
   179
420
  1709851
370
    18
100
AcDbVertex
100
AcDb2dVertex
 10
169.5769015418072
 20
-186.9825574619349
 30
0.0
  0
VERTEX
  5
674
330
672
100
AcDbEntity
  8
Ebene 1
 62
   179
420
  1709851
370
    18
100
AcDbVertex
100
AcDb2dVertex
 10
169.5979166242672
 20
-186.9405272970149
 30
0.0
  0
SEQEND
  5
675
330
672
100
AcDbEntity
  8
Ebene 1
370
    18
  0
POLYLINE
  5
676
330
1F
100
AcDbEntity
  8
Ebene 1
 62
   179
420
  1709851
370
    18
100
AcDb2dPolyline
 66
     1
 10
0.0
 20
0.0
 30
0.0
  0
VERTEX
  5
677
330
676
100
AcDbEntity
  8
Ebene 1
 62
   179
420
  1709851
370
    18
100
AcDbVertex
100
AcDb2dVertex
 10
167.692778820924
 20
-187.342225430595
 30
0.0
  0
VERTEX
  5
678
330
676
100
AcDbEntity
  8
Ebene 1
 62
   179
420
  1709851
370
    18
100
AcDbVertex
100
AcDb2dVertex
 10
169.17451438913
 20
-187.342225430595
 30
0.0
  0
SEQEND
  5
679
330
676
100
AcDbEntity
  8
Ebene 1
370
    18
  0
POLYLINE
  5
67A
330
1F
100
AcDbEntity
  8
Ebene 1
 62
   179
420
  1709851
370
    18
100
AcDb2dPolyline
 66
     1
 10
0.0
 20
0.0
 30
0.0
  0
VERTEX
  5
67B
330
67A
100
AcDbEntity
  8
Ebene 1
 62
   179
420
  1709851
370
    18
100
AcDbVertex
100
AcDb2dVertex
 10
169.17451438913
 20
-187.342225430595
 30
0.0
  0
VERTEX
  5
67C
330
67A
100
AcDbEntity
  8
Ebene 1
 62
   179
420
  1709851
370
    18
100
AcDbVertex
100
AcDb2dVertex
 10
169.3650281694643
 20
-187.300195265675
 30
0.0
  0
VERTEX
  5
67D
330
67A
100
AcDbEntity
  8
Ebene 1
 62
   179
420
  1709851
370
    18
100
AcDbVertex
100
AcDb2dVertex
 10
169.5131672753301
 20
-187.1734157518178
 30
0.0
  0
VERTEX
  5
67E
330
67A
100
AcDbEntity
  8
Ebene 1
 62
   179
420
  1709851
370
    18
100
AcDbVertex
100
AcDb2dVertex
 10
169.5769015418072
 20
-187.0039170539435
 30
0.0
  0
VERTEX
  5
67F
330
67A
100
AcDbEntity
  8
Ebene 1
 62
   179
420
  1709851
370
    18
100
AcDbVertex
100
AcDb2dVertex
 10
169.5769015418072
 20
-186.9825574619349
 30
0.0
  0
SEQEND
  5
680
330
67A
100
AcDbEntity
  8
Ebene 1
370
    18
  0
POLYLINE
  5
681
330
1F
100
AcDbEntity
  8
Ebene 1
 62
   179
420
  1709851
370
    18
100
AcDb2dPolyline
 66
     1
 10
0.0
 20
0.0
 30
0.0
  0
VERTEX
  5
682
330
681
100
AcDbEntity
  8
Ebene 1
 62
   179
420
  1709851
370
    18
100
AcDbVertex
100
AcDb2dVertex
 10
167.2907361777954
 20
-186.9405272970149
 30
0.0
  0
VERTEX
  5
683
330
681
100
AcDbEntity
  8
Ebene 1
 62
   179
420
  1709851
370
    18
100
AcDbVertex
100
AcDb2dVertex
 10
167.2907361777954
 20
-186.9825574619349
 30
0.0
  0
SEQEND
  5
684
330
681
100
AcDbEntity
  8
Ebene 1
370
    18
  0
POLYLINE
  5
685
330
1F
100
AcDbEntity
  8
Ebene 1
 62
   179
420
  1709851
370
    18
100
AcDb2dPolyline
 66
     1
 10
0.0
 20
0.0
 30
0.0
  0
VERTEX
  5
686
330
685
100
AcDbEntity
  8
Ebene 1
 62
   179
420
  1709851
370
    18
100
AcDbVertex
100
AcDb2dVertex
 10
167.2907361777954
 20
-186.9825574619349
 30
0.0
  0
VERTEX
  5
687
330
685
100
AcDbEntity
  8
Ebene 1
 62
   179
420
  1709851
370
    18
100
AcDbVertex
100
AcDb2dVertex
 10
167.354125934724
 20
-187.1513671407122
 30
0.0
  0
VERTEX
  5
688
330
685
100
AcDbEntity
  8
Ebene 1
 62
   179
420
  1709851
370
    18
100
AcDbVertex
100
AcDb2dVertex
 10
167.5026095501382
 20
-187.2788356736664
 30
0.0
  0
VERTEX
  5
689
330
685
100
AcDbEntity
  8
Ebene 1
 62
   179
420
  1709851
370
    18
100
AcDbVertex
100
AcDb2dVertex
 10
167.671763738464
 20
-187.342225430595
 30
0.0
  0
VERTEX
  5
68A
330
685
100
AcDbEntity
  8
Ebene 1
 62
   179
420
  1709851
370
    18
100
AcDbVertex
100
AcDb2dVertex
 10
167.692778820924
 20
-187.342225430595
 30
0.0
  0
SEQEND
  5
68B
330
685
100
AcDbEntity
  8
Ebene 1
370
    18
  0
POLYLINE
  5
68C
330
1F
100
AcDbEntity
  8
Ebene 1
 62
   179
420
  1709851
370
    18
100
AcDb2dPolyline
 66
     1
 10
0.0
 20
0.0
 30
0.0
  0
VERTEX
  5
68D
330
68C
100
AcDbEntity
  8
Ebene 1
 62
   179
420
  1709851
370
    18
100
AcDbVertex
100
AcDb2dVertex
 10
161.5756672773144
 20
-186.9825574619349
 30
0.0
  0
VERTEX
  5
68E
330
68C
100
AcDbEntity
  8
Ebene 1
 62
   179
420
  1709851
370
    18
100
AcDbVertex
100
AcDb2dVertex
 10
161.597026869323
 20
-186.9405272970149
 30
0.0
  0
SEQEND
  5
68F
330
68C
100
AcDbEntity
  8
Ebene 1
370
    18
  0
POLYLINE
  5
690
330
1F
100
AcDbEntity
  8
Ebene 1
 62
   179
420
  1709851
370
    18
100
AcDb2dPolyline
 66
     1
 10
0.0
 20
0.0
 30
0.0
  0
VERTEX
  5
691
330
690
100
AcDbEntity
  8
Ebene 1
 62
   179
420
  1709851
370
    18
100
AcDbVertex
100
AcDb2dVertex
 10
159.6918890659798
 20
-187.342225430595
 30
0.0
  0
VERTEX
  5
692
330
690
100
AcDbEntity
  8
Ebene 1
 62
   179
420
  1709851
370
    18
100
AcDbVertex
100
AcDb2dVertex
 10
161.1946397166458
 20
-187.342225430595
 30
0.0
  0
SEQEND
  5
693
330
690
100
AcDbEntity
  8
Ebene 1
370
    18
  0
POLYLINE
  5
694
330
1F
100
AcDbEntity
  8
Ebene 1
 62
   179
420
  1709851
370
    18
100
AcDb2dPolyline
 66
     1
 10
0.0
 20
0.0
 30
0.0
  0
VERTEX
  5
695
330
694
100
AcDbEntity
  8
Ebene 1
 62
   179
420
  1709851
370
    18
100
AcDbVertex
100
AcDb2dVertex
 10
161.1946397166458
 20
-187.342225430595
 30
0.0
  0
VERTEX
  5
696
330
694
100
AcDbEntity
  8
Ebene 1
 62
   179
420
  1709851
370
    18
100
AcDbVertex
100
AcDb2dVertex
 10
161.3641384145201
 20
-187.300195265675
 30
0.0
  0
VERTEX
  5
697
330
694
100
AcDbEntity
  8
Ebene 1
 62
   179
420
  1709851
370
    18
100
AcDbVertex
100
AcDb2dVertex
 10
161.5122775203858
 20
-187.1734157518178
 30
0.0
  0
VERTEX
  5
698
330
694
100
AcDbEntity
  8
Ebene 1
 62
   179
420
  1709851
370
    18
100
AcDbVertex
100
AcDb2dVertex
 10
161.5756672773144
 20
-187.0039170539435
 30
0.0
  0
VERTEX
  5
699
330
694
100
AcDbEntity
  8
Ebene 1
 62
   179
420
  1709851
370
    18
100
AcDbVertex
100
AcDb2dVertex
 10
161.5756672773144
 20
-186.9825574619349
 30
0.0
  0
SEQEND
  5
69A
330
694
100
AcDbEntity
  8
Ebene 1
370
    18
  0
POLYLINE
  5
69B
330
1F
100
AcDbEntity
  8
Ebene 1
 62
   179
420
  1709851
370
    18
100
AcDb2dPolyline
 66
     1
 10
0.0
 20
0.0
 30
0.0
  0
VERTEX
  5
69C
330
69B
100
AcDbEntity
  8
Ebene 1
 62
   179
420
  1709851
370
    18
100
AcDbVertex
100
AcDb2dVertex
 10
159.2898464228512
 20
-186.9405272970149
 30
0.0
  0
VERTEX
  5
69D
330
69B
100
AcDbEntity
  8
Ebene 1
 62
   179
420
  1709851
370
    18
100
AcDbVertex
100
AcDb2dVertex
 10
159.2898464228512
 20
-186.9825574619349
 30
0.0
  0
SEQEND
  5
69E
330
69B
100
AcDbEntity
  8
Ebene 1
370
    18
  0
POLYLINE
  5
69F
330
1F
100
AcDbEntity
  8
Ebene 1
 62
   179
420
  1709851
370
    18
100
AcDb2dPolyline
 66
     1
 10
0.0
 20
0.0
 30
0.0
  0
VERTEX
  5
6A0
330
69F
100
AcDbEntity
  8
Ebene 1
 62
   179
420
  1709851
370
    18
100
AcDbVertex
100
AcDb2dVertex
 10
159.2898464228512
 20
-186.9825574619349
 30
0.0
  0
VERTEX
  5
6A1
330
69F
100
AcDbEntity
  8
Ebene 1
 62
   179
420
  1709851
370
    18
100
AcDbVertex
100
AcDb2dVertex
 10
159.3532361797797
 20
-187.1513671407122
 30
0.0
  0
VERTEX
  5
6A2
330
69F
100
AcDbEntity
  8
Ebene 1
 62
   179
420
  1709851
370
    18
100
AcDbVertex
100
AcDb2dVertex
 10
159.5013752856455
 20
-187.2788356736664
 30
0.0
  0
VERTEX
  5
6A3
330
69F
100
AcDbEntity
  8
Ebene 1
 62
   179
420
  1709851
370
    18
100
AcDbVertex
100
AcDb2dVertex
 10
159.6708739835198
 20
-187.342225430595
 30
0.0
  0
VERTEX
  5
6A4
330
69F
100
AcDbEntity
  8
Ebene 1
 62
   179
420
  1709851
370
    18
100
AcDbVertex
100
AcDb2dVertex
 10
159.6918890659798
 20
-187.342225430595
 30
0.0
  0
SEQEND
  5
6A5
330
69F
100
AcDbEntity
  8
Ebene 1
370
    18
  0
POLYLINE
  5
6A6
330
1F
100
AcDbEntity
  8
Ebene 1
 62
   179
420
  1709851
370
    18
100
AcDb2dPolyline
 66
     1
 10
0.0
 20
0.0
 30
0.0
  0
VERTEX
  5
6A7
330
6A6
100
AcDbEntity
  8
Ebene 1
 62
   179
420
  1709851
370
    18
100
AcDbVertex
100
AcDb2dVertex
 10
169.4287624359414
 20
-188.0408907950037
 30
0.0
  0
VERTEX
  5
6A8
330
6A6
100
AcDbEntity
  8
Ebene 1
 62
   179
420
  1709851
370
    18
100
AcDbVertex
100
AcDb2dVertex
 10
169.5345268673386
 20
-188.0408907950037
 30
0.0
  0
SEQEND
  5
6A9
330
6A6
100
AcDbEntity
  8
Ebene 1
370
    18
  0
POLYLINE
  5
6AA
330
1F
100
AcDbEntity
  8
Ebene 1
 62
   179
420
  1709851
370
    18
100
AcDb2dPolyline
 66
     1
 10
0.0
 20
0.0
 30
0.0
  0
VERTEX
  5
6AB
330
6AA
100
AcDbEntity
  8
Ebene 1
 62
   179
420
  1709851
370
    18
100
AcDbVertex
100
AcDb2dVertex
 10
167.333110852264
 20
-188.0408907950037
 30
0.0
  0
VERTEX
  5
6AC
330
6AA
100
AcDbEntity
  8
Ebene 1
 62
   179
420
  1709851
370
    18
100
AcDbVertex
100
AcDb2dVertex
 10
167.4388752836611
 20
-188.0408907950037
 30
0.0
  0
SEQEND
  5
6AD
330
6AA
100
AcDbEntity
  8
Ebene 1
370
    18
  0
POLYLINE
  5
6AE
330
1F
100
AcDbEntity
  8
Ebene 1
 62
   179
420
  1709851
370
    18
100
AcDb2dPolyline
 66
     1
 10
0.0
 20
0.0
 30
0.0
  0
VERTEX
  5
6AF
330
6AE
100
AcDbEntity
  8
Ebene 1
 62
   179
420
  1709851
370
    18
100
AcDbVertex
100
AcDb2dVertex
 10
159.4379855287169
 20
-188.0408907950037
 30
0.0
  0
VERTEX
  5
6B0
330
6AE
100
AcDbEntity
  8
Ebene 1
 62
   179
420
  1709851
370
    18
100
AcDbVertex
100
AcDb2dVertex
 10
159.3322210973197
 20
-188.0408907950037
 30
0.0
  0
SEQEND
  5
6B1
330
6AE
100
AcDbEntity
  8
Ebene 1
370
    18
  0
POLYLINE
  5
6B2
330
1F
100
AcDbEntity
  8
Ebene 1
 62
   179
420
  1709851
370
    18
100
AcDb2dPolyline
 66
     1
 10
0.0
 20
0.0
 30
0.0
  0
VERTEX
  5
6B3
330
6B2
100
AcDbEntity
  8
Ebene 1
 62
   179
420
  1709851
370
    18
100
AcDbVertex
100
AcDb2dVertex
 10
161.5332926028458
 20
-188.0408907950037
 30
0.0
  0
VERTEX
  5
6B4
330
6B2
100
AcDbEntity
  8
Ebene 1
 62
   179
420
  1709851
370
    18
100
AcDbVertex
100
AcDb2dVertex
 10
161.4488877634572
 20
-188.0408907950037
 30
0.0
  0
SEQEND
  5
6B5
330
6B2
100
AcDbEntity
  8
Ebene 1
370
    18
  0
POLYLINE
  5
6B6
330
1F
100
AcDbEntity
  8
Ebene 1
 62
   179
420
  1709851
370
    18
100
AcDb2dPolyline
 66
     1
 10
0.0
 20
0.0
 30
0.0
  0
VERTEX
  5
6B7
330
6B6
100
AcDbEntity
  8
Ebene 1
 62
   179
420
  1709851
370
    18
100
AcDbVertex
100
AcDb2dVertex
 10
159.2474717483826
 20
-186.7289984342205
 30
0.0
  0
VERTEX
  5
6B8
330
6B6
100
AcDbEntity
  8
Ebene 1
 62
   179
420
  1709851
370
    18
100
AcDbVertex
100
AcDb2dVertex
 10
169.6402912987358
 20
-186.7289984342205
 30
0.0
  0
SEQEND
  5
6B9
330
6B6
100
AcDbEntity
  8
Ebene 1
370
    18
  0
POLYLINE
  5
6BA
330
1F
100
AcDbEntity
  8
Ebene 1
 62
   179
420
  1709851
370
    18
100
AcDb2dPolyline
 66
     1
 10
0.0
 20
0.0
 30
0.0
  0
VERTEX
  5
6BB
330
6BA
100
AcDbEntity
  8
Ebene 1
 62
   179
420
  1709851
370
    18
100
AcDbVertex
100
AcDb2dVertex
 10
159.1627223994454
 20
-186.9405272970149
 30
0.0
  0
VERTEX
  5
6BC
330
6BA
100
AcDbEntity
  8
Ebene 1
 62
   179
420
  1709851
370
    18
100
AcDbVertex
100
AcDb2dVertex
 10
169.7250406476729
 20
-186.9405272970149
 30
0.0
  0
SEQEND
  5
6BD
330
6BA
100
AcDbEntity
  8
Ebene 1
370
    18
  0
POLYLINE
  5
6BE
330
1F
100
AcDbEntity
  8
Ebene 1
 62
   179
420
  1709851
370
    18
100
AcDb2dPolyline
 66
     1
 10
0.0
 20
0.0
 30
0.0
  0
VERTEX
  5
6BF
330
6BE
100
AcDbEntity
  8
Ebene 1
 62
   179
420
  1709851
370
    18
100
AcDbVertex
100
AcDb2dVertex
 10
159.4379855287169
 20
-186.4533907954005
 30
0.0
  0
VERTEX
  5
6C0
330
6BE
100
AcDbEntity
  8
Ebene 1
 62
   179
420
  1709851
370
    18
100
AcDbVertex
100
AcDb2dVertex
 10
159.4379855287169
 20
-186.7289984342205
 30
0.0
  0
SEQEND
  5
6C1
330
6BE
100
AcDbEntity
  8
Ebene 1
370
    18
  0
POLYLINE
  5
6C2
330
1F
100
AcDbEntity
  8
Ebene 1
 62
   179
420
  1709851
370
    18
100
AcDb2dPolyline
 66
     1
 10
0.0
 20
0.0
 30
0.0
  0
VERTEX
  5
6C3
330
6C2
100
AcDbEntity
  8
Ebene 1
 62
   179
420
  1709851
370
    18
100
AcDbVertex
100
AcDb2dVertex
 10
161.4488877634572
 20
-186.7289984342205
 30
0.0
  0
VERTEX
  5
6C4
330
6C2
100
AcDbEntity
  8
Ebene 1
 62
   179
420
  1709851
370
    18
100
AcDbVertex
100
AcDb2dVertex
 10
161.4488877634572
 20
-186.4533907954005
 30
0.0
  0
SEQEND
  5
6C5
330
6C2
100
AcDbEntity
  8
Ebene 1
370
    18
  0
POLYLINE
  5
6C6
330
1F
100
AcDbEntity
  8
Ebene 1
 62
   179
420
  1709851
370
    18
100
AcDb2dPolyline
 66
     1
 10
0.0
 20
0.0
 30
0.0
  0
VERTEX
  5
6C7
330
6C6
100
AcDbEntity
  8
Ebene 1
 62
   179
420
  1709851
370
    18
100
AcDbVertex
100
AcDb2dVertex
 10
169.4287624359414
 20
-186.7289984342205
 30
0.0
  0
VERTEX
  5
6C8
330
6C6
100
AcDbEntity
  8
Ebene 1
 62
   179
420
  1709851
370
    18
100
AcDbVertex
100
AcDb2dVertex
 10
169.4287624359414
 20
-186.4533907954005
 30
0.0
  0
SEQEND
  5
6C9
330
6C6
100
AcDbEntity
  8
Ebene 1
370
    18
  0
POLYLINE
  5
6CA
330
1F
100
AcDbEntity
  8
Ebene 1
 62
   179
420
  1709851
370
    18
100
AcDb2dPolyline
 66
     1
 10
0.0
 20
0.0
 30
0.0
  0
VERTEX
  5
6CB
330
6CA
100
AcDbEntity
  8
Ebene 1
 62
   179
420
  1709851
370
    18
100
AcDbVertex
100
AcDb2dVertex
 10
167.4388752836611
 20
-186.4533907954005
 30
0.0
  0
VERTEX
  5
6CC
330
6CA
100
AcDbEntity
  8
Ebene 1
 62
   179
420
  1709851
370
    18
100
AcDbVertex
100
AcDb2dVertex
 10
167.4388752836611
 20
-186.7289984342205
 30
0.0
  0
SEQEND
  5
6CD
330
6CA
100
AcDbEntity
  8
Ebene 1
370
    18
  0
POLYLINE
  5
6CE
330
1F
100
AcDbEntity
  8
Ebene 1
 62
   179
420
  1709851
370
    18
100
AcDb2dPolyline
 66
     1
 10
0.0
 20
0.0
 30
0.0
  0
VERTEX
  5
6CF
330
6CE
100
AcDbEntity
  8
Ebene 1
 62
   179
420
  1709851
370
    18
100
AcDbVertex
100
AcDb2dVertex
 10
167.4388752836611
 20
-189.2266926610267
 30
0.0
  0
VERTEX
  5
6D0
330
6CE
100
AcDbEntity
  8
Ebene 1
 62
   179
420
  1709851
370
    18
100
AcDbVertex
100
AcDb2dVertex
 10
169.4287624359414
 20
-189.2266926610267
 30
0.0
  0
SEQEND
  5
6D1
330
6CE
100
AcDbEntity
  8
Ebene 1
370
    18
  0
POLYLINE
  5
6D2
330
1F
100
AcDbEntity
  8
Ebene 1
 62
   179
420
  1709851
370
    18
100
AcDb2dPolyline
 66
     1
 10
0.0
 20
0.0
 30
0.0
  0
VERTEX
  5
6D3
330
6D2
100
AcDbEntity
  8
Ebene 1
 62
   179
420
  1709851
370
    18
100
AcDbVertex
100
AcDb2dVertex
 10
159.4379855287169
 20
-189.2266926610267
 30
0.0
  0
VERTEX
  5
6D4
330
6D2
100
AcDbEntity
  8
Ebene 1
 62
   179
420
  1709851
370
    18
100
AcDbVertex
100
AcDb2dVertex
 10
161.4488877634572
 20
-189.2266926610267
 30
0.0
  0
SEQEND
  5
6D5
330
6D2
100
AcDbEntity
  8
Ebene 1
370
    18
  0
POLYLINE
  5
6D6
330
1F
100
AcDbEntity
  8
Ebene 1
 62
   179
420
  1709851
370
    18
100
AcDb2dPolyline
 66
     1
 10
0.0
 20
0.0
 30
0.0
  0
VERTEX
  5
6D7
330
6D6
100
AcDbEntity
  8
Ebene 1
 62
   179
420
  1709851
370
    18
100
AcDbVertex
100
AcDb2dVertex
 10
161.4488877634572
 20
-186.4533907954005
 30
0.0
  0
VERTEX
  5
6D8
330
6D6
100
AcDbEntity
  8
Ebene 1
 62
   179
420
  1709851
370
    18
100
AcDbVertex
100
AcDb2dVertex
 10
159.4379855287169
 20
-186.4533907954005
 30
0.0
  0
SEQEND
  5
6D9
330
6D6
100
AcDbEntity
  8
Ebene 1
370
    18
  0
POLYLINE
  5
6DA
330
1F
100
AcDbEntity
  8
Ebene 1
 62
   179
420
  1709851
370
    18
100
AcDb2dPolyline
 66
     1
 10
0.0
 20
0.0
 30
0.0
  0
VERTEX
  5
6DB
330
6DA
100
AcDbEntity
  8
Ebene 1
 62
   179
420
  1709851
370
    18
100
AcDbVertex
100
AcDb2dVertex
 10
167.4388752836611
 20
-186.4533907954005
 30
0.0
  0
VERTEX
  5
6DC
330
6DA
100
AcDbEntity
  8
Ebene 1
 62
   179
420
  1709851
370
    18
100
AcDbVertex
100
AcDb2dVertex
 10
169.4287624359414
 20
-186.4533907954005
 30
0.0
  0
SEQEND
  5
6DD
330
6DA
100
AcDbEntity
  8
Ebene 1
370
    18
  0
POLYLINE
  5
6DE
330
1F
100
AcDbEntity
  8
Ebene 1
 62
   179
420
  1709851
370
    18
100
AcDb2dPolyline
 66
     1
 10
0.0
 20
0.0
 30
0.0
  0
VERTEX
  5
6DF
330
6DE
100
AcDbEntity
  8
Ebene 1
 62
   179
420
  1709851
370
    18
100
AcDbVertex
100
AcDb2dVertex
 10
170.1270832908016
 20
-186.6649196581949
 30
0.0
  0
VERTEX
  5
6E0
330
6DE
100
AcDbEntity
  8
Ebene 1
 62
   179
420
  1709851
370
    18
100
AcDbVertex
100
AcDb2dVertex
 10
169.9999592673958
 20
-186.707638842212
 30
0.0
  0
VERTEX
  5
6E1
330
6DE
100
AcDbEntity
  8
Ebene 1
 62
   179
420
  1709851
370
    18
100
AcDbVertex
100
AcDb2dVertex
 10
169.9789441849358
 20
-186.707638842212
 30
0.0
  0
SEQEND
  5
6E2
330
6DE
100
AcDbEntity
  8
Ebene 1
370
    18
  0
POLYLINE
  5
6E3
330
1F
100
AcDbEntity
  8
Ebene 1
 62
   179
420
  1709851
370
    18
100
AcDb2dPolyline
 66
     1
 10
0.0
 20
0.0
 30
0.0
  0
VERTEX
  5
6E4
330
6E3
100
AcDbEntity
  8
Ebene 1
 62
   179
420
  1709851
370
    18
100
AcDbVertex
100
AcDb2dVertex
 10
166.9734428836039
 20
-186.5167805523292
 30
0.0
  0
VERTEX
  5
6E5
330
6E3
100
AcDbEntity
  8
Ebene 1
 62
   179
420
  1709851
370
    18
100
AcDbVertex
100
AcDb2dVertex
 10
166.8673339426582
 20
-186.4533907954005
 30
0.0
  0
VERTEX
  5
6E6
330
6E3
100
AcDbEntity
  8
Ebene 1
 62
   179
420
  1709851
370
    18
100
AcDbVertex
100
AcDb2dVertex
 10
166.8463188601982
 20
-186.4533907954005
 30
0.0
  0
SEQEND
  5
6E7
330
6E3
100
AcDbEntity
  8
Ebene 1
370
    18
  0
POLYLINE
  5
6E8
330
1F
100
AcDbEntity
  8
Ebene 1
 62
   179
420
  1709851
370
    18
100
AcDb2dPolyline
 66
     1
 10
0.0
 20
0.0
 30
0.0
  0
VERTEX
  5
6E9
330
6E8
100
AcDbEntity
  8
Ebene 1
 62
   179
420
  1709851
370
    18
100
AcDbVertex
100
AcDb2dVertex
 10
170.0423339418644
 20
-186.4533907954005
 30
0.0
  0
VERTEX
  5
6EA
330
6E8
100
AcDbEntity
  8
Ebene 1
 62
   179
420
  1709851
370
    18
100
AcDbVertex
100
AcDb2dVertex
 10
169.9155544280072
 20
-186.4961099794176
 30
0.0
  0
VERTEX
  5
6EB
330
6E8
100
AcDbEntity
  8
Ebene 1
 62
   179
420
  1709851
370
    18
100
AcDbVertex
100
AcDb2dVertex
 10
169.8941948359987
 20
-186.5167805523292
 30
0.0
  0
SEQEND
  5
6EC
330
6E8
100
AcDbEntity
  8
Ebene 1
370
    18
  0
POLYLINE
  5
6ED
330
1F
100
AcDbEntity
  8
Ebene 1
 62
   179
420
  1709851
370
    18
100
AcDb2dPolyline
 66
     1
 10
0.0
 20
0.0
 30
0.0
  0
VERTEX
  5
6EE
330
6ED
100
AcDbEntity
  8
Ebene 1
 62
   179
420
  1709851
370
    18
100
AcDbVertex
100
AcDb2dVertex
 10
169.7250406476729
 20
-186.9405272970149
 30
0.0
  0
VERTEX
  5
6EF
330
6ED
100
AcDbEntity
  8
Ebene 1
 62
   179
420
  1709851
370
    18
100
AcDbVertex
100
AcDb2dVertex
 10
169.7884304046015
 20
-186.8978081129978
 30
0.0
  0
SEQEND
  5
6F0
330
6ED
100
AcDbEntity
  8
Ebene 1
370
    18
  0
POLYLINE
  5
6F1
330
1F
100
AcDbEntity
  8
Ebene 1
 62
   179
420
  1709851
370
    18
100
AcDb2dPolyline
 66
     1
 10
0.0
 20
0.0
 30
0.0
  0
VERTEX
  5
6F2
330
6F1
100
AcDbEntity
  8
Ebene 1
 62
   179
420
  1709851
370
    18
100
AcDbVertex
100
AcDb2dVertex
 10
169.6402912987358
 20
-186.7289984342205
 30
0.0
  0
VERTEX
  5
6F3
330
6F1
100
AcDbEntity
  8
Ebene 1
 62
   179
420
  1709851
370
    18
100
AcDbVertex
100
AcDb2dVertex
 10
169.7036810556644
 20
-186.707638842212
 30
0.0
  0
SEQEND
  5
6F4
330
6F1
100
AcDbEntity
  8
Ebene 1
370
    18
  0
POLYLINE
  5
6F5
330
1F
100
AcDbEntity
  8
Ebene 1
 62
   179
420
  1709851
370
    18
100
AcDb2dPolyline
 66
     1
 10
0.0
 20
0.0
 30
0.0
  0
VERTEX
  5
6F6
330
6F5
100
AcDbEntity
  8
Ebene 1
 62
   179
420
  1709851
370
    18
100
AcDbVertex
100
AcDb2dVertex
 10
167.1636121543897
 20
-186.707638842212
 30
0.0
  0
VERTEX
  5
6F7
330
6F5
100
AcDbEntity
  8
Ebene 1
 62
   179
420
  1709851
370
    18
100
AcDbVertex
100
AcDb2dVertex
 10
167.2483615033268
 20
-186.7289984342205
 30
0.0
  0
SEQEND
  5
6F8
330
6F5
100
AcDbEntity
  8
Ebene 1
370
    18
  0
POLYLINE
  5
6F9
330
1F
100
AcDbEntity
  8
Ebene 1
 62
   179
420
  1709851
370
    18
100
AcDb2dPolyline
 66
     1
 10
0.0
 20
0.0
 30
0.0
  0
VERTEX
  5
6FA
330
6F9
100
AcDbEntity
  8
Ebene 1
 62
   179
420
  1709851
370
    18
100
AcDbVertex
100
AcDb2dVertex
 10
161.6394015437915
 20
-186.7289984342205
 30
0.0
  0
VERTEX
  5
6FB
330
6F9
100
AcDbEntity
  8
Ebene 1
 62
   179
420
  1709851
370
    18
100
AcDbVertex
100
AcDb2dVertex
 10
161.7027913007202
 20
-186.707638842212
 30
0.0
  0
SEQEND
  5
6FC
330
6F9
100
AcDbEntity
  8
Ebene 1
370
    18
  0
POLYLINE
  5
6FD
330
1F
100
AcDbEntity
  8
Ebene 1
 62
   179
420
  1709851
370
    18
100
AcDb2dPolyline
 66
     1
 10
0.0
 20
0.0
 30
0.0
  0
VERTEX
  5
6FE
330
6FD
100
AcDbEntity
  8
Ebene 1
 62
   179
420
  1709851
370
    18
100
AcDbVertex
100
AcDb2dVertex
 10
159.184081991454
 20
-186.707638842212
 30
0.0
  0
VERTEX
  5
6FF
330
6FD
100
AcDbEntity
  8
Ebene 1
 62
   179
420
  1709851
370
    18
100
AcDbVertex
100
AcDb2dVertex
 10
159.2474717483826
 20
-186.7289984342205
 30
0.0
  0
SEQEND
  5
700
330
6FD
100
AcDbEntity
  8
Ebene 1
370
    18
  0
POLYLINE
  5
701
330
1F
100
AcDbEntity
  8
Ebene 1
 62
   179
420
  1709851
370
    18
100
AcDb2dPolyline
 66
     1
 10
0.0
 20
0.0
 30
0.0
  0
VERTEX
  5
702
330
701
100
AcDbEntity
  8
Ebene 1
 62
   179
420
  1709851
370
    18
100
AcDbVertex
100
AcDb2dVertex
 10
159.0993326425168
 20
-186.8978081129978
 30
0.0
  0
VERTEX
  5
703
330
701
100
AcDbEntity
  8
Ebene 1
 62
   179
420
  1709851
370
    18
100
AcDbVertex
100
AcDb2dVertex
 10
159.1627223994454
 20
-186.9405272970149
 30
0.0
  0
SEQEND
  5
704
330
701
100
AcDbEntity
  8
Ebene 1
370
    18
  0
POLYLINE
  5
705
330
1F
100
AcDbEntity
  8
Ebene 1
 62
   179
420
  1709851
370
    18
100
AcDb2dPolyline
 66
     1
 10
0.0
 20
0.0
 30
0.0
  0
VERTEX
  5
706
330
705
100
AcDbEntity
  8
Ebene 1
 62
   179
420
  1709851
370
    18
100
AcDbVertex
100
AcDb2dVertex
 10
158.9722086191111
 20
-186.5167805523292
 30
0.0
  0
VERTEX
  5
707
330
705
100
AcDbEntity
  8
Ebene 1
 62
   179
420
  1709851
370
    18
100
AcDbVertex
100
AcDb2dVertex
 10
158.8664441877139
 20
-186.4533907954005
 30
0.0
  0
VERTEX
  5
708
330
705
100
AcDbEntity
  8
Ebene 1
 62
   179
420
  1709851
370
    18
100
AcDbVertex
100
AcDb2dVertex
 10
158.8457736148025
 20
-186.4533907954005
 30
0.0
  0
SEQEND
  5
709
330
705
100
AcDbEntity
  8
Ebene 1
370
    18
  0
POLYLINE
  5
70A
330
1F
100
AcDbEntity
  8
Ebene 1
 62
   179
420
  1709851
370
    18
100
AcDb2dPolyline
 66
     1
 10
0.0
 20
0.0
 30
0.0
  0
VERTEX
  5
70B
330
70A
100
AcDbEntity
  8
Ebene 1
 62
   179
420
  1709851
370
    18
100
AcDbVertex
100
AcDb2dVertex
 10
158.9088188621825
 20
-186.707638842212
 30
0.0
  0
VERTEX
  5
70C
330
70A
100
AcDbEntity
  8
Ebene 1
 62
   179
420
  1709851
370
    18
100
AcDbVertex
100
AcDb2dVertex
 10
158.7816948387768
 20
-186.6649196581949
 30
0.0
  0
VERTEX
  5
70D
330
70A
100
AcDbEntity
  8
Ebene 1
 62
   179
420
  1709851
370
    18
100
AcDbVertex
100
AcDb2dVertex
 10
158.7606797563168
 20
-186.6649196581949
 30
0.0
  0
SEQEND
  5
70E
330
70A
100
AcDbEntity
  8
Ebene 1
370
    18
  0
POLYLINE
  5
70F
330
1F
100
AcDbEntity
  8
Ebene 1
 62
   179
420
  1709851
370
    18
100
AcDb2dPolyline
 66
     1
 10
0.0
 20
0.0
 30
0.0
  0
VERTEX
  5
710
330
70F
100
AcDbEntity
  8
Ebene 1
 62
   179
420
  1709851
370
    18
100
AcDbVertex
100
AcDb2dVertex
 10
162.0414441869202
 20
-186.4533907954005
 30
0.0
  0
VERTEX
  5
711
330
70F
100
AcDbEntity
  8
Ebene 1
 62
   179
420
  1709851
370
    18
100
AcDbVertex
100
AcDb2dVertex
 10
161.9143201635145
 20
-186.4961099794176
 30
0.0
  0
VERTEX
  5
712
330
70F
100
AcDbEntity
  8
Ebene 1
 62
   179
420
  1709851
370
    18
100
AcDbVertex
100
AcDb2dVertex
 10
161.8933050810545
 20
-186.5167805523292
 30
0.0
  0
SEQEND
  5
713
330
70F
100
AcDbEntity
  8
Ebene 1
370
    18
  0
ENDSEC
  0
SECTION
  2
OBJECTS
  0
DICTIONARY
  5
C
330
0
100
AcDbDictionary
281
     1
  3
ACAD_GROUP
350
D
  3
ACAD_LAYOUT
350
1A
  3
ACAD_MLINESTYLE
350
17
  3
ACAD_PLOTSETTINGS
350
19
  3
ACAD_PLOTSTYLENAME
350
E
  3
ACAD_TABLESTYLE
350
714
  3
ACAD_VISUALSTYLE
350
2A
  0
DICTIONARY
  5
D
102
{ACAD_REACTORS
330
C
102
}
330
C
100
AcDbDictionary
281
     1
  0
DICTIONARY
  5
1A
102
{ACAD_REACTORS
330
C
102
}
330
C
100
AcDbDictionary
281
     1
  3
Layout1
350
1E
  3
Layout2
350
26
  3
Model
350
22
  0
DICTIONARY
  5
17
102
{ACAD_REACTORS
330
C
102
}
330
C
100
AcDbDictionary
281
     1
  3
Standard
350
18
  0
DICTIONARY
  5
19
102
{ACAD_REACTORS
330
C
102
}
330
C
100
AcDbDictionary
281
     1
  0
ACDBDICTIONARYWDFLT
  5
E
102
{ACAD_REACTORS
330
C
102
}
330
C
100
AcDbDictionary
281
     1
  3
Normal
350
F
100
AcDbDictionaryWithDefault
340
F
  0
DICTIONARY
  5
714
102
{ACAD_REACTORS
330
C
102
}
330
C
100
AcDbDictionary
281
     1
  0
DICTIONARY
  5
2A
102
{ACAD_REACTORS
330
C
102
}
330
C
100
AcDbDictionary
281
     1
  3
2dWireframe
350
2F
  3
3D Hidden
350
31
  3
3dWireframe
350
30
  3
Basic
350
32
  3
Brighten
350
36
  3
ColorChange
350
3A
  3
Conceptual
350
34
  3
Dim
350
35
  3
Facepattern
350
39
  3
Flat
350
2B
  3
FlatWithEdges
350
2C
  3
Gouraud
350
2D
  3
GouraudWithEdges
350
2E
  3
Linepattern
350
38
  3
Realistic
350
33
  3
Thicken
350
37
  0
LAYOUT
  5
1E
102
{ACAD_REACTORS
330
1A
102
}
330
1A
100
AcDbPlotSettings
  1

  2
none_device
  4

  6

 40
0.0
 41
0.0
 42
0.0
 43
0.0
 44
0.0
 45
0.0
 46
0.0
 47
0.0
 48
0.0
 49
0.0
140
0.0
141
0.0
142
1.0
143
1.0
 70
   688
 72
     0
 73
     0
 74
     5
  7

 75
    16
 76
     0
 77
     2
 78
   300
147
1.0
148
0.0
149
0.0
100
AcDbLayout
  1
Layout1
 70
     1
 71
     1
 10
0.0
 20
0.0
 11
12.0
 21
9.0
 12
0.0
 22
0.0
 32
0.0
 14
1.000000000000000E+20
 24
1.000000000000000E+20
 34
1.000000000000000E+20
 15
-1.000000000000000E+20
 25
-1.000000000000000E+20
 35
-1.000000000000000E+20
146
0.0
 13
0.0
 23
0.0
 33
0.0
 16
1.0
 26
0.0
 36
0.0
 17
0.0
 27
1.0
 37
0.0
 76
     0
330
1B
  0
LAYOUT
  5
26
102
{ACAD_REACTORS
330
1A
102
}
330
1A
100
AcDbPlotSettings
  1

  2
none_device
  4

  6

 40
0.0
 41
0.0
 42
0.0
 43
0.0
 44
0.0
 45
0.0
 46
0.0
 47
0.0
 48
0.0
 49
0.0
140
0.0
141
0.0
142
1.0
143
1.0
 70
   688
 72
     0
 73
     0
 74
     5
  7

 75
    16
 76
     0
 77
     2
 78
   300
147
1.0
148
0.0
149
0.0
100
AcDbLayout
  1
Layout2
 70
     1
 71
     2
 10
0.0
 20
0.0
 11
0.0
 21
0.0
 12
0.0
 22
0.0
 32
0.0
 14
0.0
 24
0.0
 34
0.0
 15
0.0
 25
0.0
 35
0.0
146
0.0
 13
0.0
 23
0.0
 33
0.0
 16
1.0
 26
0.0
 36
0.0
 17
0.0
 27
1.0
 37
0.0
 76
     0
330
23
  0
LAYOUT
  5
22
102
{ACAD_REACTORS
330
1A
102
}
330
1A
100
AcDbPlotSettings
  1

  2
none_device
  4

  6

 40
0.0
 41
0.0
 42
0.0
 43
0.0
 44
0.0
 45
0.0
 46
0.0
 47
0.0
 48
0.0
 49
0.0
140
0.0
141
0.0
142
1.0
143
1.0
 70
  1712
 72
     0
 73
     0
 74
     0
  7

 75
     0
 76
     0
 77
     2
 78
   300
147
1.0
148
0.0
149
0.0
100
AcDbLayout
  1
Model
 70
     1
 71
     0
 10
0.0
 20
0.0
 11
12.0
 21
9.0
 12
0.0
 22
0.0
 32
0.0
 14
1.000000000000000E+20
 24
1.000000000000000E+20
 34
1.000000000000000E+20
 15
-1.000000000000000E+20
 25
-1.000000000000000E+20
 35
-1.000000000000000E+20
146
0.0
 13
0.0
 23
0.0
 33
0.0
 16
1.0
 26
0.0
 36
0.0
 17
0.0
 27
1.0
 37
0.0
 76
     0
330
1F
331
29
  0
MLINESTYLE
  5
18
102
{ACAD_REACTORS
330
17
102
}
330
17
100
AcDbMlineStyle
  2
Standard
 70
     0
  3

 62
   256
 51
90.0
 52
90.0
 71
     2
 49
0.5
 62
   256
  6
BYLAYER
 49
-0.5
 62
   256
  6
BYLAYER
  0
ACDBPLACEHOLDER
  5
F
102
{ACAD_REACTORS
330
E
102
}
330
E
  0
VISUALSTYLE
  5
2F
102
{ACAD_REACTORS
330
2A
102
}
330
2A
100
AcDbVisualStyle
  2
2dWireframe
 70
     4
 71
     0
 72
     2
 73
     0
 90
        0
 40
-0.6
 41
-30.0
 62
     5
 63
     7
421
 16777215
 74
     1
 91
        4
 64
     7
 65
   257
 75
     1
175
     1
 42
1.0
 92
        0
 66
   257
 43
1.0
 76
     1
 77
     6
 78
     2
 67
     7
 79
     5
170
     0
171
     0
290
     0
174
     0
 93
        1
 44
0.0
173
     0
291
     0
 45
0.0
1001
ACAD
1000
AcDbSavedByObjectVersion
1070
     0
  0
VISUALSTYLE
  5
31
102
{ACAD_REACTORS
330
2A
102
}
330
2A
100
AcDbVisualStyle
  2
3D Hidden
 70
     6
 71
     1
 72
     2
 73
     2
 90
        0
 40
-0.6
 41
-30.0
 62
     5
 63
     7
421
 16777215
 74
     2
 91
        2
 64
     7
 65
   257
 75
     2
175
     1
 42
40.0
 92
        0
 66
   257
 43
1.0
 76
     1
 77
     6
 78
     2
 67
     7
 79
     3
170
     0
171
     0
290
     0
174
     0
 93
        1
 44
0.0
173
     0
291
     0
 45
0.0
1001
ACAD
1000
AcDbSavedByObjectVersion
1070
     0
  0
VISUALSTYLE
  5
30
102
{ACAD_REACTORS
330
2A
102
}
330
2A
100
AcDbVisualStyle
  2
3dWireframe
 70
     5
 71
     0
 72
     2
 73
     0
 90
        0
 40
-0.6
 41
-30.0
 62
     5
 63
     7
421
 16777215
 74
     1
 91
        4
 64
     7
 65
   257
 75
     1
175
     1
 42
1.0
 92
        0
 66
   257
 43
1.0
 76
     1
 77
     6
 78
     2
 67
     7
 79
     5
170
     0
171
     0
290
     0
174
     0
 93
        1
 44
0.0
173
     0
291
     0
 45
0.0
1001
ACAD
1000
AcDbSavedByObjectVersion
1070
     0
  0
VISUALSTYLE
  5
32
102
{ACAD_REACTORS
330
2A
102
}
330
2A
100
AcDbVisualStyle
  2
Basic
 70
     7
 71
     1
 72
     0
 73
     1
 90
        0
 40
-0.6
 41
-30.0
 62
     5
 63
     7
421
 16777215
 74
     0
 91
        4
 64
     7
 65
   257
 75
     1
175
     1
 42
1.0
 92
        8
 66
     7
 43
1.0
 76
     1
 77
     6
 78
     2
 67
     7
 79
     5
170
     0
171
     0
290
     0
174
     0
 93
        1
 44
0.0
173
     0
291
     1
 45
0.0
1001
ACAD
1000
AcDbSavedByObjectVersion
1070
     0
  0
VISUALSTYLE
  5
36
102
{ACAD_REACTORS
330
2A
102
}
330
2A
100
AcDbVisualStyle
  2
Brighten
 70
    12
 71
     2
 72
     2
 73
     0
 90
        0
 40
-0.6
 41
-30.0
 62
     5
 63
     7
421
 16777215
 74
     1
 91
        4
 64
     7
 65
   257
 75
     1
175
     1
 42
1.0
 92
        8
 66
     7
 43
1.0
 76
     1
 77
     6
 78
     2
 67
     7
 79
     5
170
     0
171
     0
290
     0
174
     0
 93
        1
 44
50.0
173
     0
291
     1
 45
0.0
1001
ACAD
1000
AcDbSavedByObjectVersion
1070
     0
  0
VISUALSTYLE
  5
3A
102
{ACAD_REACTORS
330
2A
102
}
330
2A
100
AcDbVisualStyle
  2
ColorChange
 70
    16
 71
     2
 72
     2
 73
     3
 90
        0
 40
-0.6
 41
-30.0
 62
     5
 63
     8
421
  8421504
 74
     1
 91
        4
 64
     7
 65
   257
 75
     1
175
     1
 42
1.0
 92
        8
 66
     8
424
  8421504
 43
1.0
 76
     1
 77
     6
 78
     2
 67
     7
 79
     5
170
     0
171
     0
290
     0
174
     0
 93
        1
 44
0.0
173
     0
291
     1
 45
0.0
1001
ACAD
1000
AcDbSavedByObjectVersion
1070
     0
  0
VISUALSTYLE
  5
34
102
{ACAD_REACTORS
330
2A
102
}
330
2A
100
AcDbVisualStyle
  2
Conceptual
 70
     9
 71
     3
 72
     2
 73
     0
 90
        0
 40
-0.6
 41
-30.0
 62
     5
 63
     7
421
 16777215
 74
     2
 91
        2
 64
     7
 65
   257
 75
     1
175
     1
 42
40.0
 92
        8
 66
     7
 43
1.0
 76
     1
 77
     6
 78
     2
 67
     7
 79
     3
170
     0
171
     0
290
     0
174
     0
 93
        1
 44
0.0
173
     0
291
     0
 45
0.0
1001
ACAD
1000
AcDbSavedByObjectVersion
1070
     0
  0
VISUALSTYLE
  5
35
102
{ACAD_REACTORS
330
2A
102
}
330
2A
100
AcDbVisualStyle
  2
Dim
 70
    11
 71
     2
 72
     2
 73
     0
 90
        0
 40
-0.6
 41
-30.0
 62
     5
 63
     7
421
 16777215
 74
     1
 91
        4
 64
     7
 65
   257
 75
     1
175
     1
 42
1.0
 92
        8
 66
     7
 43
1.0
 76
     1
 77
     6
 78
     2
 67
     7
 79
     5
170
     0
171
     0
290
     0
174
     0
 93
        1
 44
-50.0
173
     0
291
     1
 45
0.0
1001
ACAD
1000
AcDbSavedByObjectVersion
1070
     0
  0
VISUALSTYLE
  5
39
102
{ACAD_REACTORS
330
2A
102
}
330
2A
100
AcDbVisualStyle
  2
Facepattern
 70
    15
 71
     2
 72
     2
 73
     0
 90
        0
 40
-0.6
 41
-30.0
 62
     5
 63
     7
421
 16777215
 74
     1
 91
        4
 64
     7
 65
   257
 75
     1
175
     1
 42
1.0
 92
        8
 66
     7
 43
1.0
 76
     1
 77
     6
 78
     2
 67
     7
 79
     5
170
     0
171
     0
290
     0
174
     0
 93
        1
 44
0.0
173
     0
291
     1
 45
0.0
1001
ACAD
1000
AcDbSavedByObjectVersion
1070
     0
  0
VISUALSTYLE
  5
2B
102
{ACAD_REACTORS
330
2A
102
}
330
2A
100
AcDbVisualStyle
  2
Flat
 70
     0
 71
     2
 72
     1
 73
     1
 90
        2
 40
-0.6
 41
30.0
 62
     5
 63
     7
421
 16777215
 74
     0
 91
        4
 64
     7
 65
   257
 75
     1
175
     1
 42
1.0
 92
        8
 66
     7
 43
1.0
 76
     1
 77
     6
 78
     2
 67
     7
 79
     5
170
     0
171
     0
290
     0
174
     0
 93
       13
 44
0.0
173
     0
291
     1
 45
0.0
1001
ACAD
1000
AcDbSavedByObjectVersion
1070
     0
  0
VISUALSTYLE
  5
2C
102
{ACAD_REACTORS
330
2A
102
}
330
2A
100
AcDbVisualStyle
  2
FlatWithEdges
 70
     1
 71
     2
 72
     1
 73
     1
 90
        2
 40
-0.6
 41
30.0
 62
     5
 63
     7
421
 16777215
 74
     1
 91
        4
 64
     7
 65
   257
 75
     1
175
     1
 42
1.0
 92
        0
 66
   257
 43
1.0
 76
     1
 77
     6
 78
     2
 67
     7
 79
     5
170
     0
171
     0
290
     0
174
     0
 93
       13
 44
0.0
173
     0
291
     1
 45
0.0
1001
ACAD
1000
AcDbSavedByObjectVersion
1070
     0
  0
VISUALSTYLE
  5
2D
102
{ACAD_REACTORS
330
2A
102
}
330
2A
100
AcDbVisualStyle
  2
Gouraud
 70
     2
 71
     2
 72
     2
 73
     1
 90
        2
 40
-0.6
 41
30.0
 62
     5
 63
     7
421
 16777215
 74
     0
 91
        4
 64
     7
 65
   257
 75
     1
175
     1
 42
1.0
 92
        0
 66
     7
 43
1.0
 76
     1
 77
     6
 78
     2
 67
     7
 79
     5
170
     0
171
     0
290
     0
174
     0
 93
       13
 44
0.0
173
     0
291
     1
 45
0.0
1001
ACAD
1000
AcDbSavedByObjectVersion
1070
     0
  0
VISUALSTYLE
  5
2E
102
{ACAD_REACTORS
330
2A
102
}
330
2A
100
AcDbVisualStyle
  2
GouraudWithEdges
 70
     3
 71
     2
 72
     2
 73
     1
 90
        2
 40
-0.6
 41
30.0
 62
     5
 63
     7
421
 16777215
 74
     1
 91
        4
 64
     7
 65
   257
 75
     1
175
     1
 42
1.0
 92
        0
 66
   257
 43
1.0
 76
     1
 77
     6
 78
     2
 67
     7
 79
     5
170
     0
171
     0
290
     0
174
     0
 93
       13
 44
0.0
173
     0
291
     1
 45
0.0
1001
ACAD
1000
AcDbSavedByObjectVersion
1070
     0
  0
VISUALSTYLE
  5
38
102
{ACAD_REACTORS
330
2A
102
}
330
2A
100
AcDbVisualStyle
  2
Linepattern
 70
    14
 71
     2
 72
     2
 73
     0
 90
        0
 40
-0.6
 41
-30.0
 62
     5
 63
     7
421
 16777215
 74
     1
 91
        4
 64
     7
 65
   257
 75
     7
175
     7
 42
1.0
 92
        8
 66
     7
 43
1.0
 76
     1
 77
     6
 78
     2
 67
     7
 79
     5
170
     0
171
     0
290
     0
174
     0
 93
        1
 44
0.0
173
     0
291
     1
 45
0.0
1001
ACAD
1000
AcDbSavedByObjectVersion
1070
     0
  0
VISUALSTYLE
  5
33
102
{ACAD_REACTORS
330
2A
102
}
330
2A
100
AcDbVisualStyle
  2
Realistic
 70
     8
 71
     2
 72
     2
 73
     0
 90
        0
 40
-0.6
 41
-30.0
 62
     5
 63
     7
421
 16777215
 74
     1
 91
        0
 64
     7
 65
   257
 75
     1
175
     1
 42
1.0
 92
        8
 66
     8
424
  7895160
 43
1.0
 76
     1
 77
     6
 78
     2
 67
     7
 79
     5
170
     0
171
     0
290
     0
174
     0
 93
       13
 44
0.0
173
     0
291
     0
 45
0.0
1001
ACAD
1000
AcDbSavedByObjectVersion
1070
     0
  0
VISUALSTYLE
  5
37
102
{ACAD_REACTORS
330
2A
102
}
330
2A
100
AcDbVisualStyle
  2
Thicken
 70
    13
 71
     2
 72
     2
 73
     0
 90
        0
 40
-0.6
 41
-30.0
 62
     5
 63
     7
421
 16777215
 74
     1
 91
        4
 64
     7
 65
   257
 75
     1
175
     1
 42
1.0
 92
       12
 66
     7
 43
1.0
 76
     1
 77
     6
 78
     2
 67
     7
 79
     5
170
     0
171
     0
290
     0
174
     0
 93
        1
 44
0.0
173
     0
291
     1
 45
0.0
1001
ACAD
1000
AcDbSavedByObjectVersion
1070
     0
  0
ENDSEC
  0
EOF
