  0
SECTION
  2
HEADER
  9
$ACADVER
  1
AC1018
  9
$ACADMAINTVER
 70
     0
  9
$DWGCODEPAGE
  3
ANSI_932
  9
$INSBASE
 10
0.0
 20
0.0
 30
0.0
  9
$EXTMIN
 10
1.000000000000000E+20
 20
1.000000000000000E+20
 30
1.000000000000000E+20
  9
$EXTMAX
 10
-1.000000000000000E+20
 20
-1.000000000000000E+20
 30
-1.000000000000000E+20
  9
$LIMMIN
 10
0.0
 20
0.0
  9
$LIMMAX
 10
12.0
 20
9.0
  9
$ORTHOMODE
 70
     0
  9
$REGENMODE
 70
     1
  9
$FILLMODE
 70
     1
  9
$QTEXTMODE
 70
     0
  9
$MIRRTEXT
 70
     1
  9
$LTSCALE
 40
1.0
  9
$ATTMODE
 70
     1
  9
$TEXTSIZE
 40
0.2
  9
$TRACEWID
 40
0.05
  9
$TEXTSTYLE
  7
Standard
  9
$CLAYER
  8
0
  9
$CELTYPE
  6
ByLayer
  9
$CECOLOR
 62
   256
  9
$CELTSCALE
 40
1.0
  9
$DISPSILH
 70
     0
  9
$DIMSCALE
 40
1.0
  9
$DIMASZ
 40
0.18
  9
$DIMEXO
 40
0.0625
  9
$DIMDLI
 40
0.38
  9
$DIMRND
 40
0.0
  9
$DIMDLE
 40
0.0
  9
$DIMEXE
 40
0.18
  9
$DIMTP
 40
0.0
  9
$DIMTM
 40
0.0
  9
$DIMTXT
 40
0.18
  9
$DIMCEN
 40
0.09
  9
$DIMTSZ
 40
0.0
  9
$DIMTOL
 70
     0
  9
$DIMLIM
 70
     0
  9
$DIMTIH
 70
     1
  9
$DIMTOH
 70
     1
  9
$DIMSE1
 70
     0
  9
$DIMSE2
 70
     0
  9
$DIMTAD
 70
     0
  9
$DIMZIN
 70
     0
  9
$DIMBLK
  1

  9
$DIMASO
 70
     1
  9
$DIMSHO
 70
     1
  9
$DIMPOST
  1

  9
$DIMAPOST
  1

  9
$DIMALT
 70
     0
  9
$DIMALTD
 70
     2
  9
$DIMALTF
 40
25.4
  9
$DIMLFAC
 40
1.0
  9
$DIMTOFL
 70
     0
  9
$DIMTVP
 40
0.0
  9
$DIMTIX
 70
     0
  9
$DIMSOXD
 70
     0
  9
$DIMSAH
 70
     0
  9
$DIMBLK1
  1

  9
$DIMBLK2
  1

  9
$DIMSTYLE
  2
Standard
  9
$DIMCLRD
 70
     0
  9
$DIMCLRE
 70
     0
  9
$DIMCLRT
 70
     0
  9
$DIMTFAC
 40
1.0
  9
$DIMGAP
 40
0.09
  9
$DIMJUST
 70
     0
  9
$DIMSD1
 70
     0
  9
$DIMSD2
 70
     0
  9
$DIMTOLJ
 70
     1
  9
$DIMTZIN
 70
     0
  9
$DIMALTZ
 70
     0
  9
$DIMALTTZ
 70
     0
  9
$DIMUPT
 70
     0
  9
$DIMDEC
 70
     4
  9
$DIMTDEC
 70
     4
  9
$DIMALTU
 70
     2
  9
$DIMALTTD
 70
     2
  9
$DIMTXSTY
  7
Standard
  9
$DIMAUNIT
 70
     0
  9
$DIMADEC
 70
     0
  9
$DIMALTRND
 40
0.0
  9
$DIMAZIN
 70
     0
  9
$DIMDSEP
 70
    46
  9
$DIMATFIT
 70
     3
  9
$DIMFRAC
 70
     0
  9
$DIMLDRBLK
  1

  9
$DIMLUNIT
 70
     2
  9
$DIMLWD
 70
    -2
  9
$DIMLWE
 70
    -2
  9
$DIMTMOVE
 70
     0
  9
$LUNITS
 70
     2
  9
$LUPREC
 70
     4
  9
$SKETCHINC
 40
0.1
  9
$FILLETRAD
 40
0.5
  9
$AUNITS
 70
     0
  9
$AUPREC
 70
     0
  9
$MENU
  1
.
  9
$ELEVATION
 40
0.0
  9
$PELEVATION
 40
0.0
  9
$THICKNESS
 40
0.0
  9
$LIMCHECK
 70
     0
  9
$CHAMFERA
 40
0.5
  9
$CHAMFERB
 40
0.5
  9
$CHAMFERC
 40
1.0
  9
$CHAMFERD
 40
0.0
  9
$SKPOLY
 70
     0
  9
$TDCREATE
 40
2456077.587280093
  9
$TDUCREATE
 40
2456077.545613426
  9
$TDUPDATE
 40
2456077.587280104
  9
$TDUUPDATE
 40
2456077.545613437
  9
$TDINDWG
 40
0.0000000116
  9
$TDUSRTIMER
 40
0.0000000116
  9
$USRTIMER
 70
     1
  9
$ANGBASE
 50
0.0
  9
$ANGDIR
 70
     0
  9
$PDMODE
 70
     0
  9
$PDSIZE
 40
0.0
  9
$PLINEWID
 40
0.0
  9
$SPLFRAME
 70
     0
  9
$SPLINETYPE
 70
     6
  9
$SPLINESEGS
 70
     8
  9
$HANDSEED
  5
79B
  9
$SURFTAB1
 70
     6
  9
$SURFTAB2
 70
     6
  9
$SURFTYPE
 70
     6
  9
$SURFU
 70
     6
  9
$SURFV
 70
     6
  9
$UCSBASE
  2

  9
$UCSNAME
  2

  9
$UCSORG
 10
0.0
 20
0.0
 30
0.0
  9
$UCSXDIR
 10
1.0
 20
0.0
 30
0.0
  9
$UCSYDIR
 10
0.0
 20
1.0
 30
0.0
  9
$UCSORTHOREF
  2

  9
$UCSORTHOVIEW
 70
     0
  9
$UCSORGTOP
 10
0.0
 20
0.0
 30
0.0
  9
$UCSORGBOTTOM
 10
0.0
 20
0.0
 30
0.0
  9
$UCSORGLEFT
 10
0.0
 20
0.0
 30
0.0
  9
$UCSORGRIGHT
 10
0.0
 20
0.0
 30
0.0
  9
$UCSORGFRONT
 10
0.0
 20
0.0
 30
0.0
  9
$UCSORGBACK
 10
0.0
 20
0.0
 30
0.0
  9
$PUCSBASE
  2

  9
$PUCSNAME
  2

  9
$PUCSORG
 10
0.0
 20
0.0
 30
0.0
  9
$PUCSXDIR
 10
1.0
 20
0.0
 30
0.0
  9
$PUCSYDIR
 10
0.0
 20
1.0
 30
0.0
  9
$PUCSORTHOREF
  2

  9
$PUCSORTHOVIEW
 70
     0
  9
$PUCSORGTOP
 10
0.0
 20
0.0
 30
0.0
  9
$PUCSORGBOTTOM
 10
0.0
 20
0.0
 30
0.0
  9
$PUCSORGLEFT
 10
0.0
 20
0.0
 30
0.0
  9
$PUCSORGRIGHT
 10
0.0
 20
0.0
 30
0.0
  9
$PUCSORGFRONT
 10
0.0
 20
0.0
 30
0.0
  9
$PUCSORGBACK
 10
0.0
 20
0.0
 30
0.0
  9
$USERI1
 70
     0
  9
$USERI2
 70
     0
  9
$USERI3
 70
     0
  9
$USERI4
 70
     0
  9
$USERI5
 70
     0
  9
$USERR1
 40
0.0
  9
$USERR2
 40
0.0
  9
$USERR3
 40
0.0
  9
$USERR4
 40
0.0
  9
$USERR5
 40
0.0
  9
$WORLDVIEW
 70
     1
  9
$SHADEDGE
 70
     3
  9
$SHADEDIF
 70
    70
  9
$TILEMODE
 70
     1
  9
$MAXACTVP
 70
    64
  9
$PINSBASE
 10
0.0
 20
0.0
 30
0.0
  9
$PLIMCHECK
 70
     0
  9
$PEXTMIN
 10
1.000000000000000E+20
 20
1.000000000000000E+20
 30
1.000000000000000E+20
  9
$PEXTMAX
 10
-1.000000000000000E+20
 20
-1.000000000000000E+20
 30
-1.000000000000000E+20
  9
$PLIMMIN
 10
0.0
 20
0.0
  9
$PLIMMAX
 10
12.0
 20
9.0
  9
$UNITMODE
 70
     0
  9
$VISRETAIN
 70
     1
  9
$PLINEGEN
 70
     0
  9
$PSLTSCALE
 70
     1
  9
$TREEDEPTH
 70
  3020
  9
$CMLSTYLE
  2
Standard
  9
$CMLJUST
 70
     0
  9
$CMLSCALE
 40
1.0
  9
$PROXYGRAPHICS
 70
     1
  9
$MEASUREMENT
 70
     0
  9
$CELWEIGHT
370
    -1
  9
$ENDCAPS
280
     0
  9
$JOINSTYLE
280
     0
  9
$LWDISPLAY
290
     1
  9
$INSUNITS
 70
     1
  9
$HYPERLINKBASE
  1

  9
$STYLESHEET
  1

  9
$XEDIT
290
     1
  9
$CEPSNTYPE
380
     0
  9
$PSTYLEMODE
290
     1
  9
$FINGERPRINTGUID
  2
{7420C293-7DBB-85B5-99C9-21B7D1B96362}
  9
$VERSIONGUID
  2
{FAEB1C32-E019-11D5-929B-00C0DF256EC4}
  9
$EXTNAMES
290
     1
  9
$PSVPSCALE
 40
0.0
  9
$OLESTARTUP
290
     0
  9
$SORTENTS
280
   127
  9
$INDEXCTL
280
     0
  9
$HIDETEXT
280
     1
  9
$XCLIPFRAME
290
     0
  9
$HALOGAP
280
     0
  9
$OBSCOLOR
 70
   257
  9
$OBSLTYPE
280
     0
  9
$INTERSECTIONDISPLAY
280
     0
  9
$INTERSECTIONCOLOR
 70
   257
  9
$DIMASSOC
280
     2
  9
$PROJECTNAME
  1

  0
ENDSEC
  0
SECTION
  2
CLASSES
  0
CLASS
  1
ACDBDICTIONARYWDFLT
  2
AcDbDictionaryWithDefault
  3
ObjectDBX Classes
 90
        0
 91
        3
280
     0
281
     0
  0
CLASS
  1
VISUALSTYLE
  2
AcDbVisualStyle
  3
ObjectDBX Classes
 90
     4095
 91
        3
280
     0
281
     0
  0
ENDSEC
  0
SECTION
  2
TABLES
  0
TABLE
  2
VPORT
  5
8
330
0
100
AcDbSymbolTable
 70
     1
  0
VPORT
  5
29
330
8
100
AcDbSymbolTableRecord
100
AcDbViewportTableRecord
  2
*Active
 70
     0
 10
0.0
 20
0.0
 11
1.0
 21
1.0
 12
0.0
 22
0.0
 13
0.0
 23
0.0
 14
0.5
 24
0.5
 15
0.5
 25
0.5
 16
0.0
 26
0.0
 36
1.0
 17
105.0008259828644
 27
-148.4999796178229
 37
0.0
 40
296.9999592356459
 41
0.7070763662937379
 42
50.0
 43
0.0
 44
0.0
 50
0.0
 51
0.0
 71
     0
 72
   100
 73
     1
 74
     3
 75
     0
 76
     0
 77
     0
 78
     0
281
     0
 65
     1
110
0.0
120
0.0
130
0.0
111
1.0
121
0.0
131
0.0
112
0.0
122
1.0
132
0.0
 79
     0
146
0.0
  0
ENDTAB
  0
TABLE
  2
LTYPE
  5
5
330
0
100
AcDbSymbolTable
 70
     1
  0
LTYPE
  5
14
330
5
100
AcDbSymbolTableRecord
100
AcDbLinetypeTableRecord
  2
ByBlock
 70
     0
  3

 72
    65
 73
     0
 40
0.0
  0
LTYPE
  5
15
330
5
100
AcDbSymbolTableRecord
100
AcDbLinetypeTableRecord
  2
ByLayer
 70
     0
  3

 72
    65
 73
     0
 40
0.0
  0
LTYPE
  5
16
330
5
100
AcDbSymbolTableRecord
100
AcDbLinetypeTableRecord
  2
Continuous
 70
     0
  3
Solid line
 72
    65
 73
     0
 40
0.0
  0
ENDTAB
  0
TABLE
  2
LAYER
  5
2
330
0
100
AcDbSymbolTable
 70
     2
  0
LAYER
  5
10
330
2
100
AcDbSymbolTableRecord
100
AcDbLayerTableRecord
  2
0
 70
     0
 62
     7
  6
Continuous
370
    -3
390
F
  0
LAYER
  5
3B
330
2
100
AcDbSymbolTableRecord
100
AcDbLayerTableRecord
  2
Ebene 1
 70
     0
 62
     7
  6
Continuous
370
    -3
390
F
  0
ENDTAB
  0
TABLE
  2
STYLE
  5
3
330
0
100
AcDbSymbolTable
 70
     1
  0
STYLE
  5
11
330
3
100
AcDbSymbolTableRecord
100
AcDbTextStyleTableRecord
  2
Standard
 70
     0
 40
0.0
 41
1.0
 50
0.0
 71
     0
 42
0.2
  3
txt
  4

  0
ENDTAB
  0
TABLE
  2
VIEW
  5
6
330
0
100
AcDbSymbolTable
 70
     0
  0
ENDTAB
  0
TABLE
  2
UCS
  5
7
330
0
100
AcDbSymbolTable
 70
     0
  0
ENDTAB
  0
TABLE
  2
APPID
  5
9
330
0
100
AcDbSymbolTable
 70
     1
  0
APPID
  5
12
330
9
100
AcDbSymbolTableRecord
100
AcDbRegAppTableRecord
  2
ACAD
 70
     0
  0
ENDTAB
  0
TABLE
  2
DIMSTYLE
  5
A
330
0
100
AcDbSymbolTable
 70
     1
100
AcDbDimStyleTable
  0
DIMSTYLE
105
27
330
A
100
AcDbSymbolTableRecord
100
AcDbDimStyleTableRecord
  2
Standard
 70
     0
340
11
  0
ENDTAB
  0
TABLE
  2
BLOCK_RECORD
  5
1
330
0
100
AcDbSymbolTable
 70
     4
  0
BLOCK_RECORD
  5
1F
330
1
100
AcDbSymbolTableRecord
100
AcDbBlockTableRecord
  2
*Model_Space
340
22
  0
BLOCK_RECORD
  5
1B
330
1
100
AcDbSymbolTableRecord
100
AcDbBlockTableRecord
  2
*Paper_Space
340
1E
  0
BLOCK_RECORD
  5
23
330
1
100
AcDbSymbolTableRecord
100
AcDbBlockTableRecord
  2
*Paper_Space0
340
26
  0
BLOCK_RECORD
  5
110
330
1
100
AcDbSymbolTableRecord
100
AcDbBlockTableRecord
  2
block 2
340
0
102
{BLKREFS
331
111
102
}
  0
BLOCK_RECORD
  5
216
330
1
100
AcDbSymbolTableRecord
100
AcDbBlockTableRecord
  2
block 3
340
0
102
{BLKREFS
331
217
102
}
  0
BLOCK_RECORD
  5
3CB
330
1
100
AcDbSymbolTableRecord
100
AcDbBlockTableRecord
  2
block 4
340
0
102
{BLKREFS
331
3CC
102
}
  0
ENDTAB
  0
ENDSEC
  0
SECTION
  2
BLOCKS
  0
BLOCK
  5
20
330
1F
100
AcDbEntity
  8
0
100
AcDbBlockBegin
  2
*Model_Space
 70
     0
 71
     0
 10
0.0
 20
0.0
 30
0.0
  3
*Model_Space
  1

  0
ENDBLK
  5
21
330
1F
100
AcDbEntity
  8
0
100
AcDbBlockEnd
  0
BLOCK
  5
1C
330
1B
100
AcDbEntity
 67
     1
  8
0
100
AcDbBlockBegin
  2
*Paper_Space
 70
     0
 71
     0
 10
0.0
 20
0.0
 30
0.0
  3
*Paper_Space
  1

  0
ENDBLK
  5
1D
330
1B
100
AcDbEntity
 67
     1
  8
0
100
AcDbBlockEnd
  0
BLOCK
  5
24
330
23
100
AcDbEntity
  8
0
100
AcDbBlockBegin
  2
*Paper_Space0
 70
     0
 71
     0
 10
0.0
 20
0.0
 30
0.0
  3
*Paper_Space0
  1

  0
ENDBLK
  5
25
330
23
100
AcDbEntity
  8
0
100
AcDbBlockEnd
  0
BLOCK
  5
112
330
110
100
AcDbEntity
  8
0
100
AcDbBlockBegin
  2
block 2
 70
     0
 71
     0
 10
0.0
 20
0.0
 30
0.0
  3
block 2
  1

  0
POLYLINE
  5
114
330
110
100
AcDbEntity
  8
Ebene 1
 62
   179
420
  1709851
370
    50
100
AcDb2dPolyline
 66
     1
 10
0.0
 20
0.0
 30
0.0
  0
VERTEX
  5
115
330
114
100
AcDbEntity
  8
Ebene 1
 62
   179
420
  1709851
370
    50
100
AcDbVertex
100
AcDb2dVertex
 10
24.71563177550512
 20
-149.7004231396582
 30
0.0
  0
VERTEX
  5
116
330
114
100
AcDbEntity
  8
Ebene 1
 62
   179
420
  1709851
370
    50
100
AcDbVertex
100
AcDb2dVertex
 10
184.714651103995
 20
-149.7004231396582
 30
0.0
  0
SEQEND
  5
117
330
114
100
AcDbEntity
  8
Ebene 1
370
    50
  0
POLYLINE
  5
118
330
110
100
AcDbEntity
  8
Ebene 1
370
     0
100
AcDb2dPolyline
 66
     1
 10
0.0
 20
0.0
 30
0.0
  0
VERTEX
  5
119
330
118
100
AcDbEntity
  8
Ebene 1
370
     0
100
AcDbVertex
100
AcDb2dVertex
 10
23.63611110520208
 20
-205.6308593235923
 30
0.0
  0
VERTEX
  5
11A
330
118
100
AcDbEntity
  8
Ebene 1
370
     0
100
AcDbVertex
100
AcDb2dVertex
 10
184.9578748452536
 20
-205.6308593235923
 30
0.0
  0
VERTEX
  5
11B
330
118
100
AcDbEntity
  8
Ebene 1
370
     0
100
AcDbVertex
100
AcDb2dVertex
 10
184.9578748452536
 20
-85.62870955975602
 30
0.0
  0
VERTEX
  5
11C
330
118
100
AcDbEntity
  8
Ebene 1
370
     0
100
AcDbVertex
100
AcDb2dVertex
 10
23.63611110520208
 20
-85.62870955975602
 30
0.0
  0
VERTEX
  5
11D
330
118
100
AcDbEntity
  8
Ebene 1
370
     0
100
AcDbVertex
100
AcDb2dVertex
 10
23.63611110520208
 20
-205.6308593235923
 30
0.0
  0
SEQEND
  5
11E
330
118
100
AcDbEntity
  8
Ebene 1
370
     0
  0
ENDBLK
  5
113
330
110
100
AcDbEntity
  8
0
100
AcDbBlockEnd
  0
BLOCK
  5
218
330
216
100
AcDbEntity
  8
0
100
AcDbBlockBegin
  2
block 3
 70
     0
 71
     0
 10
0.0
 20
0.0
 30
0.0
  3
block 3
  1

  0
POLYLINE
  5
21A
330
216
100
AcDbEntity
  8
Ebene 1
 62
   179
420
  1709851
370
    18
100
AcDb2dPolyline
 66
     1
 10
0.0
 20
0.0
 30
0.0
  0
VERTEX
  5
21B
330
21A
100
AcDbEntity
  8
Ebene 1
 62
   179
420
  1709851
370
    18
100
AcDbVertex
100
AcDb2dVertex
 10
183.6986924453948
 20
-201.4953667030984
 30
0.0
  0
VERTEX
  5
21C
330
21A
100
AcDbEntity
  8
Ebene 1
 62
   179
420
  1709851
370
    18
100
AcDbVertex
100
AcDb2dVertex
 10
153.7053466412612
 20
-201.4953667030984
 30
0.0
  0
SEQEND
  5
21D
330
21A
100
AcDbEntity
  8
Ebene 1
370
    18
  0
POLYLINE
  5
21E
330
216
100
AcDbEntity
  8
Ebene 1
 62
   179
420
  1709851
370
    18
100
AcDb2dPolyline
 66
     1
 10
0.0
 20
0.0
 30
0.0
  0
VERTEX
  5
21F
330
21E
100
AcDbEntity
  8
Ebene 1
 62
   179
420
  1709851
370
    18
100
AcDbVertex
100
AcDb2dVertex
 10
23.72086045413923
 20
-201.4953667030984
 30
0.0
  0
VERTEX
  5
220
330
21E
100
AcDbEntity
  8
Ebene 1
 62
   179
420
  1709851
370
    18
100
AcDbVertex
100
AcDb2dVertex
 10
53.71403400349858
 20
-201.4953667030984
 30
0.0
  0
SEQEND
  5
221
330
21E
100
AcDbEntity
  8
Ebene 1
370
    18
  0
POLYLINE
  5
222
330
216
100
AcDbEntity
  8
Ebene 1
 62
   179
420
  1709851
370
    18
100
AcDb2dPolyline
 66
     1
 10
0.0
 20
0.0
 30
0.0
  0
VERTEX
  5
223
330
222
100
AcDbEntity
  8
Ebene 1
 62
   179
420
  1709851
370
    18
100
AcDbVertex
100
AcDb2dVertex
 10
183.6986924453948
 20
-187.7577039461162
 30
0.0
  0
VERTEX
  5
224
330
222
100
AcDbEntity
  8
Ebene 1
 62
   179
420
  1709851
370
    18
100
AcDbVertex
100
AcDb2dVertex
 10
154.509776437067
 20
-187.7577039461162
 30
0.0
  0
SEQEND
  5
225
330
222
100
AcDbEntity
  8
Ebene 1
370
    18
  0
POLYLINE
  5
226
330
216
100
AcDbEntity
  8
Ebene 1
 62
   179
420
  1709851
370
    18
100
AcDb2dPolyline
 66
     1
 10
0.0
 20
0.0
 30
0.0
  0
VERTEX
  5
227
330
226
100
AcDbEntity
  8
Ebene 1
 62
   179
420
  1709851
370
    18
100
AcDbVertex
100
AcDb2dVertex
 10
23.72086045413923
 20
-187.7577039461162
 30
0.0
  0
VERTEX
  5
228
330
226
100
AcDbEntity
  8
Ebene 1
 62
   179
420
  1709851
370
    18
100
AcDbVertex
100
AcDb2dVertex
 10
52.909776462467
 20
-187.7577039461162
 30
0.0
  0
SEQEND
  5
229
330
226
100
AcDbEntity
  8
Ebene 1
370
    18
  0
POLYLINE
  5
22A
330
216
100
AcDbEntity
  8
Ebene 1
 62
   179
420
  1709851
370
    18
100
AcDb2dPolyline
 66
     1
 10
0.0
 20
0.0
 30
0.0
  0
VERTEX
  5
22B
330
22A
100
AcDbEntity
  8
Ebene 1
 62
   179
420
  1709851
370
    18
100
AcDbVertex
100
AcDb2dVertex
 10
24.71563177550512
 20
-89.71390378616528
 30
0.0
  0
VERTEX
  5
22C
330
22A
100
AcDbEntity
  8
Ebene 1
 62
   179
420
  1709851
370
    18
100
AcDbVertex
100
AcDb2dVertex
 10
184.714651103995
 20
-89.71390378616528
 30
0.0
  0
SEQEND
  5
22D
330
22A
100
AcDbEntity
  8
Ebene 1
370
    18
  0
MTEXT
  5
22E
330
216
100
AcDbEntity
  8
Ebene 1
 62
   179
420
  1709851
100
AcDbMText
 10
52.9731662193956
 20
-191.1869519921338
 30
0.0
 40
2.370558020330733
 41
0.0
 71
     7
 72
     1
  1
\fArial|b0|i0|c0|p34;\W0.797792;8
 73
     1
 44
1.0
  0
MTEXT
  5
22F
330
216
100
AcDbEntity
  8
Ebene 1
 62
   179
420
  1709851
100
AcDbMText
 10
152.9849771752954
 20
-191.2289821570539
 30
0.0
 40
2.370558020330733
 41
0.0
 71
     7
 72
     1
  1
\fArial|b0|i0|c0|p34;\W0.797792;8
 73
     1
 44
1.0
  0
MTEXT
  5
230
330
216
100
AcDbEntity
  8
Ebene 1
 62
   179
420
  1709851
100
AcDbMText
 10
67.95829805158682
 20
-186.5505424880846
 30
0.0
 40
2.370558020330733
 41
0.0
 71
     7
 72
     1
  1
\fArial|b0|i0|c0|p34;\W0.797792;PLATTENMASS  -  WORK SIZE  -  COTE DE FABRICATION
 73
     1
 44
1.0
  0
MTEXT
  5
231
330
216
100
AcDbEntity
  8
Ebene 1
 62
   179
420
  1709851
100
AcDbMText
 10
70.83684758428731
 20
-200.1807182659271
 30
0.0
 40
2.370558020330733
 41
0.0
 71
     7
 72
     1
  1
\fArial|b0|i0|c0|p34;\W0.797792;RASTERMASS  -  GRID SIZE  -  FORMAT DE TRAME
 73
     1
 44
1.0
  0
POLYLINE
  5
232
330
216
100
AcDbEntity
  8
Ebene 1
370
     0
100
AcDb2dPolyline
 66
     1
 10
0.0
 20
0.0
 30
0.0
  0
VERTEX
  5
233
330
232
100
AcDbEntity
  8
Ebene 1
370
     0
100
AcDbVertex
100
AcDb2dVertex
 10
23.63611110520208
 20
-205.6308593235923
 30
0.0
  0
VERTEX
  5
234
330
232
100
AcDbEntity
  8
Ebene 1
370
     0
100
AcDbVertex
100
AcDb2dVertex
 10
184.9578748452536
 20
-205.6308593235923
 30
0.0
  0
VERTEX
  5
235
330
232
100
AcDbEntity
  8
Ebene 1
370
     0
100
AcDbVertex
100
AcDb2dVertex
 10
184.9578748452536
 20
-85.62870955975602
 30
0.0
  0
VERTEX
  5
236
330
232
100
AcDbEntity
  8
Ebene 1
370
     0
100
AcDbVertex
100
AcDb2dVertex
 10
23.63611110520208
 20
-85.62870955975602
 30
0.0
  0
VERTEX
  5
237
330
232
100
AcDbEntity
  8
Ebene 1
370
     0
100
AcDbVertex
100
AcDb2dVertex
 10
23.63611110520208
 20
-205.6308593235923
 30
0.0
  0
SEQEND
  5
238
330
232
100
AcDbEntity
  8
Ebene 1
370
     0
  0
ENDBLK
  5
219
330
216
100
AcDbEntity
  8
0
100
AcDbBlockEnd
  0
BLOCK
  5
3CD
330
3CB
100
AcDbEntity
  8
0
100
AcDbBlockBegin
  2
block 4
 70
     0
 71
     0
 10
0.0
 20
0.0
 30
0.0
  3
block 4
  1

  0
MTEXT
  5
3CF
330
3CB
100
AcDbEntity
  8
Ebene 1
 62
   179
420
  1709851
100
AcDbMText
 10
87.00933157546989
 20
-205.1354545928134
 30
0.0
 40
2.370558020330733
 41
0.0
 71
     7
 72
     1
  1
\fArial|b0|i0|c0|p34;\W0.797792;20,0 / 25,0 / 30,0 / 35,0 / 40,0 c
 73
     1
 44
1.0
  0
MTEXT
  5
3D0
330
3CB
100
AcDbEntity
  8
Ebene 1
 62
   179
420
  1709851
100
AcDbMText
 10
125.6567572385511
 20
-205.1354545928134
 30
0.0
 40
2.370558020330733
 41
0.0
 71
     7
 72
     1
  1
\fArial|b0|i0|c0|p34;\W0.797792;m
 73
     1
 44
1.0
  0
MTEXT
  5
3D1
330
3CB
100
AcDbEntity
  8
Ebene 1
 62
   179
420
  1709851
100
AcDbMText
 10
88.23578556821883
 20
-191.9055989103569
 30
0.0
 40
2.370558020330733
 41
0.0
 71
     7
 72
     1
  1
\fArial|b0|i0|c0|p34;\W0.797792; 192 / 242 / 292 / 342 / 392 m
 73
     1
 44
1.0
  0
MTEXT
  5
3D2
330
3CB
100
AcDbEntity
  8
Ebene 1
 62
   179
420
  1709851
100
AcDbMText
 10
124.7055663750736
 20
-191.9055989103569
 30
0.0
 40
2.370558020330733
 41
0.0
 71
     7
 72
     1
  1
\fArial|b0|i0|c0|p34;\W0.797792;m
 73
     1
 44
1.0
  0
POLYLINE
  5
3D3
330
3CB
100
AcDbEntity
  8
Ebene 1
370
     0
100
AcDb2dPolyline
 66
     1
 10
0.0
 20
0.0
 30
0.0
  0
VERTEX
  5
3D4
330
3D3
100
AcDbEntity
  8
Ebene 1
370
     0
100
AcDbVertex
100
AcDb2dVertex
 10
23.63611110520208
 20
-205.6308593235923
 30
0.0
  0
VERTEX
  5
3D5
330
3D3
100
AcDbEntity
  8
Ebene 1
370
     0
100
AcDbVertex
100
AcDb2dVertex
 10
184.9578748452536
 20
-205.6308593235923
 30
0.0
  0
VERTEX
  5
3D6
330
3D3
100
AcDbEntity
  8
Ebene 1
370
     0
100
AcDbVertex
100
AcDb2dVertex
 10
184.9578748452536
 20
-85.62870955975602
 30
0.0
  0
VERTEX
  5
3D7
330
3D3
100
AcDbEntity
  8
Ebene 1
370
     0
100
AcDbVertex
100
AcDb2dVertex
 10
23.63611110520208
 20
-85.62870955975602
 30
0.0
  0
VERTEX
  5
3D8
330
3D3
100
AcDbEntity
  8
Ebene 1
370
     0
100
AcDbVertex
100
AcDb2dVertex
 10
23.63611110520208
 20
-205.6308593235923
 30
0.0
  0
SEQEND
  5
3D9
330
3D3
100
AcDbEntity
  8
Ebene 1
370
     0
  0
ENDBLK
  5
3CE
330
3CB
100
AcDbEntity
  8
0
100
AcDbBlockEnd
  0
ENDSEC
  0
SECTION
  2
ENTITIES
  0
POLYLINE
  5
3C
330
1F
100
AcDbEntity
  8
Ebene 1
 62
   179
420
  1709851
370
    18
100
AcDb2dPolyline
 66
     1
 10
0.0
 20
0.0
 30
0.0
  0
VERTEX
  5
3D
330
3C
100
AcDbEntity
  8
Ebene 1
 62
   179
420
  1709851
370
    18
100
AcDbVertex
100
AcDb2dVertex
 10
24.71545952073086
 20
-89.81966821756245
 30
0.0
  0
VERTEX
  5
3E
330
3C
100
AcDbEntity
  8
Ebene 1
 62
   179
420
  1709851
370
    18
100
AcDbVertex
100
AcDb2dVertex
 10
24.84275579891084
 20
-89.71390378616528
 30
0.0
  0
SEQEND
  5
3F
330
3C
100
AcDbEntity
  8
Ebene 1
370
    18
  0
POLYLINE
  5
40
330
1F
100
AcDbEntity
  8
Ebene 1
 62
   179
420
  1709851
370
    18
100
AcDb2dPolyline
 66
     1
 10
0.0
 20
0.0
 30
0.0
  0
VERTEX
  5
41
330
40
100
AcDbEntity
  8
Ebene 1
 62
   179
420
  1709851
370
    18
100
AcDbVertex
100
AcDb2dVertex
 10
24.71545952073086
 20
-103.9590291081248
 30
0.0
  0
VERTEX
  5
42
330
40
100
AcDbEntity
  8
Ebene 1
 62
   179
420
  1709851
370
    18
100
AcDbVertex
100
AcDb2dVertex
 10
38.9817721799247
 20
-89.71390378616528
 30
0.0
  0
SEQEND
  5
43
330
40
100
AcDbEntity
  8
Ebene 1
370
    18
  0
POLYLINE
  5
44
330
1F
100
AcDbEntity
  8
Ebene 1
 62
   179
420
  1709851
370
    18
100
AcDb2dPolyline
 66
     1
 10
0.0
 20
0.0
 30
0.0
  0
VERTEX
  5
45
330
44
100
AcDbEntity
  8
Ebene 1
 62
   179
420
  1709851
370
    18
100
AcDbVertex
100
AcDb2dVertex
 10
24.71545952073086
 20
-118.1197495906958
 30
0.0
  0
VERTEX
  5
46
330
44
100
AcDbEntity
  8
Ebene 1
 62
   179
420
  1709851
370
    18
100
AcDbVertex
100
AcDb2dVertex
 10
53.12113307048708
 20
-89.71390378616528
 30
0.0
  0
SEQEND
  5
47
330
44
100
AcDbEntity
  8
Ebene 1
370
    18
  0
POLYLINE
  5
48
330
1F
100
AcDbEntity
  8
Ebene 1
 62
   179
420
  1709851
370
    18
100
AcDb2dPolyline
 66
     1
 10
0.0
 20
0.0
 30
0.0
  0
VERTEX
  5
49
330
48
100
AcDbEntity
  8
Ebene 1
 62
   179
420
  1709851
370
    18
100
AcDbVertex
100
AcDb2dVertex
 10
24.71545952073086
 20
-132.2591104812581
 30
0.0
  0
VERTEX
  5
4A
330
48
100
AcDbEntity
  8
Ebene 1
 62
   179
420
  1709851
370
    18
100
AcDbVertex
100
AcDb2dVertex
 10
67.26066621582372
 20
-89.71390378616528
 30
0.0
  0
SEQEND
  5
4B
330
48
100
AcDbEntity
  8
Ebene 1
370
    18
  0
POLYLINE
  5
4C
330
1F
100
AcDbEntity
  8
Ebene 1
 62
   179
420
  1709851
370
    18
100
AcDb2dPolyline
 66
     1
 10
0.0
 20
0.0
 30
0.0
  0
VERTEX
  5
4D
330
4C
100
AcDbEntity
  8
Ebene 1
 62
   179
420
  1709851
370
    18
100
AcDbVertex
100
AcDb2dVertex
 10
24.71545952073086
 20
-146.3984713718205
 30
0.0
  0
VERTEX
  5
4E
330
4C
100
AcDbEntity
  8
Ebene 1
 62
   179
420
  1709851
370
    18
100
AcDbVertex
100
AcDb2dVertex
 10
81.4000271063861
 20
-89.71390378616528
 30
0.0
  0
SEQEND
  5
4F
330
4C
100
AcDbEntity
  8
Ebene 1
370
    18
  0
POLYLINE
  5
50
330
1F
100
AcDbEntity
  8
Ebene 1
 62
   179
420
  1709851
370
    18
100
AcDb2dPolyline
 66
     1
 10
0.0
 20
0.0
 30
0.0
  0
VERTEX
  5
51
330
50
100
AcDbEntity
  8
Ebene 1
 62
   179
420
  1709851
370
    18
100
AcDbVertex
100
AcDb2dVertex
 10
35.5530408982298
 20
-149.7004231396582
 30
0.0
  0
VERTEX
  5
52
330
50
100
AcDbEntity
  8
Ebene 1
 62
   179
420
  1709851
370
    18
100
AcDbVertex
100
AcDb2dVertex
 10
95.53938799694849
 20
-89.71390378616528
 30
0.0
  0
SEQEND
  5
53
330
50
100
AcDbEntity
  8
Ebene 1
370
    18
  0
POLYLINE
  5
54
330
1F
100
AcDbEntity
  8
Ebene 1
 62
   179
420
  1709851
370
    18
100
AcDb2dPolyline
 66
     1
 10
0.0
 20
0.0
 30
0.0
  0
VERTEX
  5
55
330
54
100
AcDbEntity
  8
Ebene 1
 62
   179
420
  1709851
370
    18
100
AcDbVertex
100
AcDb2dVertex
 10
49.69240178879218
 20
-149.7004231396582
 30
0.0
  0
VERTEX
  5
56
330
54
100
AcDbEntity
  8
Ebene 1
 62
   179
420
  1709851
370
    18
100
AcDbVertex
100
AcDb2dVertex
 10
109.6994194604224
 20
-89.71390378616528
 30
0.0
  0
SEQEND
  5
57
330
54
100
AcDbEntity
  8
Ebene 1
370
    18
  0
POLYLINE
  5
58
330
1F
100
AcDbEntity
  8
Ebene 1
 62
   179
420
  1709851
370
    18
100
AcDb2dPolyline
 66
     1
 10
0.0
 20
0.0
 30
0.0
  0
VERTEX
  5
59
330
58
100
AcDbEntity
  8
Ebene 1
 62
   179
420
  1709851
370
    18
100
AcDbVertex
100
AcDb2dVertex
 10
63.83176267935456
 20
-149.7004231396582
 30
0.0
  0
VERTEX
  5
5A
330
58
100
AcDbEntity
  8
Ebene 1
 62
   179
420
  1709851
370
    18
100
AcDbVertex
100
AcDb2dVertex
 10
123.8387803509847
 20
-89.71390378616528
 30
0.0
  0
SEQEND
  5
5B
330
58
100
AcDbEntity
  8
Ebene 1
370
    18
  0
POLYLINE
  5
5C
330
1F
100
AcDbEntity
  8
Ebene 1
 62
   179
420
  1709851
370
    18
100
AcDb2dPolyline
 66
     1
 10
0.0
 20
0.0
 30
0.0
  0
VERTEX
  5
5D
330
5C
100
AcDbEntity
  8
Ebene 1
 62
   179
420
  1709851
370
    18
100
AcDbVertex
100
AcDb2dVertex
 10
77.97077906036841
 20
-149.7004231396582
 30
0.0
  0
VERTEX
  5
5E
330
5C
100
AcDbEntity
  8
Ebene 1
 62
   179
420
  1709851
370
    18
100
AcDbVertex
100
AcDb2dVertex
 10
137.9784857510957
 20
-89.71390378616528
 30
0.0
  0
SEQEND
  5
5F
330
5C
100
AcDbEntity
  8
Ebene 1
370
    18
  0
POLYLINE
  5
60
330
1F
100
AcDbEntity
  8
Ebene 1
 62
   179
420
  1709851
370
    18
100
AcDb2dPolyline
 66
     1
 10
0.0
 20
0.0
 30
0.0
  0
VERTEX
  5
61
330
60
100
AcDbEntity
  8
Ebene 1
 62
   179
420
  1709851
370
    18
100
AcDbVertex
100
AcDb2dVertex
 10
92.11048446047933
 20
-149.7004231396582
 30
0.0
  0
VERTEX
  5
62
330
60
100
AcDbEntity
  8
Ebene 1
 62
   179
420
  1709851
370
    18
100
AcDbVertex
100
AcDb2dVertex
 10
152.117846641658
 20
-89.71390378616528
 30
0.0
  0
SEQEND
  5
63
330
60
100
AcDbEntity
  8
Ebene 1
370
    18
  0
POLYLINE
  5
64
330
1F
100
AcDbEntity
  8
Ebene 1
 62
   179
420
  1709851
370
    18
100
AcDb2dPolyline
 66
     1
 10
0.0
 20
0.0
 30
0.0
  0
VERTEX
  5
65
330
64
100
AcDbEntity
  8
Ebene 1
 62
   179
420
  1709851
370
    18
100
AcDbVertex
100
AcDb2dVertex
 10
106.2495008414932
 20
-149.7004231396582
 30
0.0
  0
VERTEX
  5
66
330
64
100
AcDbEntity
  8
Ebene 1
 62
   179
420
  1709851
370
    18
100
AcDbVertex
100
AcDb2dVertex
 10
166.2572075322204
 20
-89.71390378616528
 30
0.0
  0
SEQEND
  5
67
330
64
100
AcDbEntity
  8
Ebene 1
370
    18
  0
POLYLINE
  5
68
330
1F
100
AcDbEntity
  8
Ebene 1
 62
   179
420
  1709851
370
    18
100
AcDb2dPolyline
 66
     1
 10
0.0
 20
0.0
 30
0.0
  0
VERTEX
  5
69
330
68
100
AcDbEntity
  8
Ebene 1
 62
   179
420
  1709851
370
    18
100
AcDbVertex
100
AcDb2dVertex
 10
120.3888617320556
 20
-149.7004231396582
 30
0.0
  0
VERTEX
  5
6A
330
68
100
AcDbEntity
  8
Ebene 1
 62
   179
420
  1709851
370
    18
100
AcDbVertex
100
AcDb2dVertex
 10
180.3965684227828
 20
-89.71390378616528
 30
0.0
  0
SEQEND
  5
6B
330
68
100
AcDbEntity
  8
Ebene 1
370
    18
  0
POLYLINE
  5
6C
330
1F
100
AcDbEntity
  8
Ebene 1
 62
   179
420
  1709851
370
    18
100
AcDb2dPolyline
 66
     1
 10
0.0
 20
0.0
 30
0.0
  0
VERTEX
  5
6D
330
6C
100
AcDbEntity
  8
Ebene 1
 62
   179
420
  1709851
370
    18
100
AcDbVertex
100
AcDb2dVertex
 10
134.5495822146265
 20
-149.7004231396582
 30
0.0
  0
VERTEX
  5
6E
330
6C
100
AcDbEntity
  8
Ebene 1
 62
   179
420
  1709851
370
    18
100
AcDbVertex
100
AcDb2dVertex
 10
184.714651103995
 20
-99.53518199551552
 30
0.0
  0
SEQEND
  5
6F
330
6C
100
AcDbEntity
  8
Ebene 1
370
    18
  0
POLYLINE
  5
70
330
1F
100
AcDbEntity
  8
Ebene 1
 62
   179
420
  1709851
370
    18
100
AcDb2dPolyline
 66
     1
 10
0.0
 20
0.0
 30
0.0
  0
VERTEX
  5
71
330
70
100
AcDbEntity
  8
Ebene 1
 62
   179
420
  1709851
370
    18
100
AcDbVertex
100
AcDb2dVertex
 10
148.6889431051889
 20
-149.7004231396582
 30
0.0
  0
VERTEX
  5
72
330
70
100
AcDbEntity
  8
Ebene 1
 62
   179
420
  1709851
370
    18
100
AcDbVertex
100
AcDb2dVertex
 10
184.714651103995
 20
-113.6745428860779
 30
0.0
  0
SEQEND
  5
73
330
70
100
AcDbEntity
  8
Ebene 1
370
    18
  0
POLYLINE
  5
74
330
1F
100
AcDbEntity
  8
Ebene 1
 62
   179
420
  1709851
370
    18
100
AcDb2dPolyline
 66
     1
 10
0.0
 20
0.0
 30
0.0
  0
VERTEX
  5
75
330
74
100
AcDbEntity
  8
Ebene 1
 62
   179
420
  1709851
370
    18
100
AcDbVertex
100
AcDb2dVertex
 10
162.8283039957513
 20
-149.7004231396582
 30
0.0
  0
VERTEX
  5
76
330
74
100
AcDbEntity
  8
Ebene 1
 62
   179
420
  1709851
370
    18
100
AcDbVertex
100
AcDb2dVertex
 10
184.714651103995
 20
-127.8139037766403
 30
0.0
  0
SEQEND
  5
77
330
74
100
AcDbEntity
  8
Ebene 1
370
    18
  0
POLYLINE
  5
78
330
1F
100
AcDbEntity
  8
Ebene 1
 62
   179
420
  1709851
370
    18
100
AcDb2dPolyline
 66
     1
 10
0.0
 20
0.0
 30
0.0
  0
VERTEX
  5
79
330
78
100
AcDbEntity
  8
Ebene 1
 62
   179
420
  1709851
370
    18
100
AcDbVertex
100
AcDb2dVertex
 10
176.9676648863137
 20
-149.7004231396582
 30
0.0
  0
VERTEX
  5
7A
330
78
100
AcDbEntity
  8
Ebene 1
 62
   179
420
  1709851
370
    18
100
AcDbVertex
100
AcDb2dVertex
 10
184.714651103995
 20
-141.9532646672027
 30
0.0
  0
SEQEND
  5
7B
330
78
100
AcDbEntity
  8
Ebene 1
370
    18
  0
POLYLINE
  5
7C
330
1F
100
AcDbEntity
  8
Ebene 1
 62
   179
420
  1709851
370
    18
100
AcDb2dPolyline
 66
     1
 10
0.0
 20
0.0
 30
0.0
  0
VERTEX
  5
7D
330
7C
100
AcDbEntity
  8
Ebene 1
 62
   179
420
  1709851
370
    18
100
AcDbVertex
100
AcDb2dVertex
 10
24.71580403027938
 20
-96.88934866284364
 30
0.0
  0
VERTEX
  5
7E
330
7C
100
AcDbEntity
  8
Ebene 1
 62
   179
420
  1709851
370
    18
100
AcDbVertex
100
AcDb2dVertex
 10
31.91243624419203
 20
-89.71390378616528
 30
0.0
  0
SEQEND
  5
7F
330
7C
100
AcDbEntity
  8
Ebene 1
370
    18
  0
POLYLINE
  5
80
330
1F
100
AcDbEntity
  8
Ebene 1
 62
   179
420
  1709851
370
    18
100
AcDb2dPolyline
 66
     1
 10
0.0
 20
0.0
 30
0.0
  0
VERTEX
  5
81
330
80
100
AcDbEntity
  8
Ebene 1
 62
   179
420
  1709851
370
    18
100
AcDbVertex
100
AcDb2dVertex
 10
24.71580403027938
 20
-111.0500691454146
 30
0.0
  0
VERTEX
  5
82
330
80
100
AcDbEntity
  8
Ebene 1
 62
   179
420
  1709851
370
    18
100
AcDbVertex
100
AcDb2dVertex
 10
46.05179713475442
 20
-89.71390378616528
 30
0.0
  0
SEQEND
  5
83
330
80
100
AcDbEntity
  8
Ebene 1
370
    18
  0
POLYLINE
  5
84
330
1F
100
AcDbEntity
  8
Ebene 1
 62
   179
420
  1709851
370
    18
100
AcDb2dPolyline
 66
     1
 10
0.0
 20
0.0
 30
0.0
  0
VERTEX
  5
85
330
84
100
AcDbEntity
  8
Ebene 1
 62
   179
420
  1709851
370
    18
100
AcDbVertex
100
AcDb2dVertex
 10
24.71580403027938
 20
-125.189430035977
 30
0.0
  0
VERTEX
  5
86
330
84
100
AcDbEntity
  8
Ebene 1
 62
   179
420
  1709851
370
    18
100
AcDbVertex
100
AcDb2dVertex
 10
60.1911580253168
 20
-89.71390378616528
 30
0.0
  0
SEQEND
  5
87
330
84
100
AcDbEntity
  8
Ebene 1
370
    18
  0
POLYLINE
  5
88
330
1F
100
AcDbEntity
  8
Ebene 1
 62
   179
420
  1709851
370
    18
100
AcDb2dPolyline
 66
     1
 10
0.0
 20
0.0
 30
0.0
  0
VERTEX
  5
89
330
88
100
AcDbEntity
  8
Ebene 1
 62
   179
420
  1709851
370
    18
100
AcDbVertex
100
AcDb2dVertex
 10
24.71580403027938
 20
-139.3287909265393
 30
0.0
  0
VERTEX
  5
8A
330
88
100
AcDbEntity
  8
Ebene 1
 62
   179
420
  1709851
370
    18
100
AcDbVertex
100
AcDb2dVertex
 10
74.33034666110491
 20
-89.71390378616528
 30
0.0
  0
SEQEND
  5
8B
330
88
100
AcDbEntity
  8
Ebene 1
370
    18
  0
POLYLINE
  5
8C
330
1F
100
AcDbEntity
  8
Ebene 1
 62
   179
420
  1709851
370
    18
100
AcDb2dPolyline
 66
     1
 10
0.0
 20
0.0
 30
0.0
  0
VERTEX
  5
8D
330
8C
100
AcDbEntity
  8
Ebene 1
 62
   179
420
  1709851
370
    18
100
AcDbVertex
100
AcDb2dVertex
 10
28.48336045294861
 20
-149.7004231396582
 30
0.0
  0
VERTEX
  5
8E
330
8C
100
AcDbEntity
  8
Ebene 1
 62
   179
420
  1709851
370
    18
100
AcDbVertex
100
AcDb2dVertex
 10
88.4697075516673
 20
-89.71390378616528
 30
0.0
  0
SEQEND
  5
8F
330
8C
100
AcDbEntity
  8
Ebene 1
370
    18
  0
POLYLINE
  5
90
330
1F
100
AcDbEntity
  8
Ebene 1
 62
   179
420
  1709851
370
    18
100
AcDb2dPolyline
 66
     1
 10
0.0
 20
0.0
 30
0.0
  0
VERTEX
  5
91
330
90
100
AcDbEntity
  8
Ebene 1
 62
   179
420
  1709851
370
    18
100
AcDbVertex
100
AcDb2dVertex
 10
42.62272134351099
 20
-149.7004231396582
 30
0.0
  0
VERTEX
  5
92
330
90
100
AcDbEntity
  8
Ebene 1
 62
   179
420
  1709851
370
    18
100
AcDbVertex
100
AcDb2dVertex
 10
102.6090684422297
 20
-89.71390378616528
 30
0.0
  0
SEQEND
  5
93
330
90
100
AcDbEntity
  8
Ebene 1
370
    18
  0
POLYLINE
  5
94
330
1F
100
AcDbEntity
  8
Ebene 1
 62
   179
420
  1709851
370
    18
100
AcDb2dPolyline
 66
     1
 10
0.0
 20
0.0
 30
0.0
  0
VERTEX
  5
95
330
94
100
AcDbEntity
  8
Ebene 1
 62
   179
420
  1709851
370
    18
100
AcDbVertex
100
AcDb2dVertex
 10
56.76208223407337
 20
-149.7004231396582
 30
0.0
  0
VERTEX
  5
96
330
94
100
AcDbEntity
  8
Ebene 1
 62
   179
420
  1709851
370
    18
100
AcDbVertex
100
AcDb2dVertex
 10
116.7694444152521
 20
-89.71390378616528
 30
0.0
  0
SEQEND
  5
97
330
94
100
AcDbEntity
  8
Ebene 1
370
    18
  0
POLYLINE
  5
98
330
1F
100
AcDbEntity
  8
Ebene 1
 62
   179
420
  1709851
370
    18
100
AcDb2dPolyline
 66
     1
 10
0.0
 20
0.0
 30
0.0
  0
VERTEX
  5
99
330
98
100
AcDbEntity
  8
Ebene 1
 62
   179
420
  1709851
370
    18
100
AcDbVertex
100
AcDb2dVertex
 10
70.90144312463575
 20
-149.7004231396582
 30
0.0
  0
VERTEX
  5
9A
330
98
100
AcDbEntity
  8
Ebene 1
 62
   179
420
  1709851
370
    18
100
AcDbVertex
100
AcDb2dVertex
 10
130.908460796266
 20
-89.71390378616528
 30
0.0
  0
SEQEND
  5
9B
330
98
100
AcDbEntity
  8
Ebene 1
370
    18
  0
POLYLINE
  5
9C
330
1F
100
AcDbEntity
  8
Ebene 1
 62
   179
420
  1709851
370
    18
100
AcDb2dPolyline
 66
     1
 10
0.0
 20
0.0
 30
0.0
  0
VERTEX
  5
9D
330
9C
100
AcDbEntity
  8
Ebene 1
 62
   179
420
  1709851
370
    18
100
AcDbVertex
100
AcDb2dVertex
 10
85.04080401519813
 20
-149.7004231396582
 30
0.0
  0
VERTEX
  5
9E
330
9C
100
AcDbEntity
  8
Ebene 1
 62
   179
420
  1709851
370
    18
100
AcDbVertex
100
AcDb2dVertex
 10
145.0481661963769
 20
-89.71390378616528
 30
0.0
  0
SEQEND
  5
9F
330
9C
100
AcDbEntity
  8
Ebene 1
370
    18
  0
POLYLINE
  5
A0
330
1F
100
AcDbEntity
  8
Ebene 1
 62
   179
420
  1709851
370
    18
100
AcDb2dPolyline
 66
     1
 10
0.0
 20
0.0
 30
0.0
  0
VERTEX
  5
A1
330
A0
100
AcDbEntity
  8
Ebene 1
 62
   179
420
  1709851
370
    18
100
AcDbVertex
100
AcDb2dVertex
 10
99.18016490576052
 20
-149.7004231396582
 30
0.0
  0
VERTEX
  5
A2
330
A0
100
AcDbEntity
  8
Ebene 1
 62
   179
420
  1709851
370
    18
100
AcDbVertex
100
AcDb2dVertex
 10
159.1875270869392
 20
-89.71390378616528
 30
0.0
  0
SEQEND
  5
A3
330
A0
100
AcDbEntity
  8
Ebene 1
370
    18
  0
POLYLINE
  5
A4
330
1F
100
AcDbEntity
  8
Ebene 1
 62
   179
420
  1709851
370
    18
100
AcDb2dPolyline
 66
     1
 10
0.0
 20
0.0
 30
0.0
  0
VERTEX
  5
A5
330
A4
100
AcDbEntity
  8
Ebene 1
 62
   179
420
  1709851
370
    18
100
AcDbVertex
100
AcDb2dVertex
 10
113.3195257963229
 20
-149.7004231396582
 30
0.0
  0
VERTEX
  5
A6
330
A4
100
AcDbEntity
  8
Ebene 1
 62
   179
420
  1709851
370
    18
100
AcDbVertex
100
AcDb2dVertex
 10
173.3268879775016
 20
-89.71390378616528
 30
0.0
  0
SEQEND
  5
A7
330
A4
100
AcDbEntity
  8
Ebene 1
370
    18
  0
POLYLINE
  5
A8
330
1F
100
AcDbEntity
  8
Ebene 1
 62
   179
420
  1709851
370
    18
100
AcDb2dPolyline
 66
     1
 10
0.0
 20
0.0
 30
0.0
  0
VERTEX
  5
A9
330
A8
100
AcDbEntity
  8
Ebene 1
 62
   179
420
  1709851
370
    18
100
AcDbVertex
100
AcDb2dVertex
 10
127.4799017693453
 20
-149.7004231396582
 30
0.0
  0
VERTEX
  5
AA
330
A8
100
AcDbEntity
  8
Ebene 1
 62
   179
420
  1709851
370
    18
100
AcDbVertex
100
AcDb2dVertex
 10
184.714651103995
 20
-92.46550155023432
 30
0.0
  0
SEQEND
  5
AB
330
A8
100
AcDbEntity
  8
Ebene 1
370
    18
  0
POLYLINE
  5
AC
330
1F
100
AcDbEntity
  8
Ebene 1
 62
   179
420
  1709851
370
    18
100
AcDb2dPolyline
 66
     1
 10
0.0
 20
0.0
 30
0.0
  0
VERTEX
  5
AD
330
AC
100
AcDbEntity
  8
Ebene 1
 62
   179
420
  1709851
370
    18
100
AcDbVertex
100
AcDb2dVertex
 10
141.6192626599077
 20
-149.7004231396582
 30
0.0
  0
VERTEX
  5
AE
330
AC
100
AcDbEntity
  8
Ebene 1
 62
   179
420
  1709851
370
    18
100
AcDbVertex
100
AcDb2dVertex
 10
184.714651103995
 20
-106.6048624407967
 30
0.0
  0
SEQEND
  5
AF
330
AC
100
AcDbEntity
  8
Ebene 1
370
    18
  0
POLYLINE
  5
B0
330
1F
100
AcDbEntity
  8
Ebene 1
 62
   179
420
  1709851
370
    18
100
AcDb2dPolyline
 66
     1
 10
0.0
 20
0.0
 30
0.0
  0
VERTEX
  5
B1
330
B0
100
AcDbEntity
  8
Ebene 1
 62
   179
420
  1709851
370
    18
100
AcDbVertex
100
AcDb2dVertex
 10
155.7586235504701
 20
-149.7004231396582
 30
0.0
  0
VERTEX
  5
B2
330
B0
100
AcDbEntity
  8
Ebene 1
 62
   179
420
  1709851
370
    18
100
AcDbVertex
100
AcDb2dVertex
 10
184.714651103995
 20
-120.7442233313591
 30
0.0
  0
SEQEND
  5
B3
330
B0
100
AcDbEntity
  8
Ebene 1
370
    18
  0
POLYLINE
  5
B4
330
1F
100
AcDbEntity
  8
Ebene 1
 62
   179
420
  1709851
370
    18
100
AcDb2dPolyline
 66
     1
 10
0.0
 20
0.0
 30
0.0
  0
VERTEX
  5
B5
330
B4
100
AcDbEntity
  8
Ebene 1
 62
   179
420
  1709851
370
    18
100
AcDbVertex
100
AcDb2dVertex
 10
169.8979844410325
 20
-149.7004231396582
 30
0.0
  0
VERTEX
  5
B6
330
B4
100
AcDbEntity
  8
Ebene 1
 62
   179
420
  1709851
370
    18
100
AcDbVertex
100
AcDb2dVertex
 10
184.714651103995
 20
-134.8835842219215
 30
0.0
  0
SEQEND
  5
B7
330
B4
100
AcDbEntity
  8
Ebene 1
370
    18
  0
POLYLINE
  5
B8
330
1F
100
AcDbEntity
  8
Ebene 1
 62
   179
420
  1709851
370
    18
100
AcDb2dPolyline
 66
     1
 10
0.0
 20
0.0
 30
0.0
  0
VERTEX
  5
B9
330
B8
100
AcDbEntity
  8
Ebene 1
 62
   179
420
  1709851
370
    18
100
AcDbVertex
100
AcDb2dVertex
 10
184.0373453315948
 20
-149.7004231396582
 30
0.0
  0
VERTEX
  5
BA
330
B8
100
AcDbEntity
  8
Ebene 1
 62
   179
420
  1709851
370
    18
100
AcDbVertex
100
AcDb2dVertex
 10
184.714651103995
 20
-149.0231173672581
 30
0.0
  0
SEQEND
  5
BB
330
B8
100
AcDbEntity
  8
Ebene 1
370
    18
  0
POLYLINE
  5
BC
330
1F
100
AcDbEntity
  8
Ebene 1
370
     0
100
AcDb2dPolyline
 66
     1
 10
0.0
 20
0.0
 30
0.0
  0
VERTEX
  5
BD
330
BC
100
AcDbEntity
  8
Ebene 1
370
     0
100
AcDbVertex
100
AcDb2dVertex
 10
64.02210420491461
 20
-170.5074218323732
 30
0.0
  0
VERTEX
  5
BE
330
BC
100
AcDbEntity
  8
Ebene 1
370
     0
100
AcDbVertex
100
AcDb2dVertex
 10
44.21022134311411
 20
-170.105034679696
 30
0.0
  0
VERTEX
  5
BF
330
BC
100
AcDbEntity
  8
Ebene 1
370
     0
100
AcDbVertex
100
AcDb2dVertex
 10
44.21022134311411
 20
-170.5074218323732
 30
0.0
  0
VERTEX
  5
C0
330
BC
100
AcDbEntity
  8
Ebene 1
370
     0
100
AcDbVertex
100
AcDb2dVertex
 10
64.02210420491461
 20
-170.5074218323732
 30
0.0
  0
SEQEND
  5
C1
330
BC
100
AcDbEntity
  8
Ebene 1
370
     0
  0
HATCH
  5
C2
330
1F
100
AcDbEntity
  8
Ebene 1
 62
   179
420
  1709851
100
AcDbHatch
 10
0.0
 20
0.0
 30
0.0
210
0.0
220
0.0
230
1.0
  2
SOLID
 70
     1
 71
     0
 91
        1
 92
        1
 93
        3
 72
     1
 10
64.02210420491461
 20
-170.5074218323732
 11
44.21022134311411
 21
-170.105034679696
 72
     1
 10
44.21022134311411
 20
-170.105034679696
 11
44.21022134311411
 21
-170.5074218323732
 72
     1
 10
44.21022134311411
 20
-170.5074218323732
 11
64.02210420491461
 21
-170.5074218323732
 97
        0
 75
     2
 76
     1
 98
        0
  0
POLYLINE
  5
C3
330
1F
100
AcDbEntity
  8
Ebene 1
370
     0
100
AcDb2dPolyline
 66
     1
 10
0.0
 20
0.0
 30
0.0
  0
VERTEX
  5
C4
330
C3
100
AcDbEntity
  8
Ebene 1
370
     0
100
AcDbVertex
100
AcDb2dVertex
 10
44.21022134311411
 20
-170.105034679696
 30
0.0
  0
VERTEX
  5
C5
330
C3
100
AcDbEntity
  8
Ebene 1
370
     0
100
AcDbVertex
100
AcDb2dVertex
 10
64.02210420491461
 20
-170.5074218323732
 30
0.0
  0
VERTEX
  5
C6
330
C3
100
AcDbEntity
  8
Ebene 1
370
     0
100
AcDbVertex
100
AcDb2dVertex
 10
53.92556286629291
 20
-170.105034679696
 30
0.0
  0
VERTEX
  5
C7
330
C3
100
AcDbEntity
  8
Ebene 1
370
     0
100
AcDbVertex
100
AcDb2dVertex
 10
44.21022134311411
 20
-170.105034679696
 30
0.0
  0
SEQEND
  5
C8
330
C3
100
AcDbEntity
  8
Ebene 1
370
     0
  0
HATCH
  5
C9
330
1F
100
AcDbEntity
  8
Ebene 1
 62
   179
420
  1709851
100
AcDbHatch
 10
0.0
 20
0.0
 30
0.0
210
0.0
220
0.0
230
1.0
  2
SOLID
 70
     1
 71
     0
 91
        1
 92
        1
 93
        3
 72
     1
 10
44.21022134311411
 20
-170.105034679696
 11
64.02210420491461
 21
-170.5074218323732
 72
     1
 10
64.02210420491461
 20
-170.5074218323732
 11
53.92556286629291
 21
-170.105034679696
 72
     1
 10
53.92556286629291
 20
-170.105034679696
 11
44.21022134311411
 21
-170.105034679696
 97
        0
 75
     2
 76
     1
 98
        0
  0
POLYLINE
  5
CA
330
1F
100
AcDbEntity
  8
Ebene 1
370
     0
100
AcDb2dPolyline
 66
     1
 10
0.0
 20
0.0
 30
0.0
  0
VERTEX
  5
CB
330
CA
100
AcDbEntity
  8
Ebene 1
370
     0
100
AcDbVertex
100
AcDb2dVertex
 10
53.92556286629291
 20
-170.105034679696
 30
0.0
  0
VERTEX
  5
CC
330
CA
100
AcDbEntity
  8
Ebene 1
370
     0
100
AcDbVertex
100
AcDb2dVertex
 10
64.02210420491461
 20
-170.5074218323732
 30
0.0
  0
VERTEX
  5
CD
330
CA
100
AcDbEntity
  8
Ebene 1
370
     0
100
AcDbVertex
100
AcDb2dVertex
 10
54.30659042696155
 20
-170.105034679696
 30
0.0
  0
VERTEX
  5
CE
330
CA
100
AcDbEntity
  8
Ebene 1
370
     0
100
AcDbVertex
100
AcDb2dVertex
 10
53.92556286629291
 20
-170.105034679696
 30
0.0
  0
SEQEND
  5
CF
330
CA
100
AcDbEntity
  8
Ebene 1
370
     0
  0
HATCH
  5
D0
330
1F
100
AcDbEntity
  8
Ebene 1
 62
   179
420
  1709851
100
AcDbHatch
 10
0.0
 20
0.0
 30
0.0
210
0.0
220
0.0
230
1.0
  2
SOLID
 70
     1
 71
     0
 91
        1
 92
        1
 93
        3
 72
     1
 10
53.92556286629291
 20
-170.105034679696
 11
64.02210420491461
 21
-170.5074218323732
 72
     1
 10
64.02210420491461
 20
-170.5074218323732
 11
54.30659042696155
 21
-170.105034679696
 72
     1
 10
54.30659042696155
 20
-170.105034679696
 11
53.92556286629291
 21
-170.105034679696
 97
        0
 75
     2
 76
     1
 98
        0
  0
POLYLINE
  5
D1
330
1F
100
AcDbEntity
  8
Ebene 1
370
     0
100
AcDb2dPolyline
 66
     1
 10
0.0
 20
0.0
 30
0.0
  0
VERTEX
  5
D2
330
D1
100
AcDbEntity
  8
Ebene 1
370
     0
100
AcDbVertex
100
AcDb2dVertex
 10
53.92556286629291
 20
-170.105034679696
 30
0.0
  0
VERTEX
  5
D3
330
D1
100
AcDbEntity
  8
Ebene 1
370
     0
100
AcDbVertex
100
AcDb2dVertex
 10
54.30659042696155
 20
-170.105034679696
 30
0.0
  0
VERTEX
  5
D4
330
D1
100
AcDbEntity
  8
Ebene 1
370
     0
100
AcDbVertex
100
AcDb2dVertex
 10
53.92556286629291
 20
-160.0928981804629
 30
0.0
  0
VERTEX
  5
D5
330
D1
100
AcDbEntity
  8
Ebene 1
370
     0
100
AcDbVertex
100
AcDb2dVertex
 10
53.92556286629291
 20
-170.105034679696
 30
0.0
  0
SEQEND
  5
D6
330
D1
100
AcDbEntity
  8
Ebene 1
370
     0
  0
HATCH
  5
D7
330
1F
100
AcDbEntity
  8
Ebene 1
 62
   179
420
  1709851
100
AcDbHatch
 10
0.0
 20
0.0
 30
0.0
210
0.0
220
0.0
230
1.0
  2
SOLID
 70
     1
 71
     0
 91
        1
 92
        1
 93
        3
 72
     1
 10
53.92556286629291
 20
-170.105034679696
 11
54.30659042696155
 21
-170.105034679696
 72
     1
 10
54.30659042696155
 20
-170.105034679696
 11
53.92556286629291
 21
-160.0928981804629
 72
     1
 10
53.92556286629291
 20
-160.0928981804629
 11
53.92556286629291
 21
-170.105034679696
 97
        0
 75
     2
 76
     1
 98
        0
  0
POLYLINE
  5
D8
330
1F
100
AcDbEntity
  8
Ebene 1
370
     0
100
AcDb2dPolyline
 66
     1
 10
0.0
 20
0.0
 30
0.0
  0
VERTEX
  5
D9
330
D8
100
AcDbEntity
  8
Ebene 1
370
     0
100
AcDbVertex
100
AcDb2dVertex
 10
54.30676268173581
 20
-170.105034679696
 30
0.0
  0
VERTEX
  5
DA
330
D8
100
AcDbEntity
  8
Ebene 1
370
     0
100
AcDbVertex
100
AcDb2dVertex
 10
64.02210420491461
 20
-170.5074218323732
 30
0.0
  0
VERTEX
  5
DB
330
D8
100
AcDbEntity
  8
Ebene 1
370
     0
100
AcDbVertex
100
AcDb2dVertex
 10
64.02210420491461
 20
-170.105034679696
 30
0.0
  0
VERTEX
  5
DC
330
D8
100
AcDbEntity
  8
Ebene 1
370
     0
100
AcDbVertex
100
AcDb2dVertex
 10
54.30676268173581
 20
-170.105034679696
 30
0.0
  0
SEQEND
  5
DD
330
D8
100
AcDbEntity
  8
Ebene 1
370
     0
  0
HATCH
  5
DE
330
1F
100
AcDbEntity
  8
Ebene 1
 62
   179
420
  1709851
100
AcDbHatch
 10
0.0
 20
0.0
 30
0.0
210
0.0
220
0.0
230
1.0
  2
SOLID
 70
     1
 71
     0
 91
        1
 92
        1
 93
        3
 72
     1
 10
54.30676268173581
 20
-170.105034679696
 11
64.02210420491461
 21
-170.5074218323732
 72
     1
 10
64.02210420491461
 20
-170.5074218323732
 11
64.02210420491461
 21
-170.105034679696
 72
     1
 10
64.02210420491461
 20
-170.105034679696
 11
54.30676268173581
 21
-170.105034679696
 97
        0
 75
     2
 76
     1
 98
        0
  0
POLYLINE
  5
DF
330
1F
100
AcDbEntity
  8
Ebene 1
370
     0
100
AcDb2dPolyline
 66
     1
 10
0.0
 20
0.0
 30
0.0
  0
VERTEX
  5
E0
330
DF
100
AcDbEntity
  8
Ebene 1
370
     0
100
AcDbVertex
100
AcDb2dVertex
 10
54.30676268173581
 20
-160.0928981804629
 30
0.0
  0
VERTEX
  5
E1
330
DF
100
AcDbEntity
  8
Ebene 1
370
     0
100
AcDbVertex
100
AcDb2dVertex
 10
53.92573512106718
 20
-160.0928981804629
 30
0.0
  0
VERTEX
  5
E2
330
DF
100
AcDbEntity
  8
Ebene 1
370
     0
100
AcDbVertex
100
AcDb2dVertex
 10
54.30676268173581
 20
-170.105034679696
 30
0.0
  0
VERTEX
  5
E3
330
DF
100
AcDbEntity
  8
Ebene 1
370
     0
100
AcDbVertex
100
AcDb2dVertex
 10
54.30676268173581
 20
-160.0928981804629
 30
0.0
  0
SEQEND
  5
E4
330
DF
100
AcDbEntity
  8
Ebene 1
370
     0
  0
HATCH
  5
E5
330
1F
100
AcDbEntity
  8
Ebene 1
 62
   179
420
  1709851
100
AcDbHatch
 10
0.0
 20
0.0
 30
0.0
210
0.0
220
0.0
230
1.0
  2
SOLID
 70
     1
 71
     0
 91
        1
 92
        1
 93
        3
 72
     1
 10
54.30676268173581
 20
-160.0928981804629
 11
53.92573512106718
 21
-160.0928981804629
 72
     1
 10
53.92573512106718
 20
-160.0928981804629
 11
54.30676268173581
 21
-170.105034679696
 72
     1
 10
54.30676268173581
 20
-170.105034679696
 11
54.30676268173581
 21
-160.0928981804629
 97
        0
 75
     2
 76
     1
 98
        0
  0
POLYLINE
  5
E6
330
1F
100
AcDbEntity
  8
Ebene 1
370
     0
100
AcDb2dPolyline
 66
     1
 10
0.0
 20
0.0
 30
0.0
  0
VERTEX
  5
E7
330
E6
100
AcDbEntity
  8
Ebene 1
370
     0
100
AcDbVertex
100
AcDb2dVertex
 10
164.0137613522257
 20
-170.5074218323732
 30
0.0
  0
VERTEX
  5
E8
330
E6
100
AcDbEntity
  8
Ebene 1
370
     0
100
AcDbVertex
100
AcDb2dVertex
 10
144.201706235651
 20
-170.105034679696
 30
0.0
  0
VERTEX
  5
E9
330
E6
100
AcDbEntity
  8
Ebene 1
370
     0
100
AcDbVertex
100
AcDb2dVertex
 10
144.201706235651
 20
-170.5074218323732
 30
0.0
  0
VERTEX
  5
EA
330
E6
100
AcDbEntity
  8
Ebene 1
370
     0
100
AcDbVertex
100
AcDb2dVertex
 10
164.0137613522257
 20
-170.5074218323732
 30
0.0
  0
SEQEND
  5
EB
330
E6
100
AcDbEntity
  8
Ebene 1
370
     0
  0
HATCH
  5
EC
330
1F
100
AcDbEntity
  8
Ebene 1
 62
   179
420
  1709851
100
AcDbHatch
 10
0.0
 20
0.0
 30
0.0
210
0.0
220
0.0
230
1.0
  2
SOLID
 70
     1
 71
     0
 91
        1
 92
        1
 93
        3
 72
     1
 10
164.0137613522257
 20
-170.5074218323732
 11
144.201706235651
 21
-170.105034679696
 72
     1
 10
144.201706235651
 20
-170.105034679696
 11
144.201706235651
 21
-170.5074218323732
 72
     1
 10
144.201706235651
 20
-170.5074218323732
 11
164.0137613522257
 21
-170.5074218323732
 97
        0
 75
     2
 76
     1
 98
        0
  0
POLYLINE
  5
ED
330
1F
100
AcDbEntity
  8
Ebene 1
370
     0
100
AcDb2dPolyline
 66
     1
 10
0.0
 20
0.0
 30
0.0
  0
VERTEX
  5
EE
330
ED
100
AcDbEntity
  8
Ebene 1
370
     0
100
AcDbVertex
100
AcDb2dVertex
 10
144.201706235651
 20
-170.105034679696
 30
0.0
  0
VERTEX
  5
EF
330
ED
100
AcDbEntity
  8
Ebene 1
370
     0
100
AcDbVertex
100
AcDb2dVertex
 10
164.0137613522257
 20
-170.5074218323732
 30
0.0
  0
VERTEX
  5
F0
330
ED
100
AcDbEntity
  8
Ebene 1
370
     0
100
AcDbVertex
100
AcDb2dVertex
 10
153.917220013604
 20
-170.105034679696
 30
0.0
  0
VERTEX
  5
F1
330
ED
100
AcDbEntity
  8
Ebene 1
370
     0
100
AcDbVertex
100
AcDb2dVertex
 10
144.201706235651
 20
-170.105034679696
 30
0.0
  0
SEQEND
  5
F2
330
ED
100
AcDbEntity
  8
Ebene 1
370
     0
  0
HATCH
  5
F3
330
1F
100
AcDbEntity
  8
Ebene 1
 62
   179
420
  1709851
100
AcDbHatch
 10
0.0
 20
0.0
 30
0.0
210
0.0
220
0.0
230
1.0
  2
SOLID
 70
     1
 71
     0
 91
        1
 92
        1
 93
        3
 72
     1
 10
144.201706235651
 20
-170.105034679696
 11
164.0137613522257
 21
-170.5074218323732
 72
     1
 10
164.0137613522257
 20
-170.5074218323732
 11
153.917220013604
 21
-170.105034679696
 72
     1
 10
153.917220013604
 20
-170.105034679696
 11
144.201706235651
 21
-170.105034679696
 97
        0
 75
     2
 76
     1
 98
        0
  0
POLYLINE
  5
F4
330
1F
100
AcDbEntity
  8
Ebene 1
370
     0
100
AcDb2dPolyline
 66
     1
 10
0.0
 20
0.0
 30
0.0
  0
VERTEX
  5
F5
330
F4
100
AcDbEntity
  8
Ebene 1
370
     0
100
AcDbVertex
100
AcDb2dVertex
 10
153.917220013604
 20
-170.105034679696
 30
0.0
  0
VERTEX
  5
F6
330
F4
100
AcDbEntity
  8
Ebene 1
370
     0
100
AcDbVertex
100
AcDb2dVertex
 10
164.0137613522257
 20
-170.5074218323732
 30
0.0
  0
VERTEX
  5
F7
330
F4
100
AcDbEntity
  8
Ebene 1
370
     0
100
AcDbVertex
100
AcDb2dVertex
 10
154.2982475742727
 20
-170.105034679696
 30
0.0
  0
VERTEX
  5
F8
330
F4
100
AcDbEntity
  8
Ebene 1
370
     0
100
AcDbVertex
100
AcDb2dVertex
 10
153.917220013604
 20
-170.105034679696
 30
0.0
  0
SEQEND
  5
F9
330
F4
100
AcDbEntity
  8
Ebene 1
370
     0
  0
HATCH
  5
FA
330
1F
100
AcDbEntity
  8
Ebene 1
 62
   179
420
  1709851
100
AcDbHatch
 10
0.0
 20
0.0
 30
0.0
210
0.0
220
0.0
230
1.0
  2
SOLID
 70
     1
 71
     0
 91
        1
 92
        1
 93
        3
 72
     1
 10
153.917220013604
 20
-170.105034679696
 11
164.0137613522257
 21
-170.5074218323732
 72
     1
 10
164.0137613522257
 20
-170.5074218323732
 11
154.2982475742727
 21
-170.105034679696
 72
     1
 10
154.2982475742727
 20
-170.105034679696
 11
153.917220013604
 21
-170.105034679696
 97
        0
 75
     2
 76
     1
 98
        0
  0
POLYLINE
  5
FB
330
1F
100
AcDbEntity
  8
Ebene 1
370
     0
100
AcDb2dPolyline
 66
     1
 10
0.0
 20
0.0
 30
0.0
  0
VERTEX
  5
FC
330
FB
100
AcDbEntity
  8
Ebene 1
370
     0
100
AcDbVertex
100
AcDb2dVertex
 10
153.917220013604
 20
-170.105034679696
 30
0.0
  0
VERTEX
  5
FD
330
FB
100
AcDbEntity
  8
Ebene 1
370
     0
100
AcDbVertex
100
AcDb2dVertex
 10
154.2982475742727
 20
-170.105034679696
 30
0.0
  0
VERTEX
  5
FE
330
FB
100
AcDbEntity
  8
Ebene 1
370
     0
100
AcDbVertex
100
AcDb2dVertex
 10
153.917220013604
 20
-160.0928981804629
 30
0.0
  0
VERTEX
  5
FF
330
FB
100
AcDbEntity
  8
Ebene 1
370
     0
100
AcDbVertex
100
AcDb2dVertex
 10
153.917220013604
 20
-170.105034679696
 30
0.0
  0
SEQEND
  5
100
330
FB
100
AcDbEntity
  8
Ebene 1
370
     0
  0
HATCH
  5
101
330
1F
100
AcDbEntity
  8
Ebene 1
 62
   179
420
  1709851
100
AcDbHatch
 10
0.0
 20
0.0
 30
0.0
210
0.0
220
0.0
230
1.0
  2
SOLID
 70
     1
 71
     0
 91
        1
 92
        1
 93
        3
 72
     1
 10
153.917220013604
 20
-170.105034679696
 11
154.2982475742727
 21
-170.105034679696
 72
     1
 10
154.2982475742727
 20
-170.105034679696
 11
153.917220013604
 21
-160.0928981804629
 72
     1
 10
153.917220013604
 20
-160.0928981804629
 11
153.917220013604
 21
-170.105034679696
 97
        0
 75
     2
 76
     1
 98
        0
  0
POLYLINE
  5
102
330
1F
100
AcDbEntity
  8
Ebene 1
370
     0
100
AcDb2dPolyline
 66
     1
 10
0.0
 20
0.0
 30
0.0
  0
VERTEX
  5
103
330
102
100
AcDbEntity
  8
Ebene 1
370
     0
100
AcDbVertex
100
AcDb2dVertex
 10
154.2982475742727
 20
-170.105034679696
 30
0.0
  0
VERTEX
  5
104
330
102
100
AcDbEntity
  8
Ebene 1
370
     0
100
AcDbVertex
100
AcDb2dVertex
 10
164.0137613522257
 20
-170.5074218323732
 30
0.0
  0
VERTEX
  5
105
330
102
100
AcDbEntity
  8
Ebene 1
370
     0
100
AcDbVertex
100
AcDb2dVertex
 10
164.0137613522257
 20
-170.105034679696
 30
0.0
  0
VERTEX
  5
106
330
102
100
AcDbEntity
  8
Ebene 1
370
     0
100
AcDbVertex
100
AcDb2dVertex
 10
154.2982475742727
 20
-170.105034679696
 30
0.0
  0
SEQEND
  5
107
330
102
100
AcDbEntity
  8
Ebene 1
370
     0
  0
HATCH
  5
108
330
1F
100
AcDbEntity
  8
Ebene 1
 62
   179
420
  1709851
100
AcDbHatch
 10
0.0
 20
0.0
 30
0.0
210
0.0
220
0.0
230
1.0
  2
SOLID
 70
     1
 71
     0
 91
        1
 92
        1
 93
        3
 72
     1
 10
154.2982475742727
 20
-170.105034679696
 11
164.0137613522257
 21
-170.5074218323732
 72
     1
 10
164.0137613522257
 20
-170.5074218323732
 11
164.0137613522257
 21
-170.105034679696
 72
     1
 10
164.0137613522257
 20
-170.105034679696
 11
154.2982475742727
 21
-170.105034679696
 97
        0
 75
     2
 76
     1
 98
        0
  0
POLYLINE
  5
109
330
1F
100
AcDbEntity
  8
Ebene 1
370
     0
100
AcDb2dPolyline
 66
     1
 10
0.0
 20
0.0
 30
0.0
  0
VERTEX
  5
10A
330
109
100
AcDbEntity
  8
Ebene 1
370
     0
100
AcDbVertex
100
AcDb2dVertex
 10
154.2982475742727
 20
-160.0928981804629
 30
0.0
  0
VERTEX
  5
10B
330
109
100
AcDbEntity
  8
Ebene 1
370
     0
100
AcDbVertex
100
AcDb2dVertex
 10
153.917220013604
 20
-160.0928981804629
 30
0.0
  0
VERTEX
  5
10C
330
109
100
AcDbEntity
  8
Ebene 1
370
     0
100
AcDbVertex
100
AcDb2dVertex
 10
154.2982475742727
 20
-170.105034679696
 30
0.0
  0
VERTEX
  5
10D
330
109
100
AcDbEntity
  8
Ebene 1
370
     0
100
AcDbVertex
100
AcDb2dVertex
 10
154.2982475742727
 20
-160.0928981804629
 30
0.0
  0
SEQEND
  5
10E
330
109
100
AcDbEntity
  8
Ebene 1
370
     0
  0
HATCH
  5
10F
330
1F
100
AcDbEntity
  8
Ebene 1
 62
   179
420
  1709851
100
AcDbHatch
 10
0.0
 20
0.0
 30
0.0
210
0.0
220
0.0
230
1.0
  2
SOLID
 70
     1
 71
     0
 91
        1
 92
        1
 93
        3
 72
     1
 10
154.2982475742727
 20
-160.0928981804629
 11
153.917220013604
 21
-160.0928981804629
 72
     1
 10
153.917220013604
 20
-160.0928981804629
 11
154.2982475742727
 21
-170.105034679696
 72
     1
 10
154.2982475742727
 20
-170.105034679696
 11
154.2982475742727
 21
-160.0928981804629
 97
        0
 75
     2
 76
     1
 98
        0
  0
INSERT
  5
111
330
1F
100
AcDbEntity
  8
Ebene 1
100
AcDbBlockReference
  2
block 2
 10
0.0
 20
0.0
 30
0.0
  0
POLYLINE
  5
11F
330
1F
100
AcDbEntity
  8
Ebene 1
 62
   179
420
  1709851
370
    18
100
AcDb2dPolyline
 66
     1
 10
0.0
 20
0.0
 30
0.0
  0
VERTEX
  5
120
330
11F
100
AcDbEntity
  8
Ebene 1
 62
   179
420
  1709851
370
    18
100
AcDbVertex
100
AcDb2dVertex
 10
155.8009982249386
 20
-164.3055609398264
 30
0.0
  0
VERTEX
  5
121
330
11F
100
AcDbEntity
  8
Ebene 1
 62
   179
420
  1709851
370
    18
100
AcDbVertex
100
AcDb2dVertex
 10
152.7107475746695
 20
-164.3055609398264
 30
0.0
  0
SEQEND
  5
122
330
11F
100
AcDbEntity
  8
Ebene 1
370
    18
  0
POLYLINE
  5
123
330
1F
100
AcDbEntity
  8
Ebene 1
 62
   179
420
  1709851
370
    18
100
AcDb2dPolyline
 66
     1
 10
0.0
 20
0.0
 30
0.0
  0
VERTEX
  5
124
330
123
100
AcDbEntity
  8
Ebene 1
 62
   179
420
  1709851
370
    18
100
AcDbVertex
100
AcDb2dVertex
 10
154.2982475742727
 20
-151.3092827312699
 30
0.0
  0
VERTEX
  5
125
330
123
100
AcDbEntity
  8
Ebene 1
 62
   179
420
  1709851
370
    18
100
AcDbVertex
100
AcDb2dVertex
 10
154.2982475742727
 20
-166.6971462256868
 30
0.0
  0
VERTEX
  5
126
330
123
100
AcDbEntity
  8
Ebene 1
 62
   179
420
  1709851
370
    18
100
AcDbVertex
100
AcDb2dVertex
 10
154.8060546487985
 20
-166.6971462256868
 30
0.0
  0
SEQEND
  5
127
330
123
100
AcDbEntity
  8
Ebene 1
370
    18
  0
POLYLINE
  5
128
330
1F
100
AcDbEntity
  8
Ebene 1
 62
   179
420
  1709851
370
    18
100
AcDb2dPolyline
 66
     1
 10
0.0
 20
0.0
 30
0.0
  0
VERTEX
  5
129
330
128
100
AcDbEntity
  8
Ebene 1
 62
   179
420
  1709851
370
    18
100
AcDbVertex
100
AcDb2dVertex
 10
154.8060546487985
 20
-166.6971462256868
 30
0.0
  0
VERTEX
  5
12A
330
128
100
AcDbEntity
  8
Ebene 1
 62
   179
420
  1709851
370
    18
100
AcDbVertex
100
AcDb2dVertex
 10
154.8060546487985
 20
-150.6953667157984
 30
0.0
  0
SEQEND
  5
12B
330
128
100
AcDbEntity
  8
Ebene 1
370
    18
  0
POLYLINE
  5
12C
330
1F
100
AcDbEntity
  8
Ebene 1
 62
   179
420
  1709851
370
    18
100
AcDb2dPolyline
 66
     1
 10
0.0
 20
0.0
 30
0.0
  0
VERTEX
  5
12D
330
12C
100
AcDbEntity
  8
Ebene 1
 62
   179
420
  1709851
370
    18
100
AcDbVertex
100
AcDb2dVertex
 10
146.8051648938543
 20
-150.6953667157984
 30
0.0
  0
VERTEX
  5
12E
330
12C
100
AcDbEntity
  8
Ebene 1
 62
   179
420
  1709851
370
    18
100
AcDbVertex
100
AcDb2dVertex
 10
146.8051648938543
 20
-149.7004231396582
 30
0.0
  0
SEQEND
  5
12F
330
12C
100
AcDbEntity
  8
Ebene 1
370
    18
  0
POLYLINE
  5
130
330
1F
100
AcDbEntity
  8
Ebene 1
 62
   179
420
  1709851
370
    18
100
AcDb2dPolyline
 66
     1
 10
0.0
 20
0.0
 30
0.0
  0
VERTEX
  5
131
330
130
100
AcDbEntity
  8
Ebene 1
 62
   179
420
  1709851
370
    18
100
AcDbVertex
100
AcDb2dVertex
 10
146.8051648938543
 20
-150.6953667157984
 30
0.0
  0
VERTEX
  5
132
330
130
100
AcDbEntity
  8
Ebene 1
 62
   179
420
  1709851
370
    18
100
AcDbVertex
100
AcDb2dVertex
 10
154.8060546487985
 20
-150.6953667157984
 30
0.0
  0
VERTEX
  5
133
330
130
100
AcDbEntity
  8
Ebene 1
 62
   179
420
  1709851
370
    18
100
AcDbVertex
100
AcDb2dVertex
 10
154.8060546487985
 20
-149.7004231396582
 30
0.0
  0
SEQEND
  5
134
330
130
100
AcDbEntity
  8
Ebene 1
370
    18
  0
POLYLINE
  5
135
330
1F
100
AcDbEntity
  8
Ebene 1
 62
   179
420
  1709851
370
    18
100
AcDb2dPolyline
 66
     1
 10
0.0
 20
0.0
 30
0.0
  0
VERTEX
  5
136
330
135
100
AcDbEntity
  8
Ebene 1
 62
   179
420
  1709851
370
    18
100
AcDbVertex
100
AcDb2dVertex
 10
146.8051648938543
 20
-150.6953667157984
 30
0.0
  0
VERTEX
  5
137
330
135
100
AcDbEntity
  8
Ebene 1
 62
   179
420
  1709851
370
    18
100
AcDbVertex
100
AcDb2dVertex
 10
146.8051648938543
 20
-151.3092827312699
 30
0.0
  0
VERTEX
  5
138
330
135
100
AcDbEntity
  8
Ebene 1
 62
   179
420
  1709851
370
    18
100
AcDbVertex
100
AcDb2dVertex
 10
154.2982475742727
 20
-151.3092827312699
 30
0.0
  0
SEQEND
  5
139
330
135
100
AcDbEntity
  8
Ebene 1
370
    18
  0
POLYLINE
  5
13A
330
1F
100
AcDbEntity
  8
Ebene 1
 62
   179
420
  1709851
370
    35
100
AcDb2dPolyline
 66
     1
 10
0.0
 20
0.0
 30
0.0
  0
VERTEX
  5
13B
330
13A
100
AcDbEntity
  8
Ebene 1
 62
   179
420
  1709851
370
    35
100
AcDbVertex
100
AcDb2dVertex
 10
150.3822075361892
 20
-130.3963473523836
 30
0.0
  0
VERTEX
  5
13C
330
13A
100
AcDbEntity
  8
Ebene 1
 62
   179
420
  1709851
370
    35
100
AcDbVertex
100
AcDb2dVertex
 10
150.3822075361892
 20
-129.6980264975234
 30
0.0
  0
SEQEND
  5
13D
330
13A
100
AcDbEntity
  8
Ebene 1
370
    35
  0
POLYLINE
  5
13E
330
1F
100
AcDbEntity
  8
Ebene 1
 62
   179
420
  1709851
370
    35
100
AcDb2dPolyline
 66
     1
 10
0.0
 20
0.0
 30
0.0
  0
VERTEX
  5
13F
330
13E
100
AcDbEntity
  8
Ebene 1
 62
   179
420
  1709851
370
    35
100
AcDbVertex
100
AcDb2dVertex
 10
150.3822075361892
 20
-132.3858899951153
 30
0.0
  0
VERTEX
  5
140
330
13E
100
AcDbEntity
  8
Ebene 1
 62
   179
420
  1709851
370
    35
100
AcDbVertex
100
AcDb2dVertex
 10
150.3822075361892
 20
-131.3912909285237
 30
0.0
  0
SEQEND
  5
141
330
13E
100
AcDbEntity
  8
Ebene 1
370
    35
  0
POLYLINE
  5
142
330
1F
100
AcDbEntity
  8
Ebene 1
 62
   179
420
  1709851
370
    35
100
AcDb2dPolyline
 66
     1
 10
0.0
 20
0.0
 30
0.0
  0
VERTEX
  5
143
330
142
100
AcDbEntity
  8
Ebene 1
 62
   179
420
  1709851
370
    35
100
AcDbVertex
100
AcDb2dVertex
 10
150.3822075361892
 20
-140.3871242596081
 30
0.0
  0
VERTEX
  5
144
330
142
100
AcDbEntity
  8
Ebene 1
 62
   179
420
  1709851
370
    35
100
AcDbVertex
100
AcDb2dVertex
 10
150.3822075361892
 20
-133.402193163264
 30
0.0
  0
SEQEND
  5
145
330
142
100
AcDbEntity
  8
Ebene 1
370
    35
  0
POLYLINE
  5
146
330
1F
100
AcDbEntity
  8
Ebene 1
 62
   179
420
  1709851
370
    35
100
AcDb2dPolyline
 66
     1
 10
0.0
 20
0.0
 30
0.0
  0
VERTEX
  5
147
330
146
100
AcDbEntity
  8
Ebene 1
 62
   179
420
  1709851
370
    35
100
AcDbVertex
100
AcDb2dVertex
 10
150.3822075361892
 20
-142.3980264943484
 30
0.0
  0
VERTEX
  5
148
330
146
100
AcDbEntity
  8
Ebene 1
 62
   179
420
  1709851
370
    35
100
AcDbVertex
100
AcDb2dVertex
 10
150.3822075361892
 20
-141.4030829182083
 30
0.0
  0
SEQEND
  5
149
330
146
100
AcDbEntity
  8
Ebene 1
370
    35
  0
POLYLINE
  5
14A
330
1F
100
AcDbEntity
  8
Ebene 1
 62
   179
420
  1709851
370
    35
100
AcDb2dPolyline
 66
     1
 10
0.0
 20
0.0
 30
0.0
  0
VERTEX
  5
14B
330
14A
100
AcDbEntity
  8
Ebene 1
 62
   179
420
  1709851
370
    35
100
AcDbVertex
100
AcDb2dVertex
 10
150.3822075361892
 20
-150.3990885040669
 30
0.0
  0
VERTEX
  5
14C
330
14A
100
AcDbEntity
  8
Ebene 1
 62
   179
420
  1709851
370
    35
100
AcDbVertex
100
AcDb2dVertex
 10
150.3822075361892
 20
-143.39262556094
 30
0.0
  0
SEQEND
  5
14D
330
14A
100
AcDbEntity
  8
Ebene 1
370
    35
  0
POLYLINE
  5
14E
330
1F
100
AcDbEntity
  8
Ebene 1
 62
   179
420
  1709851
370
    35
100
AcDb2dPolyline
 66
     1
 10
0.0
 20
0.0
 30
0.0
  0
VERTEX
  5
14F
330
14E
100
AcDbEntity
  8
Ebene 1
 62
   179
420
  1709851
370
    35
100
AcDbVertex
100
AcDb2dVertex
 10
150.3822075361892
 20
-152.3882866372502
 30
0.0
  0
VERTEX
  5
150
330
14E
100
AcDbEntity
  8
Ebene 1
 62
   179
420
  1709851
370
    35
100
AcDbVertex
100
AcDb2dVertex
 10
150.3822075361892
 20
-151.394032080207
 30
0.0
  0
SEQEND
  5
151
330
14E
100
AcDbEntity
  8
Ebene 1
370
    35
  0
POLYLINE
  5
152
330
1F
100
AcDbEntity
  8
Ebene 1
 62
   179
420
  1709851
370
    18
100
AcDb2dPolyline
 66
     1
 10
0.0
 20
0.0
 30
0.0
  0
VERTEX
  5
153
330
152
100
AcDbEntity
  8
Ebene 1
 62
   179
420
  1709851
370
    18
100
AcDbVertex
100
AcDb2dVertex
 10
55.80951333240179
 20
-164.3055609398264
 30
0.0
  0
VERTEX
  5
154
330
152
100
AcDbEntity
  8
Ebene 1
 62
   179
420
  1709851
370
    18
100
AcDbVertex
100
AcDb2dVertex
 10
52.71909042735842
 20
-164.3055609398264
 30
0.0
  0
SEQEND
  5
155
330
152
100
AcDbEntity
  8
Ebene 1
370
    18
  0
POLYLINE
  5
156
330
1F
100
AcDbEntity
  8
Ebene 1
 62
   179
420
  1709851
370
    18
100
AcDb2dPolyline
 66
     1
 10
0.0
 20
0.0
 30
0.0
  0
VERTEX
  5
157
330
156
100
AcDbEntity
  8
Ebene 1
 62
   179
420
  1709851
370
    18
100
AcDbVertex
100
AcDb2dVertex
 10
54.30659042696155
 20
-151.3092827312699
 30
0.0
  0
VERTEX
  5
158
330
156
100
AcDbEntity
  8
Ebene 1
 62
   179
420
  1709851
370
    18
100
AcDbVertex
100
AcDb2dVertex
 10
54.30659042696155
 20
-166.6971462256868
 30
0.0
  0
VERTEX
  5
159
330
156
100
AcDbEntity
  8
Ebene 1
 62
   179
420
  1709851
370
    18
100
AcDbVertex
100
AcDb2dVertex
 10
54.81456975626164
 20
-166.6971462256868
 30
0.0
  0
SEQEND
  5
15A
330
156
100
AcDbEntity
  8
Ebene 1
370
    18
  0
POLYLINE
  5
15B
330
1F
100
AcDbEntity
  8
Ebene 1
 62
   179
420
  1709851
370
    18
100
AcDb2dPolyline
 66
     1
 10
0.0
 20
0.0
 30
0.0
  0
VERTEX
  5
15C
330
15B
100
AcDbEntity
  8
Ebene 1
 62
   179
420
  1709851
370
    18
100
AcDbVertex
100
AcDb2dVertex
 10
54.81456975626164
 20
-166.6971462256868
 30
0.0
  0
VERTEX
  5
15D
330
15B
100
AcDbEntity
  8
Ebene 1
 62
   179
420
  1709851
370
    18
100
AcDbVertex
100
AcDb2dVertex
 10
54.81456975626164
 20
-150.6953667157984
 30
0.0
  0
SEQEND
  5
15E
330
15B
100
AcDbEntity
  8
Ebene 1
370
    18
  0
POLYLINE
  5
15F
330
1F
100
AcDbEntity
  8
Ebene 1
 62
   179
420
  1709851
370
    18
100
AcDb2dPolyline
 66
     1
 10
0.0
 20
0.0
 30
0.0
  0
VERTEX
  5
160
330
15F
100
AcDbEntity
  8
Ebene 1
 62
   179
420
  1709851
370
    18
100
AcDbVertex
100
AcDb2dVertex
 10
46.81368000131742
 20
-150.6953667157984
 30
0.0
  0
VERTEX
  5
161
330
15F
100
AcDbEntity
  8
Ebene 1
 62
   179
420
  1709851
370
    18
100
AcDbVertex
100
AcDb2dVertex
 10
46.81368000131742
 20
-149.7004231396582
 30
0.0
  0
SEQEND
  5
162
330
15F
100
AcDbEntity
  8
Ebene 1
370
    18
  0
POLYLINE
  5
163
330
1F
100
AcDbEntity
  8
Ebene 1
 62
   179
420
  1709851
370
    18
100
AcDb2dPolyline
 66
     1
 10
0.0
 20
0.0
 30
0.0
  0
VERTEX
  5
164
330
163
100
AcDbEntity
  8
Ebene 1
 62
   179
420
  1709851
370
    18
100
AcDbVertex
100
AcDb2dVertex
 10
46.81368000131742
 20
-150.6953667157984
 30
0.0
  0
VERTEX
  5
165
330
163
100
AcDbEntity
  8
Ebene 1
 62
   179
420
  1709851
370
    18
100
AcDbVertex
100
AcDb2dVertex
 10
54.81456975626164
 20
-150.6953667157984
 30
0.0
  0
VERTEX
  5
166
330
163
100
AcDbEntity
  8
Ebene 1
 62
   179
420
  1709851
370
    18
100
AcDbVertex
100
AcDb2dVertex
 10
54.81456975626164
 20
-149.7004231396582
 30
0.0
  0
SEQEND
  5
167
330
163
100
AcDbEntity
  8
Ebene 1
370
    18
  0
POLYLINE
  5
168
330
1F
100
AcDbEntity
  8
Ebene 1
 62
   179
420
  1709851
370
    18
100
AcDb2dPolyline
 66
     1
 10
0.0
 20
0.0
 30
0.0
  0
VERTEX
  5
169
330
168
100
AcDbEntity
  8
Ebene 1
 62
   179
420
  1709851
370
    18
100
AcDbVertex
100
AcDb2dVertex
 10
46.81368000131742
 20
-150.6953667157984
 30
0.0
  0
VERTEX
  5
16A
330
168
100
AcDbEntity
  8
Ebene 1
 62
   179
420
  1709851
370
    18
100
AcDbVertex
100
AcDb2dVertex
 10
46.81368000131742
 20
-151.3092827312699
 30
0.0
  0
VERTEX
  5
16B
330
168
100
AcDbEntity
  8
Ebene 1
 62
   179
420
  1709851
370
    18
100
AcDbVertex
100
AcDb2dVertex
 10
54.30659042696155
 20
-151.3092827312699
 30
0.0
  0
SEQEND
  5
16C
330
168
100
AcDbEntity
  8
Ebene 1
370
    18
  0
POLYLINE
  5
16D
330
1F
100
AcDbEntity
  8
Ebene 1
 62
   179
420
  1709851
370
    35
100
AcDb2dPolyline
 66
     1
 10
0.0
 20
0.0
 30
0.0
  0
VERTEX
  5
16E
330
16D
100
AcDbEntity
  8
Ebene 1
 62
   179
420
  1709851
370
    35
100
AcDbVertex
100
AcDb2dVertex
 10
50.39089489842659
 20
-130.3963473523836
 30
0.0
  0
VERTEX
  5
16F
330
16D
100
AcDbEntity
  8
Ebene 1
 62
   179
420
  1709851
370
    35
100
AcDbVertex
100
AcDb2dVertex
 10
50.39089489842659
 20
-129.6980264975234
 30
0.0
  0
SEQEND
  5
170
330
16D
100
AcDbEntity
  8
Ebene 1
370
    35
  0
POLYLINE
  5
171
330
1F
100
AcDbEntity
  8
Ebene 1
 62
   179
420
  1709851
370
    35
100
AcDb2dPolyline
 66
     1
 10
0.0
 20
0.0
 30
0.0
  0
VERTEX
  5
172
330
171
100
AcDbEntity
  8
Ebene 1
 62
   179
420
  1709851
370
    35
100
AcDbVertex
100
AcDb2dVertex
 10
50.39089489842659
 20
-132.3858899951153
 30
0.0
  0
VERTEX
  5
173
330
171
100
AcDbEntity
  8
Ebene 1
 62
   179
420
  1709851
370
    35
100
AcDbVertex
100
AcDb2dVertex
 10
50.39089489842659
 20
-131.3912909285237
 30
0.0
  0
SEQEND
  5
174
330
171
100
AcDbEntity
  8
Ebene 1
370
    35
  0
POLYLINE
  5
175
330
1F
100
AcDbEntity
  8
Ebene 1
 62
   179
420
  1709851
370
    35
100
AcDb2dPolyline
 66
     1
 10
0.0
 20
0.0
 30
0.0
  0
VERTEX
  5
176
330
175
100
AcDbEntity
  8
Ebene 1
 62
   179
420
  1709851
370
    35
100
AcDbVertex
100
AcDb2dVertex
 10
50.39089489842659
 20
-140.3871242596081
 30
0.0
  0
VERTEX
  5
177
330
175
100
AcDbEntity
  8
Ebene 1
 62
   179
420
  1709851
370
    35
100
AcDbVertex
100
AcDb2dVertex
 10
50.39089489842659
 20
-133.402193163264
 30
0.0
  0
SEQEND
  5
178
330
175
100
AcDbEntity
  8
Ebene 1
370
    35
  0
POLYLINE
  5
179
330
1F
100
AcDbEntity
  8
Ebene 1
 62
   179
420
  1709851
370
    35
100
AcDb2dPolyline
 66
     1
 10
0.0
 20
0.0
 30
0.0
  0
VERTEX
  5
17A
330
179
100
AcDbEntity
  8
Ebene 1
 62
   179
420
  1709851
370
    35
100
AcDbVertex
100
AcDb2dVertex
 10
50.39089489842659
 20
-142.3980264943484
 30
0.0
  0
VERTEX
  5
17B
330
179
100
AcDbEntity
  8
Ebene 1
 62
   179
420
  1709851
370
    35
100
AcDbVertex
100
AcDb2dVertex
 10
50.39089489842659
 20
-141.4030829182083
 30
0.0
  0
SEQEND
  5
17C
330
179
100
AcDbEntity
  8
Ebene 1
370
    35
  0
POLYLINE
  5
17D
330
1F
100
AcDbEntity
  8
Ebene 1
 62
   179
420
  1709851
370
    35
100
AcDb2dPolyline
 66
     1
 10
0.0
 20
0.0
 30
0.0
  0
VERTEX
  5
17E
330
17D
100
AcDbEntity
  8
Ebene 1
 62
   179
420
  1709851
370
    35
100
AcDbVertex
100
AcDb2dVertex
 10
50.39089489842659
 20
-150.3990885040669
 30
0.0
  0
VERTEX
  5
17F
330
17D
100
AcDbEntity
  8
Ebene 1
 62
   179
420
  1709851
370
    35
100
AcDbVertex
100
AcDb2dVertex
 10
50.39089489842659
 20
-143.39262556094
 30
0.0
  0
SEQEND
  5
180
330
17D
100
AcDbEntity
  8
Ebene 1
370
    35
  0
POLYLINE
  5
181
330
1F
100
AcDbEntity
  8
Ebene 1
 62
   179
420
  1709851
370
    35
100
AcDb2dPolyline
 66
     1
 10
0.0
 20
0.0
 30
0.0
  0
VERTEX
  5
182
330
181
100
AcDbEntity
  8
Ebene 1
 62
   179
420
  1709851
370
    35
100
AcDbVertex
100
AcDb2dVertex
 10
50.39089489842659
 20
-152.3882866372502
 30
0.0
  0
VERTEX
  5
183
330
181
100
AcDbEntity
  8
Ebene 1
 62
   179
420
  1709851
370
    35
100
AcDbVertex
100
AcDb2dVertex
 10
50.39089489842659
 20
-151.394032080207
 30
0.0
  0
SEQEND
  5
184
330
181
100
AcDbEntity
  8
Ebene 1
370
    35
  0
POLYLINE
  5
185
330
1F
100
AcDbEntity
  8
Ebene 1
 62
   179
420
  1709851
370
    18
100
AcDb2dPolyline
 66
     1
 10
0.0
 20
0.0
 30
0.0
  0
VERTEX
  5
186
330
185
100
AcDbEntity
  8
Ebene 1
 62
   179
420
  1709851
370
    18
100
AcDbVertex
100
AcDb2dVertex
 10
24.71563177550512
 20
-90.3912095585654
 30
0.0
  0
VERTEX
  5
187
330
185
100
AcDbEntity
  8
Ebene 1
 62
   179
420
  1709851
370
    18
100
AcDbVertex
100
AcDb2dVertex
 10
24.71563177550512
 20
-85.71345890869317
 30
0.0
  0
SEQEND
  5
188
330
185
100
AcDbEntity
  8
Ebene 1
370
    18
  0
POLYLINE
  5
189
330
1F
100
AcDbEntity
  8
Ebene 1
 62
   179
420
  1709851
370
    18
100
AcDb2dPolyline
 66
     1
 10
0.0
 20
0.0
 30
0.0
  0
VERTEX
  5
18A
330
189
100
AcDbEntity
  8
Ebene 1
 62
   179
420
  1709851
370
    18
100
AcDbVertex
100
AcDb2dVertex
 10
24.71563177550512
 20
-92.40211179330572
 30
0.0
  0
VERTEX
  5
18B
330
189
100
AcDbEntity
  8
Ebene 1
 62
   179
420
  1709851
370
    18
100
AcDbVertex
100
AcDb2dVertex
 10
24.71563177550512
 20
-91.40716821716558
 30
0.0
  0
SEQEND
  5
18C
330
189
100
AcDbEntity
  8
Ebene 1
370
    18
  0
POLYLINE
  5
18D
330
1F
100
AcDbEntity
  8
Ebene 1
 62
   179
420
  1709851
370
    18
100
AcDb2dPolyline
 66
     1
 10
0.0
 20
0.0
 30
0.0
  0
VERTEX
  5
18E
330
18D
100
AcDbEntity
  8
Ebene 1
 62
   179
420
  1709851
370
    18
100
AcDbVertex
100
AcDb2dVertex
 10
24.71563177550512
 20
-100.4030015482499
 30
0.0
  0
VERTEX
  5
18F
330
18D
100
AcDbEntity
  8
Ebene 1
 62
   179
420
  1709851
370
    18
100
AcDbVertex
100
AcDb2dVertex
 10
24.71563177550512
 20
-93.39671085989735
 30
0.0
  0
SEQEND
  5
190
330
18D
100
AcDbEntity
  8
Ebene 1
370
    18
  0
POLYLINE
  5
191
330
1F
100
AcDbEntity
  8
Ebene 1
 62
   179
420
  1709851
370
    18
100
AcDb2dPolyline
 66
     1
 10
0.0
 20
0.0
 30
0.0
  0
VERTEX
  5
192
330
191
100
AcDbEntity
  8
Ebene 1
 62
   179
420
  1709851
370
    18
100
AcDbVertex
100
AcDb2dVertex
 10
24.71563177550512
 20
-102.3925441909817
 30
0.0
  0
VERTEX
  5
193
330
191
100
AcDbEntity
  8
Ebene 1
 62
   179
420
  1709851
370
    18
100
AcDbVertex
100
AcDb2dVertex
 10
24.71563177550512
 20
-101.3979451243901
 30
0.0
  0
SEQEND
  5
194
330
191
100
AcDbEntity
  8
Ebene 1
370
    18
  0
POLYLINE
  5
195
330
1F
100
AcDbEntity
  8
Ebene 1
 62
   179
420
  1709851
370
    18
100
AcDb2dPolyline
 66
     1
 10
0.0
 20
0.0
 30
0.0
  0
VERTEX
  5
196
330
195
100
AcDbEntity
  8
Ebene 1
 62
   179
420
  1709851
370
    18
100
AcDbVertex
100
AcDb2dVertex
 10
24.71563177550512
 20
-110.3937784554745
 30
0.0
  0
VERTEX
  5
197
330
195
100
AcDbEntity
  8
Ebene 1
 62
   179
420
  1709851
370
    18
100
AcDbVertex
100
AcDb2dVertex
 10
24.71563177550512
 20
-103.3874877671219
 30
0.0
  0
SEQEND
  5
198
330
195
100
AcDbEntity
  8
Ebene 1
370
    18
  0
POLYLINE
  5
199
330
1F
100
AcDbEntity
  8
Ebene 1
 62
   179
420
  1709851
370
    18
100
AcDb2dPolyline
 66
     1
 10
0.0
 20
0.0
 30
0.0
  0
VERTEX
  5
19A
330
199
100
AcDbEntity
  8
Ebene 1
 62
   179
420
  1709851
370
    18
100
AcDbVertex
100
AcDb2dVertex
 10
24.71563177550512
 20
-112.4050251997633
 30
0.0
  0
VERTEX
  5
19B
330
199
100
AcDbEntity
  8
Ebene 1
 62
   179
420
  1709851
370
    18
100
AcDbVertex
100
AcDb2dVertex
 10
24.71563177550512
 20
-111.3887220316146
 30
0.0
  0
SEQEND
  5
19C
330
199
100
AcDbEntity
  8
Ebene 1
370
    18
  0
POLYLINE
  5
19D
330
1F
100
AcDbEntity
  8
Ebene 1
 62
   179
420
  1709851
370
    18
100
AcDb2dPolyline
 66
     1
 10
0.0
 20
0.0
 30
0.0
  0
VERTEX
  5
19E
330
19D
100
AcDbEntity
  8
Ebene 1
 62
   179
420
  1709851
370
    18
100
AcDbVertex
100
AcDb2dVertex
 10
24.71563177550512
 20
-120.405570445159
 30
0.0
  0
VERTEX
  5
19F
330
19D
100
AcDbEntity
  8
Ebene 1
 62
   179
420
  1709851
370
    18
100
AcDbVertex
100
AcDb2dVertex
 10
24.71563177550512
 20
-113.3992797568064
 30
0.0
  0
SEQEND
  5
1A0
330
19D
100
AcDbEntity
  8
Ebene 1
370
    18
  0
POLYLINE
  5
1A1
330
1F
100
AcDbEntity
  8
Ebene 1
 62
   179
420
  1709851
370
    18
100
AcDb2dPolyline
 66
     1
 10
0.0
 20
0.0
 30
0.0
  0
VERTEX
  5
1A2
330
1A1
100
AcDbEntity
  8
Ebene 1
 62
   179
420
  1709851
370
    18
100
AcDbVertex
100
AcDb2dVertex
 10
24.71563177550512
 20
-122.3951130878908
 30
0.0
  0
VERTEX
  5
1A3
330
1A1
100
AcDbEntity
  8
Ebene 1
 62
   179
420
  1709851
370
    18
100
AcDbVertex
100
AcDb2dVertex
 10
24.71563177550512
 20
-121.4008585308477
 30
0.0
  0
SEQEND
  5
1A4
330
1A1
100
AcDbEntity
  8
Ebene 1
370
    18
  0
POLYLINE
  5
1A5
330
1F
100
AcDbEntity
  8
Ebene 1
 62
   179
420
  1709851
370
    18
100
AcDb2dPolyline
 66
     1
 10
0.0
 20
0.0
 30
0.0
  0
VERTEX
  5
1A6
330
1A5
100
AcDbEntity
  8
Ebene 1
 62
   179
420
  1709851
370
    18
100
AcDbVertex
100
AcDb2dVertex
 10
24.71563177550512
 20
-130.3966918619321
 30
0.0
  0
VERTEX
  5
1A7
330
1A5
100
AcDbEntity
  8
Ebene 1
 62
   179
420
  1709851
370
    18
100
AcDbVertex
100
AcDb2dVertex
 10
24.71563177550512
 20
-123.390056664031
 30
0.0
  0
SEQEND
  5
1A8
330
1A5
100
AcDbEntity
  8
Ebene 1
370
    18
  0
POLYLINE
  5
1A9
330
1F
100
AcDbEntity
  8
Ebene 1
 62
   179
420
  1709851
370
    18
100
AcDb2dPolyline
 66
     1
 10
0.0
 20
0.0
 30
0.0
  0
VERTEX
  5
1AA
330
1A9
100
AcDbEntity
  8
Ebene 1
 62
   179
420
  1709851
370
    18
100
AcDbVertex
100
AcDb2dVertex
 10
24.71563177550512
 20
-132.3858899951153
 30
0.0
  0
VERTEX
  5
1AB
330
1A9
100
AcDbEntity
  8
Ebene 1
 62
   179
420
  1709851
370
    18
100
AcDbVertex
100
AcDb2dVertex
 10
24.71563177550512
 20
-131.3909464189752
 30
0.0
  0
SEQEND
  5
1AC
330
1A9
100
AcDbEntity
  8
Ebene 1
370
    18
  0
POLYLINE
  5
1AD
330
1F
100
AcDbEntity
  8
Ebene 1
 62
   179
420
  1709851
370
    18
100
AcDb2dPolyline
 66
     1
 10
0.0
 20
0.0
 30
0.0
  0
VERTEX
  5
1AE
330
1AD
100
AcDbEntity
  8
Ebene 1
 62
   179
420
  1709851
370
    18
100
AcDbVertex
100
AcDb2dVertex
 10
24.71563177550512
 20
-140.3867797500596
 30
0.0
  0
VERTEX
  5
1AF
330
1AD
100
AcDbEntity
  8
Ebene 1
 62
   179
420
  1709851
370
    18
100
AcDbVertex
100
AcDb2dVertex
 10
24.71563177550512
 20
-133.402193163264
 30
0.0
  0
SEQEND
  5
1B0
330
1AD
100
AcDbEntity
  8
Ebene 1
370
    18
  0
POLYLINE
  5
1B1
330
1F
100
AcDbEntity
  8
Ebene 1
 62
   179
420
  1709851
370
    18
100
AcDb2dPolyline
 66
     1
 10
0.0
 20
0.0
 30
0.0
  0
VERTEX
  5
1B2
330
1B1
100
AcDbEntity
  8
Ebene 1
 62
   179
420
  1709851
370
    18
100
AcDbVertex
100
AcDb2dVertex
 10
24.71563177550512
 20
-142.3980264943484
 30
0.0
  0
VERTEX
  5
1B3
330
1B1
100
AcDbEntity
  8
Ebene 1
 62
   179
420
  1709851
370
    18
100
AcDbVertex
100
AcDb2dVertex
 10
24.71563177550512
 20
-141.4027384086597
 30
0.0
  0
SEQEND
  5
1B4
330
1B1
100
AcDbEntity
  8
Ebene 1
370
    18
  0
POLYLINE
  5
1B5
330
1F
100
AcDbEntity
  8
Ebene 1
 62
   179
420
  1709851
370
    18
100
AcDb2dPolyline
 66
     1
 10
0.0
 20
0.0
 30
0.0
  0
VERTEX
  5
1B6
330
1B5
100
AcDbEntity
  8
Ebene 1
 62
   179
420
  1709851
370
    18
100
AcDbVertex
100
AcDb2dVertex
 10
24.71563177550512
 20
-150.3983994849698
 30
0.0
  0
VERTEX
  5
1B7
330
1B5
100
AcDbEntity
  8
Ebene 1
 62
   179
420
  1709851
370
    18
100
AcDbVertex
100
AcDb2dVertex
 10
24.71563177550512
 20
-143.39262556094
 30
0.0
  0
SEQEND
  5
1B8
330
1B5
100
AcDbEntity
  8
Ebene 1
370
    18
  0
POLYLINE
  5
1B9
330
1F
100
AcDbEntity
  8
Ebene 1
 62
   179
420
  1709851
370
    18
100
AcDb2dPolyline
 66
     1
 10
0.0
 20
0.0
 30
0.0
  0
VERTEX
  5
1BA
330
1B9
100
AcDbEntity
  8
Ebene 1
 62
   179
420
  1709851
370
    18
100
AcDbVertex
100
AcDb2dVertex
 10
24.71563177550512
 20
-152.3882866372502
 30
0.0
  0
VERTEX
  5
1BB
330
1B9
100
AcDbEntity
  8
Ebene 1
 62
   179
420
  1709851
370
    18
100
AcDbVertex
100
AcDb2dVertex
 10
24.71563177550512
 20
-151.394032080207
 30
0.0
  0
SEQEND
  5
1BC
330
1B9
100
AcDbEntity
  8
Ebene 1
370
    18
  0
POLYLINE
  5
1BD
330
1F
100
AcDbEntity
  8
Ebene 1
 62
   179
420
  1709851
370
    18
100
AcDb2dPolyline
 66
     1
 10
0.0
 20
0.0
 30
0.0
  0
VERTEX
  5
1BE
330
1BD
100
AcDbEntity
  8
Ebene 1
 62
   179
420
  1709851
370
    18
100
AcDbVertex
100
AcDb2dVertex
 10
24.71563177550512
 20
-160.3891763921944
 30
0.0
  0
VERTEX
  5
1BF
330
1BD
100
AcDbEntity
  8
Ebene 1
 62
   179
420
  1709851
370
    18
100
AcDbVertex
100
AcDb2dVertex
 10
24.71563177550512
 20
-153.3832302133903
 30
0.0
  0
SEQEND
  5
1C0
330
1BD
100
AcDbEntity
  8
Ebene 1
370
    18
  0
POLYLINE
  5
1C1
330
1F
100
AcDbEntity
  8
Ebene 1
 62
   179
420
  1709851
370
    18
100
AcDb2dPolyline
 66
     1
 10
0.0
 20
0.0
 30
0.0
  0
VERTEX
  5
1C2
330
1C1
100
AcDbEntity
  8
Ebene 1
 62
   179
420
  1709851
370
    18
100
AcDbVertex
100
AcDb2dVertex
 10
24.71563177550512
 20
-162.4004231364832
 30
0.0
  0
VERTEX
  5
1C3
330
1C1
100
AcDbEntity
  8
Ebene 1
 62
   179
420
  1709851
370
    18
100
AcDbVertex
100
AcDb2dVertex
 10
24.71563177550512
 20
-161.3841199683345
 30
0.0
  0
SEQEND
  5
1C4
330
1C1
100
AcDbEntity
  8
Ebene 1
370
    18
  0
POLYLINE
  5
1C5
330
1F
100
AcDbEntity
  8
Ebene 1
 62
   179
420
  1709851
370
    18
100
AcDb2dPolyline
 66
     1
 10
0.0
 20
0.0
 30
0.0
  0
VERTEX
  5
1C6
330
1C5
100
AcDbEntity
  8
Ebene 1
 62
   179
420
  1709851
370
    18
100
AcDbVertex
100
AcDb2dVertex
 10
24.71563177550512
 20
-170.4013128914275
 30
0.0
  0
VERTEX
  5
1C7
330
1C5
100
AcDbEntity
  8
Ebene 1
 62
   179
420
  1709851
370
    18
100
AcDbVertex
100
AcDb2dVertex
 10
24.71563177550512
 20
-163.3953667126234
 30
0.0
  0
SEQEND
  5
1C8
330
1C5
100
AcDbEntity
  8
Ebene 1
370
    18
  0
POLYLINE
  5
1C9
330
1F
100
AcDbEntity
  8
Ebene 1
 62
   179
420
  1709851
370
    18
100
AcDb2dPolyline
 66
     1
 10
0.0
 20
0.0
 30
0.0
  0
VERTEX
  5
1CA
330
1C9
100
AcDbEntity
  8
Ebene 1
 62
   179
420
  1709851
370
    18
100
AcDbVertex
100
AcDb2dVertex
 10
24.71563177550512
 20
-172.3912000437078
 30
0.0
  0
VERTEX
  5
1CB
330
1C9
100
AcDbEntity
  8
Ebene 1
 62
   179
420
  1709851
370
    18
100
AcDbVertex
100
AcDb2dVertex
 10
24.71563177550512
 20
-171.3962564675676
 30
0.0
  0
SEQEND
  5
1CC
330
1C9
100
AcDbEntity
  8
Ebene 1
370
    18
  0
POLYLINE
  5
1CD
330
1F
100
AcDbEntity
  8
Ebene 1
 62
   179
420
  1709851
370
    18
100
AcDb2dPolyline
 66
     1
 10
0.0
 20
0.0
 30
0.0
  0
VERTEX
  5
1CE
330
1CD
100
AcDbEntity
  8
Ebene 1
 62
   179
420
  1709851
370
    18
100
AcDbVertex
100
AcDb2dVertex
 10
24.71563177550512
 20
-178.5289821602289
 30
0.0
  0
VERTEX
  5
1CF
330
1CD
100
AcDbEntity
  8
Ebene 1
 62
   179
420
  1709851
370
    18
100
AcDbVertex
100
AcDb2dVertex
 10
24.71563177550512
 20
-173.3854546007509
 30
0.0
  0
SEQEND
  5
1D0
330
1CD
100
AcDbEntity
  8
Ebene 1
370
    18
  0
POLYLINE
  5
1D1
330
1F
100
AcDbEntity
  8
Ebene 1
 62
   179
420
  1709851
370
    13
100
AcDb2dPolyline
 66
     1
 10
0.0
 20
0.0
 30
0.0
  0
VERTEX
  5
1D2
330
1D1
100
AcDbEntity
  8
Ebene 1
 62
   179
420
  1709851
370
    13
100
AcDbVertex
100
AcDb2dVertex
 10
154.8060546487985
 20
-165.7022026495467
 30
0.0
  0
VERTEX
  5
1D3
330
1D1
100
AcDbEntity
  8
Ebene 1
 62
   179
420
  1709851
370
    13
100
AcDbVertex
100
AcDb2dVertex
 10
184.714651103995
 20
-165.7022026495467
 30
0.0
  0
SEQEND
  5
1D4
330
1D1
100
AcDbEntity
  8
Ebene 1
370
    13
  0
POLYLINE
  5
1D5
330
1F
100
AcDbEntity
  8
Ebene 1
 62
   179
420
  1709851
370
    13
100
AcDb2dPolyline
 66
     1
 10
0.0
 20
0.0
 30
0.0
  0
VERTEX
  5
1D6
330
1D5
100
AcDbEntity
  8
Ebene 1
 62
   179
420
  1709851
370
    13
100
AcDbVertex
100
AcDb2dVertex
 10
154.8060546487985
 20
-150.0180609433983
 30
0.0
  0
VERTEX
  5
1D7
330
1D5
100
AcDbEntity
  8
Ebene 1
 62
   179
420
  1709851
370
    13
100
AcDbVertex
100
AcDb2dVertex
 10
159.7166937534736
 20
-165.7022026495467
 30
0.0
  0
SEQEND
  5
1D8
330
1D5
100
AcDbEntity
  8
Ebene 1
370
    13
  0
POLYLINE
  5
1D9
330
1F
100
AcDbEntity
  8
Ebene 1
 62
   179
420
  1709851
370
    13
100
AcDb2dPolyline
 66
     1
 10
0.0
 20
0.0
 30
0.0
  0
VERTEX
  5
1DA
330
1D9
100
AcDbEntity
  8
Ebene 1
 62
   179
420
  1709851
370
    13
100
AcDbVertex
100
AcDb2dVertex
 10
159.7166937534736
 20
-165.7022026495467
 30
0.0
  0
VERTEX
  5
1DB
330
1D9
100
AcDbEntity
  8
Ebene 1
 62
   179
420
  1709851
370
    13
100
AcDbVertex
100
AcDb2dVertex
 10
164.7120822070859
 20
-149.7004231396582
 30
0.0
  0
SEQEND
  5
1DC
330
1D9
100
AcDbEntity
  8
Ebene 1
370
    13
  0
POLYLINE
  5
1DD
330
1F
100
AcDbEntity
  8
Ebene 1
 62
   179
420
  1709851
370
    13
100
AcDb2dPolyline
 66
     1
 10
0.0
 20
0.0
 30
0.0
  0
VERTEX
  5
1DE
330
1DD
100
AcDbEntity
  8
Ebene 1
 62
   179
420
  1709851
370
    13
100
AcDbVertex
100
AcDb2dVertex
 10
164.7120822070859
 20
-149.7004231396582
 30
0.0
  0
VERTEX
  5
1DF
330
1DD
100
AcDbEntity
  8
Ebene 1
 62
   179
420
  1709851
370
    13
100
AcDbVertex
100
AcDb2dVertex
 10
169.7074706606981
 20
-165.7022026495467
 30
0.0
  0
VERTEX
  5
1E0
330
1DD
100
AcDbEntity
  8
Ebene 1
 62
   179
420
  1709851
370
    13
100
AcDbVertex
100
AcDb2dVertex
 10
174.7028591143104
 20
-149.7004231396582
 30
0.0
  0
VERTEX
  5
1E1
330
1DD
100
AcDbEntity
  8
Ebene 1
 62
   179
420
  1709851
370
    13
100
AcDbVertex
100
AcDb2dVertex
 10
179.6975585488256
 20
-165.7022026495467
 30
0.0
  0
VERTEX
  5
1E2
330
1DD
100
AcDbEntity
  8
Ebene 1
 62
   179
420
  1709851
370
    13
100
AcDbVertex
100
AcDb2dVertex
 10
184.714651103995
 20
-149.7004231396582
 30
0.0
  0
SEQEND
  5
1E3
330
1DD
100
AcDbEntity
  8
Ebene 1
370
    13
  0
POLYLINE
  5
1E4
330
1F
100
AcDbEntity
  8
Ebene 1
 62
   179
420
  1709851
370
    13
100
AcDb2dPolyline
 66
     1
 10
0.0
 20
0.0
 30
0.0
  0
VERTEX
  5
1E5
330
1E4
100
AcDbEntity
  8
Ebene 1
 62
   179
420
  1709851
370
    13
100
AcDbVertex
100
AcDb2dVertex
 10
149.7049017637891
 20
-165.7022026495467
 30
0.0
  0
VERTEX
  5
1E6
330
1E4
100
AcDbEntity
  8
Ebene 1
 62
   179
420
  1709851
370
    13
100
AcDbVertex
100
AcDb2dVertex
 10
154.2134982253355
 20
-151.3092827312699
 30
0.0
  0
SEQEND
  5
1E7
330
1E4
100
AcDbEntity
  8
Ebene 1
370
    13
  0
POLYLINE
  5
1E8
330
1F
100
AcDbEntity
  8
Ebene 1
 62
   179
420
  1709851
370
    13
100
AcDb2dPolyline
 66
     1
 10
0.0
 20
0.0
 30
0.0
  0
VERTEX
  5
1E9
330
1E8
100
AcDbEntity
  8
Ebene 1
 62
   179
420
  1709851
370
    13
100
AcDbVertex
100
AcDb2dVertex
 10
54.8147420110359
 20
-150.0180609433983
 30
0.0
  0
VERTEX
  5
1EA
330
1E8
100
AcDbEntity
  8
Ebene 1
 62
   179
420
  1709851
370
    13
100
AcDbVertex
100
AcDb2dVertex
 10
59.72538111571102
 20
-165.7022026495467
 30
0.0
  0
SEQEND
  5
1EB
330
1E8
100
AcDbEntity
  8
Ebene 1
370
    13
  0
POLYLINE
  5
1EC
330
1F
100
AcDbEntity
  8
Ebene 1
 62
   179
420
  1709851
370
    13
100
AcDb2dPolyline
 66
     1
 10
0.0
 20
0.0
 30
0.0
  0
VERTEX
  5
1ED
330
1EC
100
AcDbEntity
  8
Ebene 1
 62
   179
420
  1709851
370
    13
100
AcDbVertex
100
AcDb2dVertex
 10
144.7095133101768
 20
-149.7004231396582
 30
0.0
  0
VERTEX
  5
1EE
330
1EC
100
AcDbEntity
  8
Ebene 1
 62
   179
420
  1709851
370
    13
100
AcDbVertex
100
AcDb2dVertex
 10
149.7049017637891
 20
-165.7022026495467
 30
0.0
  0
SEQEND
  5
1EF
330
1EC
100
AcDbEntity
  8
Ebene 1
370
    13
  0
POLYLINE
  5
1F0
330
1F
100
AcDbEntity
  8
Ebene 1
 62
   179
420
  1709851
370
    13
100
AcDb2dPolyline
 66
     1
 10
0.0
 20
0.0
 30
0.0
  0
VERTEX
  5
1F1
330
1F0
100
AcDbEntity
  8
Ebene 1
 62
   179
420
  1709851
370
    13
100
AcDbVertex
100
AcDb2dVertex
 10
84.7231662114581
 20
-149.7004231396582
 30
0.0
  0
VERTEX
  5
1F2
330
1F0
100
AcDbEntity
  8
Ebene 1
 62
   179
420
  1709851
370
    13
100
AcDbVertex
100
AcDb2dVertex
 10
89.71855466507037
 20
-165.7022026495467
 30
0.0
  0
VERTEX
  5
1F3
330
1F0
100
AcDbEntity
  8
Ebene 1
 62
   179
420
  1709851
370
    13
100
AcDbVertex
100
AcDb2dVertex
 10
94.71394311868264
 20
-149.7004231396582
 30
0.0
  0
VERTEX
  5
1F4
330
1F0
100
AcDbEntity
  8
Ebene 1
 62
   179
420
  1709851
370
    13
100
AcDbVertex
100
AcDb2dVertex
 10
99.70915931752063
 20
-165.7022026495467
 30
0.0
  0
VERTEX
  5
1F5
330
1F0
100
AcDbEntity
  8
Ebene 1
 62
   179
420
  1709851
370
    13
100
AcDbVertex
100
AcDb2dVertex
 10
104.7045477711329
 20
-149.7004231396582
 30
0.0
  0
VERTEX
  5
1F6
330
1F0
100
AcDbEntity
  8
Ebene 1
 62
   179
420
  1709851
370
    13
100
AcDbVertex
100
AcDb2dVertex
 10
109.7211235619794
 20
-165.7022026495467
 30
0.0
  0
VERTEX
  5
1F7
330
1F0
100
AcDbEntity
  8
Ebene 1
 62
   179
420
  1709851
370
    13
100
AcDbVertex
100
AcDb2dVertex
 10
114.7161675060432
 20
-149.7004231396582
 30
0.0
  0
VERTEX
  5
1F8
330
1F0
100
AcDbEntity
  8
Ebene 1
 62
   179
420
  1709851
370
    13
100
AcDbVertex
100
AcDb2dVertex
 10
119.7115559596555
 20
-165.7022026495467
 30
0.0
  0
VERTEX
  5
1F9
330
1F0
100
AcDbEntity
  8
Ebene 1
 62
   179
420
  1709851
370
    13
100
AcDbVertex
100
AcDb2dVertex
 10
124.7069444132677
 20
-149.7004231396582
 30
0.0
  0
VERTEX
  5
1FA
330
1F0
100
AcDbEntity
  8
Ebene 1
 62
   179
420
  1709851
370
    13
100
AcDbVertex
100
AcDb2dVertex
 10
129.70233286688
 20
-165.7022026495467
 30
0.0
  0
SEQEND
  5
1FB
330
1F0
100
AcDbEntity
  8
Ebene 1
370
    13
  0
POLYLINE
  5
1FC
330
1F
100
AcDbEntity
  8
Ebene 1
 62
   179
420
  1709851
370
    13
100
AcDb2dPolyline
 66
     1
 10
0.0
 20
0.0
 30
0.0
  0
VERTEX
  5
1FD
330
1FC
100
AcDbEntity
  8
Ebene 1
 62
   179
420
  1709851
370
    13
100
AcDbVertex
100
AcDb2dVertex
 10
59.72538111571102
 20
-165.7022026495467
 30
0.0
  0
VERTEX
  5
1FE
330
1FC
100
AcDbEntity
  8
Ebene 1
 62
   179
420
  1709851
370
    13
100
AcDbVertex
100
AcDb2dVertex
 10
64.72076956932328
 20
-149.7004231396582
 30
0.0
  0
VERTEX
  5
1FF
330
1FC
100
AcDbEntity
  8
Ebene 1
 62
   179
420
  1709851
370
    13
100
AcDbVertex
100
AcDb2dVertex
 10
69.71598576816129
 20
-165.7022026495467
 30
0.0
  0
SEQEND
  5
200
330
1FC
100
AcDbEntity
  8
Ebene 1
370
    13
  0
POLYLINE
  5
201
330
1F
100
AcDbEntity
  8
Ebene 1
 62
   179
420
  1709851
370
    13
100
AcDb2dPolyline
 66
     1
 10
0.0
 20
0.0
 30
0.0
  0
VERTEX
  5
202
330
201
100
AcDbEntity
  8
Ebene 1
 62
   179
420
  1709851
370
    13
100
AcDbVertex
100
AcDb2dVertex
 10
129.70233286688
 20
-165.7022026495467
 30
0.0
  0
VERTEX
  5
203
330
201
100
AcDbEntity
  8
Ebene 1
 62
   179
420
  1709851
370
    13
100
AcDbVertex
100
AcDb2dVertex
 10
134.7183918934037
 20
-149.7004231396582
 30
0.0
  0
VERTEX
  5
204
330
201
100
AcDbEntity
  8
Ebene 1
 62
   179
420
  1709851
370
    13
100
AcDbVertex
100
AcDb2dVertex
 10
139.713780347016
 20
-165.7022026495467
 30
0.0
  0
VERTEX
  5
205
330
201
100
AcDbEntity
  8
Ebene 1
 62
   179
420
  1709851
370
    13
100
AcDbVertex
100
AcDb2dVertex
 10
144.7095133101768
 20
-149.7004231396582
 30
0.0
  0
SEQEND
  5
206
330
201
100
AcDbEntity
  8
Ebene 1
370
    13
  0
POLYLINE
  5
207
330
1F
100
AcDbEntity
  8
Ebene 1
 62
   179
420
  1709851
370
    13
100
AcDb2dPolyline
 66
     1
 10
0.0
 20
0.0
 30
0.0
  0
VERTEX
  5
208
330
207
100
AcDbEntity
  8
Ebene 1
 62
   179
420
  1709851
370
    13
100
AcDbVertex
100
AcDb2dVertex
 10
69.71598576816129
 20
-165.7022026495467
 30
0.0
  0
VERTEX
  5
209
330
207
100
AcDbEntity
  8
Ebene 1
 62
   179
420
  1709851
370
    13
100
AcDbVertex
100
AcDb2dVertex
 10
74.71137422177355
 20
-149.7004231396582
 30
0.0
  0
VERTEX
  5
20A
330
207
100
AcDbEntity
  8
Ebene 1
 62
   179
420
  1709851
370
    13
100
AcDbVertex
100
AcDb2dVertex
 10
79.70676267538582
 20
-165.7022026495467
 30
0.0
  0
VERTEX
  5
20B
330
207
100
AcDbEntity
  8
Ebene 1
 62
   179
420
  1709851
370
    13
100
AcDbVertex
100
AcDb2dVertex
 10
84.7231662114581
 20
-149.7004231396582
 30
0.0
  0
SEQEND
  5
20C
330
207
100
AcDbEntity
  8
Ebene 1
370
    13
  0
POLYLINE
  5
20D
330
1F
100
AcDbEntity
  8
Ebene 1
 62
   179
420
  1709851
370
    13
100
AcDb2dPolyline
 66
     1
 10
0.0
 20
0.0
 30
0.0
  0
VERTEX
  5
20E
330
20D
100
AcDbEntity
  8
Ebene 1
 62
   179
420
  1709851
370
    13
100
AcDbVertex
100
AcDb2dVertex
 10
24.71563177550512
 20
-149.7004231396582
 30
0.0
  0
VERTEX
  5
20F
330
20D
100
AcDbEntity
  8
Ebene 1
 62
   179
420
  1709851
370
    13
100
AcDbVertex
100
AcDb2dVertex
 10
29.71102022911738
 20
-165.7022026495467
 30
0.0
  0
VERTEX
  5
210
330
20D
100
AcDbEntity
  8
Ebene 1
 62
   179
420
  1709851
370
    13
100
AcDbVertex
100
AcDb2dVertex
 10
34.72759601996393
 20
-149.7004231396582
 30
0.0
  0
VERTEX
  5
211
330
20D
100
AcDbEntity
  8
Ebene 1
 62
   179
420
  1709851
370
    13
100
AcDbVertex
100
AcDb2dVertex
 10
39.72281221880193
 20
-165.7022026495467
 30
0.0
  0
VERTEX
  5
212
330
20D
100
AcDbEntity
  8
Ebene 1
 62
   179
420
  1709851
370
    13
100
AcDbVertex
100
AcDb2dVertex
 10
44.7182006724142
 20
-149.7004231396582
 30
0.0
  0
VERTEX
  5
213
330
20D
100
AcDbEntity
  8
Ebene 1
 62
   179
420
  1709851
370
    13
100
AcDbVertex
100
AcDb2dVertex
 10
49.71358912602646
 20
-165.7022026495467
 30
0.0
  0
VERTEX
  5
214
330
20D
100
AcDbEntity
  8
Ebene 1
 62
   179
420
  1709851
370
    13
100
AcDbVertex
100
AcDb2dVertex
 10
54.22201333279867
 20
-151.3092827312699
 30
0.0
  0
SEQEND
  5
215
330
20D
100
AcDbEntity
  8
Ebene 1
370
    13
  0
INSERT
  5
217
330
1F
100
AcDbEntity
  8
Ebene 1
100
AcDbBlockReference
  2
block 3
 10
0.0
 20
0.0
 30
0.0
  0
POLYLINE
  5
239
330
1F
100
AcDbEntity
  8
Ebene 1
 62
   179
420
  1709851
370
    13
100
AcDb2dPolyline
 66
     1
 10
0.0
 20
0.0
 30
0.0
  0
VERTEX
  5
23A
330
239
100
AcDbEntity
  8
Ebene 1
 62
   179
420
  1709851
370
    13
100
AcDbVertex
100
AcDb2dVertex
 10
151.4191812772494
 20
-174.656005815711
 30
0.0
  0
VERTEX
  5
23B
330
239
100
AcDbEntity
  8
Ebene 1
 62
   179
420
  1709851
370
    13
100
AcDbVertex
100
AcDb2dVertex
 10
152.2025959905952
 20
-174.656005815711
 30
0.0
  0
SEQEND
  5
23C
330
239
100
AcDbEntity
  8
Ebene 1
370
    13
  0
POLYLINE
  5
23D
330
1F
100
AcDbEntity
  8
Ebene 1
 62
   179
420
  1709851
370
    13
100
AcDb2dPolyline
 66
     1
 10
0.0
 20
0.0
 30
0.0
  0
VERTEX
  5
23E
330
23D
100
AcDbEntity
  8
Ebene 1
 62
   179
420
  1709851
370
    13
100
AcDbVertex
100
AcDb2dVertex
 10
148.4346950583775
 20
-174.656005815711
 30
0.0
  0
VERTEX
  5
23F
330
23D
100
AcDbEntity
  8
Ebene 1
 62
   179
420
  1709851
370
    13
100
AcDbVertex
100
AcDb2dVertex
 10
150.4245822106577
 20
-174.656005815711
 30
0.0
  0
SEQEND
  5
240
330
23D
100
AcDbEntity
  8
Ebene 1
370
    13
  0
POLYLINE
  5
241
330
1F
100
AcDbEntity
  8
Ebene 1
 62
   179
420
  1709851
370
    13
100
AcDb2dPolyline
 66
     1
 10
0.0
 20
0.0
 30
0.0
  0
VERTEX
  5
242
330
241
100
AcDbEntity
  8
Ebene 1
 62
   179
420
  1709851
370
    13
100
AcDbVertex
100
AcDb2dVertex
 10
145.4291937570455
 20
-174.656005815711
 30
0.0
  0
VERTEX
  5
243
330
241
100
AcDbEntity
  8
Ebene 1
 62
   179
420
  1709851
370
    13
100
AcDbVertex
100
AcDb2dVertex
 10
147.4187363997773
 20
-174.656005815711
 30
0.0
  0
SEQEND
  5
244
330
241
100
AcDbEntity
  8
Ebene 1
370
    13
  0
POLYLINE
  5
245
330
1F
100
AcDbEntity
  8
Ebene 1
 62
   179
420
  1709851
370
    13
100
AcDb2dPolyline
 66
     1
 10
0.0
 20
0.0
 30
0.0
  0
VERTEX
  5
246
330
245
100
AcDbEntity
  8
Ebene 1
 62
   179
420
  1709851
370
    13
100
AcDbVertex
100
AcDb2dVertex
 10
142.423347946165
 20
-174.656005815711
 30
0.0
  0
VERTEX
  5
247
330
245
100
AcDbEntity
  8
Ebene 1
 62
   179
420
  1709851
370
    13
100
AcDbVertex
100
AcDb2dVertex
 10
144.4339056713568
 20
-174.656005815711
 30
0.0
  0
SEQEND
  5
248
330
245
100
AcDbEntity
  8
Ebene 1
370
    13
  0
POLYLINE
  5
249
330
1F
100
AcDbEntity
  8
Ebene 1
 62
   179
420
  1709851
370
    13
100
AcDb2dPolyline
 66
     1
 10
0.0
 20
0.0
 30
0.0
  0
VERTEX
  5
24A
330
249
100
AcDbEntity
  8
Ebene 1
 62
   179
420
  1709851
370
    13
100
AcDbVertex
100
AcDb2dVertex
 10
139.4388617272931
 20
-174.656005815711
 30
0.0
  0
VERTEX
  5
24B
330
249
100
AcDbEntity
  8
Ebene 1
 62
   179
420
  1709851
370
    13
100
AcDbVertex
100
AcDb2dVertex
 10
141.4287488795734
 20
-174.656005815711
 30
0.0
  0
SEQEND
  5
24C
330
249
100
AcDbEntity
  8
Ebene 1
370
    13
  0
POLYLINE
  5
24D
330
1F
100
AcDbEntity
  8
Ebene 1
 62
   179
420
  1709851
370
    13
100
AcDb2dPolyline
 66
     1
 10
0.0
 20
0.0
 30
0.0
  0
VERTEX
  5
24E
330
24D
100
AcDbEntity
  8
Ebene 1
 62
   179
420
  1709851
370
    13
100
AcDbVertex
100
AcDb2dVertex
 10
136.4333604259611
 20
-174.656005815711
 30
0.0
  0
VERTEX
  5
24F
330
24D
100
AcDbEntity
  8
Ebene 1
 62
   179
420
  1709851
370
    13
100
AcDbVertex
100
AcDb2dVertex
 10
138.4229030686929
 20
-174.656005815711
 30
0.0
  0
SEQEND
  5
250
330
24D
100
AcDbEntity
  8
Ebene 1
370
    13
  0
POLYLINE
  5
251
330
1F
100
AcDbEntity
  8
Ebene 1
 62
   179
420
  1709851
370
    13
100
AcDb2dPolyline
 66
     1
 10
0.0
 20
0.0
 30
0.0
  0
VERTEX
  5
252
330
251
100
AcDbEntity
  8
Ebene 1
 62
   179
420
  1709851
370
    13
100
AcDbVertex
100
AcDb2dVertex
 10
133.4275146150806
 20
-174.656005815711
 30
0.0
  0
VERTEX
  5
253
330
251
100
AcDbEntity
  8
Ebene 1
 62
   179
420
  1709851
370
    13
100
AcDbVertex
100
AcDb2dVertex
 10
135.4380723402724
 20
-174.656005815711
 30
0.0
  0
SEQEND
  5
254
330
251
100
AcDbEntity
  8
Ebene 1
370
    13
  0
POLYLINE
  5
255
330
1F
100
AcDbEntity
  8
Ebene 1
 62
   179
420
  1709851
370
    13
100
AcDb2dPolyline
 66
     1
 10
0.0
 20
0.0
 30
0.0
  0
VERTEX
  5
256
330
255
100
AcDbEntity
  8
Ebene 1
 62
   179
420
  1709851
370
    13
100
AcDbVertex
100
AcDb2dVertex
 10
130.4220133137487
 20
-174.656005815711
 30
0.0
  0
VERTEX
  5
257
330
255
100
AcDbEntity
  8
Ebene 1
 62
   179
420
  1709851
370
    13
100
AcDbVertex
100
AcDb2dVertex
 10
132.432915548489
 20
-174.656005815711
 30
0.0
  0
SEQEND
  5
258
330
255
100
AcDbEntity
  8
Ebene 1
370
    13
  0
POLYLINE
  5
259
330
1F
100
AcDbEntity
  8
Ebene 1
 62
   179
420
  1709851
370
    13
100
AcDb2dPolyline
 66
     1
 10
0.0
 20
0.0
 30
0.0
  0
VERTEX
  5
25A
330
259
100
AcDbEntity
  8
Ebene 1
 62
   179
420
  1709851
370
    13
100
AcDbVertex
100
AcDb2dVertex
 10
127.4375270948767
 20
-174.656005815711
 30
0.0
  0
VERTEX
  5
25B
330
259
100
AcDbEntity
  8
Ebene 1
 62
   179
420
  1709851
370
    13
100
AcDbVertex
100
AcDb2dVertex
 10
129.4270697376085
 20
-174.656005815711
 30
0.0
  0
SEQEND
  5
25C
330
259
100
AcDbEntity
  8
Ebene 1
370
    13
  0
POLYLINE
  5
25D
330
1F
100
AcDbEntity
  8
Ebene 1
 62
   179
420
  1709851
370
    13
100
AcDb2dPolyline
 66
     1
 10
0.0
 20
0.0
 30
0.0
  0
VERTEX
  5
25E
330
25D
100
AcDbEntity
  8
Ebene 1
 62
   179
420
  1709851
370
    13
100
AcDbVertex
100
AcDb2dVertex
 10
124.4320257935448
 20
-174.656005815711
 30
0.0
  0
VERTEX
  5
25F
330
25D
100
AcDbEntity
  8
Ebene 1
 62
   179
420
  1709851
370
    13
100
AcDbVertex
100
AcDb2dVertex
 10
126.4215684362766
 20
-174.656005815711
 30
0.0
  0
SEQEND
  5
260
330
25D
100
AcDbEntity
  8
Ebene 1
370
    13
  0
POLYLINE
  5
261
330
1F
100
AcDbEntity
  8
Ebene 1
 62
   179
420
  1709851
370
    13
100
AcDb2dPolyline
 66
     1
 10
0.0
 20
0.0
 30
0.0
  0
VERTEX
  5
262
330
261
100
AcDbEntity
  8
Ebene 1
 62
   179
420
  1709851
370
    13
100
AcDbVertex
100
AcDb2dVertex
 10
121.4261799826643
 20
-174.656005815711
 30
0.0
  0
VERTEX
  5
263
330
261
100
AcDbEntity
  8
Ebene 1
 62
   179
420
  1709851
370
    13
100
AcDbVertex
100
AcDb2dVertex
 10
123.4370822174046
 20
-174.656005815711
 30
0.0
  0
SEQEND
  5
264
330
261
100
AcDbEntity
  8
Ebene 1
370
    13
  0
POLYLINE
  5
265
330
1F
100
AcDbEntity
  8
Ebene 1
 62
   179
420
  1709851
370
    13
100
AcDb2dPolyline
 66
     1
 10
0.0
 20
0.0
 30
0.0
  0
VERTEX
  5
266
330
265
100
AcDbEntity
  8
Ebene 1
 62
   179
420
  1709851
370
    13
100
AcDbVertex
100
AcDb2dVertex
 10
118.4416937637924
 20
-174.656005815711
 30
0.0
  0
VERTEX
  5
267
330
265
100
AcDbEntity
  8
Ebene 1
 62
   179
420
  1709851
370
    13
100
AcDbVertex
100
AcDb2dVertex
 10
120.4315809160727
 20
-174.656005815711
 30
0.0
  0
SEQEND
  5
268
330
265
100
AcDbEntity
  8
Ebene 1
370
    13
  0
POLYLINE
  5
269
330
1F
100
AcDbEntity
  8
Ebene 1
 62
   179
420
  1709851
370
    13
100
AcDb2dPolyline
 66
     1
 10
0.0
 20
0.0
 30
0.0
  0
VERTEX
  5
26A
330
269
100
AcDbEntity
  8
Ebene 1
 62
   179
420
  1709851
370
    13
100
AcDbVertex
100
AcDb2dVertex
 10
115.4361924624604
 20
-174.656005815711
 30
0.0
  0
VERTEX
  5
26B
330
269
100
AcDbEntity
  8
Ebene 1
 62
   179
420
  1709851
370
    13
100
AcDbVertex
100
AcDb2dVertex
 10
117.4257351051922
 20
-174.656005815711
 30
0.0
  0
SEQEND
  5
26C
330
269
100
AcDbEntity
  8
Ebene 1
370
    13
  0
POLYLINE
  5
26D
330
1F
100
AcDbEntity
  8
Ebene 1
 62
   179
420
  1709851
370
    13
100
AcDb2dPolyline
 66
     1
 10
0.0
 20
0.0
 30
0.0
  0
VERTEX
  5
26E
330
26D
100
AcDbEntity
  8
Ebene 1
 62
   179
420
  1709851
370
    13
100
AcDbVertex
100
AcDb2dVertex
 10
112.4303466515799
 20
-174.656005815711
 30
0.0
  0
VERTEX
  5
26F
330
26D
100
AcDbEntity
  8
Ebene 1
 62
   179
420
  1709851
370
    13
100
AcDbVertex
100
AcDb2dVertex
 10
114.4412488863203
 20
-174.656005815711
 30
0.0
  0
SEQEND
  5
270
330
26D
100
AcDbEntity
  8
Ebene 1
370
    13
  0
POLYLINE
  5
271
330
1F
100
AcDbEntity
  8
Ebene 1
 62
   179
420
  1709851
370
    13
100
AcDb2dPolyline
 66
     1
 10
0.0
 20
0.0
 30
0.0
  0
VERTEX
  5
272
330
271
100
AcDbEntity
  8
Ebene 1
 62
   179
420
  1709851
370
    13
100
AcDbVertex
100
AcDb2dVertex
 10
109.4245008406994
 20
-174.656005815711
 30
0.0
  0
VERTEX
  5
273
330
271
100
AcDbEntity
  8
Ebene 1
 62
   179
420
  1709851
370
    13
100
AcDbVertex
100
AcDb2dVertex
 10
111.4357475849883
 20
-174.656005815711
 30
0.0
  0
SEQEND
  5
274
330
271
100
AcDbEntity
  8
Ebene 1
370
    13
  0
POLYLINE
  5
275
330
1F
100
AcDbEntity
  8
Ebene 1
 62
   179
420
  1709851
370
    13
100
AcDb2dPolyline
 66
     1
 10
0.0
 20
0.0
 30
0.0
  0
VERTEX
  5
276
330
275
100
AcDbEntity
  8
Ebene 1
 62
   179
420
  1709851
370
    13
100
AcDbVertex
100
AcDb2dVertex
 10
106.440359131376
 20
-174.656005815711
 30
0.0
  0
VERTEX
  5
277
330
275
100
AcDbEntity
  8
Ebene 1
 62
   179
420
  1709851
370
    13
100
AcDbVertex
100
AcDb2dVertex
 10
108.4299017741078
 20
-174.656005815711
 30
0.0
  0
SEQEND
  5
278
330
275
100
AcDbEntity
  8
Ebene 1
370
    13
  0
POLYLINE
  5
279
330
1F
100
AcDbEntity
  8
Ebene 1
 62
   179
420
  1709851
370
    13
100
AcDb2dPolyline
 66
     1
 10
0.0
 20
0.0
 30
0.0
  0
VERTEX
  5
27A
330
279
100
AcDbEntity
  8
Ebene 1
 62
   179
420
  1709851
370
    13
100
AcDbVertex
100
AcDb2dVertex
 10
103.4345133204955
 20
-174.656005815711
 30
0.0
  0
VERTEX
  5
27B
330
279
100
AcDbEntity
  8
Ebene 1
 62
   179
420
  1709851
370
    13
100
AcDbVertex
100
AcDb2dVertex
 10
105.4242282180016
 20
-174.656005815711
 30
0.0
  0
SEQEND
  5
27C
330
279
100
AcDbEntity
  8
Ebene 1
370
    13
  0
POLYLINE
  5
27D
330
1F
100
AcDbEntity
  8
Ebene 1
 62
   179
420
  1709851
370
    13
100
AcDb2dPolyline
 66
     1
 10
0.0
 20
0.0
 30
0.0
  0
VERTEX
  5
27E
330
27D
100
AcDbEntity
  8
Ebene 1
 62
   179
420
  1709851
370
    13
100
AcDbVertex
100
AcDb2dVertex
 10
100.4288397643893
 20
-174.656005815711
 30
0.0
  0
VERTEX
  5
27F
330
27D
100
AcDbEntity
  8
Ebene 1
 62
   179
420
  1709851
370
    13
100
AcDbVertex
100
AcDb2dVertex
 10
102.4397419991297
 20
-174.656005815711
 30
0.0
  0
SEQEND
  5
280
330
27D
100
AcDbEntity
  8
Ebene 1
370
    13
  0
POLYLINE
  5
281
330
1F
100
AcDbEntity
  8
Ebene 1
 62
   179
420
  1709851
370
    13
100
AcDb2dPolyline
 66
     1
 10
0.0
 20
0.0
 30
0.0
  0
VERTEX
  5
282
330
281
100
AcDbEntity
  8
Ebene 1
 62
   179
420
  1709851
370
    13
100
AcDbVertex
100
AcDb2dVertex
 10
97.4231662082831
 20
-174.656005815711
 30
0.0
  0
VERTEX
  5
283
330
281
100
AcDbEntity
  8
Ebene 1
 62
   179
420
  1709851
370
    13
100
AcDbVertex
100
AcDb2dVertex
 10
99.43406844302343
 20
-174.656005815711
 30
0.0
  0
SEQEND
  5
284
330
281
100
AcDbEntity
  8
Ebene 1
370
    13
  0
POLYLINE
  5
285
330
1F
100
AcDbEntity
  8
Ebene 1
 62
   179
420
  1709851
370
    13
100
AcDb2dPolyline
 66
     1
 10
0.0
 20
0.0
 30
0.0
  0
VERTEX
  5
286
330
285
100
AcDbEntity
  8
Ebene 1
 62
   179
420
  1709851
370
    13
100
AcDbVertex
100
AcDb2dVertex
 10
94.43867998941117
 20
-174.656005815711
 30
0.0
  0
VERTEX
  5
287
330
285
100
AcDbEntity
  8
Ebene 1
 62
   179
420
  1709851
370
    13
100
AcDbVertex
100
AcDb2dVertex
 10
96.42839488691722
 20
-174.656005815711
 30
0.0
  0
SEQEND
  5
288
330
285
100
AcDbEntity
  8
Ebene 1
370
    13
  0
POLYLINE
  5
289
330
1F
100
AcDbEntity
  8
Ebene 1
 62
   179
420
  1709851
370
    13
100
AcDb2dPolyline
 66
     1
 10
0.0
 20
0.0
 30
0.0
  0
VERTEX
  5
28A
330
289
100
AcDbEntity
  8
Ebene 1
 62
   179
420
  1709851
370
    13
100
AcDbVertex
100
AcDb2dVertex
 10
91.43300643330495
 20
-174.656005815711
 30
0.0
  0
VERTEX
  5
28B
330
289
100
AcDbEntity
  8
Ebene 1
 62
   179
420
  1709851
370
    13
100
AcDbVertex
100
AcDb2dVertex
 10
93.44390866804528
 20
-174.656005815711
 30
0.0
  0
SEQEND
  5
28C
330
289
100
AcDbEntity
  8
Ebene 1
370
    13
  0
POLYLINE
  5
28D
330
1F
100
AcDbEntity
  8
Ebene 1
 62
   179
420
  1709851
370
    13
100
AcDb2dPolyline
 66
     1
 10
0.0
 20
0.0
 30
0.0
  0
VERTEX
  5
28E
330
28D
100
AcDbEntity
  8
Ebene 1
 62
   179
420
  1709851
370
    13
100
AcDbVertex
100
AcDb2dVertex
 10
88.42733287719872
 20
-174.656005815711
 30
0.0
  0
VERTEX
  5
28F
330
28D
100
AcDbEntity
  8
Ebene 1
 62
   179
420
  1709851
370
    13
100
AcDbVertex
100
AcDb2dVertex
 10
90.43823511193905
 20
-174.656005815711
 30
0.0
  0
SEQEND
  5
290
330
28D
100
AcDbEntity
  8
Ebene 1
370
    13
  0
POLYLINE
  5
291
330
1F
100
AcDbEntity
  8
Ebene 1
 62
   179
420
  1709851
370
    13
100
AcDb2dPolyline
 66
     1
 10
0.0
 20
0.0
 30
0.0
  0
VERTEX
  5
292
330
291
100
AcDbEntity
  8
Ebene 1
 62
   179
420
  1709851
370
    13
100
AcDbVertex
100
AcDb2dVertex
 10
85.44284665832679
 20
-174.656005815711
 30
0.0
  0
VERTEX
  5
293
330
291
100
AcDbEntity
  8
Ebene 1
 62
   179
420
  1709851
370
    13
100
AcDbVertex
100
AcDb2dVertex
 10
87.43256155583283
 20
-174.656005815711
 30
0.0
  0
SEQEND
  5
294
330
291
100
AcDbEntity
  8
Ebene 1
370
    13
  0
POLYLINE
  5
295
330
1F
100
AcDbEntity
  8
Ebene 1
 62
   179
420
  1709851
370
    13
100
AcDb2dPolyline
 66
     1
 10
0.0
 20
0.0
 30
0.0
  0
VERTEX
  5
296
330
295
100
AcDbEntity
  8
Ebene 1
 62
   179
420
  1709851
370
    13
100
AcDbVertex
100
AcDb2dVertex
 10
82.43717310222057
 20
-174.656005815711
 30
0.0
  0
VERTEX
  5
297
330
295
100
AcDbEntity
  8
Ebene 1
 62
   179
420
  1709851
370
    13
100
AcDbVertex
100
AcDb2dVertex
 10
84.42688799972662
 20
-174.656005815711
 30
0.0
  0
SEQEND
  5
298
330
295
100
AcDbEntity
  8
Ebene 1
370
    13
  0
POLYLINE
  5
299
330
1F
100
AcDbEntity
  8
Ebene 1
 62
   179
420
  1709851
370
    13
100
AcDb2dPolyline
 66
     1
 10
0.0
 20
0.0
 30
0.0
  0
VERTEX
  5
29A
330
299
100
AcDbEntity
  8
Ebene 1
 62
   179
420
  1709851
370
    13
100
AcDbVertex
100
AcDb2dVertex
 10
79.43149954611435
 20
-174.656005815711
 30
0.0
  0
VERTEX
  5
29B
330
299
100
AcDbEntity
  8
Ebene 1
 62
   179
420
  1709851
370
    13
100
AcDbVertex
100
AcDb2dVertex
 10
81.44240178085468
 20
-174.656005815711
 30
0.0
  0
SEQEND
  5
29C
330
299
100
AcDbEntity
  8
Ebene 1
370
    13
  0
POLYLINE
  5
29D
330
1F
100
AcDbEntity
  8
Ebene 1
 62
   179
420
  1709851
370
    13
100
AcDb2dPolyline
 66
     1
 10
0.0
 20
0.0
 30
0.0
  0
VERTEX
  5
29E
330
29D
100
AcDbEntity
  8
Ebene 1
 62
   179
420
  1709851
370
    13
100
AcDbVertex
100
AcDb2dVertex
 10
76.42582599000814
 20
-174.656005815711
 30
0.0
  0
VERTEX
  5
29F
330
29D
100
AcDbEntity
  8
Ebene 1
 62
   179
420
  1709851
370
    13
100
AcDbVertex
100
AcDb2dVertex
 10
78.43672822474846
 20
-174.656005815711
 30
0.0
  0
SEQEND
  5
2A0
330
29D
100
AcDbEntity
  8
Ebene 1
370
    13
  0
POLYLINE
  5
2A1
330
1F
100
AcDbEntity
  8
Ebene 1
 62
   179
420
  1709851
370
    13
100
AcDb2dPolyline
 66
     1
 10
0.0
 20
0.0
 30
0.0
  0
VERTEX
  5
2A2
330
2A1
100
AcDbEntity
  8
Ebene 1
 62
   179
420
  1709851
370
    13
100
AcDbVertex
100
AcDb2dVertex
 10
73.4413397711362
 20
-174.656005815711
 30
0.0
  0
VERTEX
  5
2A3
330
2A1
100
AcDbEntity
  8
Ebene 1
 62
   179
420
  1709851
370
    13
100
AcDbVertex
100
AcDb2dVertex
 10
75.43105466864223
 20
-174.656005815711
 30
0.0
  0
SEQEND
  5
2A4
330
2A1
100
AcDbEntity
  8
Ebene 1
370
    13
  0
POLYLINE
  5
2A5
330
1F
100
AcDbEntity
  8
Ebene 1
 62
   179
420
  1709851
370
    13
100
AcDb2dPolyline
 66
     1
 10
0.0
 20
0.0
 30
0.0
  0
VERTEX
  5
2A6
330
2A5
100
AcDbEntity
  8
Ebene 1
 62
   179
420
  1709851
370
    13
100
AcDbVertex
100
AcDb2dVertex
 10
70.43566621502998
 20
-174.656005815711
 30
0.0
  0
VERTEX
  5
2A7
330
2A5
100
AcDbEntity
  8
Ebene 1
 62
   179
420
  1709851
370
    13
100
AcDbVertex
100
AcDb2dVertex
 10
72.42538111253602
 20
-174.656005815711
 30
0.0
  0
SEQEND
  5
2A8
330
2A5
100
AcDbEntity
  8
Ebene 1
370
    13
  0
POLYLINE
  5
2A9
330
1F
100
AcDbEntity
  8
Ebene 1
 62
   179
420
  1709851
370
    13
100
AcDb2dPolyline
 66
     1
 10
0.0
 20
0.0
 30
0.0
  0
VERTEX
  5
2AA
330
2A9
100
AcDbEntity
  8
Ebene 1
 62
   179
420
  1709851
370
    13
100
AcDbVertex
100
AcDb2dVertex
 10
67.42999265892375
 20
-174.656005815711
 30
0.0
  0
VERTEX
  5
2AB
330
2A9
100
AcDbEntity
  8
Ebene 1
 62
   179
420
  1709851
370
    13
100
AcDbVertex
100
AcDb2dVertex
 10
69.44089489366408
 20
-174.656005815711
 30
0.0
  0
SEQEND
  5
2AC
330
2A9
100
AcDbEntity
  8
Ebene 1
370
    13
  0
POLYLINE
  5
2AD
330
1F
100
AcDbEntity
  8
Ebene 1
 62
   179
420
  1709851
370
    13
100
AcDb2dPolyline
 66
     1
 10
0.0
 20
0.0
 30
0.0
  0
VERTEX
  5
2AE
330
2AD
100
AcDbEntity
  8
Ebene 1
 62
   179
420
  1709851
370
    13
100
AcDbVertex
100
AcDb2dVertex
 10
64.44550644005182
 20
-174.656005815711
 30
0.0
  0
VERTEX
  5
2AF
330
2AD
100
AcDbEntity
  8
Ebene 1
 62
   179
420
  1709851
370
    13
100
AcDbVertex
100
AcDb2dVertex
 10
66.43522133755786
 20
-174.656005815711
 30
0.0
  0
SEQEND
  5
2B0
330
2AD
100
AcDbEntity
  8
Ebene 1
370
    13
  0
POLYLINE
  5
2B1
330
1F
100
AcDbEntity
  8
Ebene 1
 62
   179
420
  1709851
370
    13
100
AcDb2dPolyline
 66
     1
 10
0.0
 20
0.0
 30
0.0
  0
VERTEX
  5
2B2
330
2B1
100
AcDbEntity
  8
Ebene 1
 62
   179
420
  1709851
370
    13
100
AcDbVertex
100
AcDb2dVertex
 10
61.4398328839456
 20
-174.656005815711
 30
0.0
  0
VERTEX
  5
2B3
330
2B1
100
AcDbEntity
  8
Ebene 1
 62
   179
420
  1709851
370
    13
100
AcDbVertex
100
AcDb2dVertex
 10
63.42954778145165
 20
-174.656005815711
 30
0.0
  0
SEQEND
  5
2B4
330
2B1
100
AcDbEntity
  8
Ebene 1
370
    13
  0
POLYLINE
  5
2B5
330
1F
100
AcDbEntity
  8
Ebene 1
 62
   179
420
  1709851
370
    13
100
AcDb2dPolyline
 66
     1
 10
0.0
 20
0.0
 30
0.0
  0
VERTEX
  5
2B6
330
2B5
100
AcDbEntity
  8
Ebene 1
 62
   179
420
  1709851
370
    13
100
AcDbVertex
100
AcDb2dVertex
 10
58.43415932783938
 20
-174.656005815711
 30
0.0
  0
VERTEX
  5
2B7
330
2B5
100
AcDbEntity
  8
Ebene 1
 62
   179
420
  1709851
370
    13
100
AcDbVertex
100
AcDb2dVertex
 10
60.44506156257971
 20
-174.656005815711
 30
0.0
  0
SEQEND
  5
2B8
330
2B5
100
AcDbEntity
  8
Ebene 1
370
    13
  0
POLYLINE
  5
2B9
330
1F
100
AcDbEntity
  8
Ebene 1
 62
   179
420
  1709851
370
    13
100
AcDb2dPolyline
 66
     1
 10
0.0
 20
0.0
 30
0.0
  0
VERTEX
  5
2BA
330
2B9
100
AcDbEntity
  8
Ebene 1
 62
   179
420
  1709851
370
    13
100
AcDbVertex
100
AcDb2dVertex
 10
55.42848577173316
 20
-174.656005815711
 30
0.0
  0
VERTEX
  5
2BB
330
2B9
100
AcDbEntity
  8
Ebene 1
 62
   179
420
  1709851
370
    13
100
AcDbVertex
100
AcDb2dVertex
 10
57.43938800647349
 20
-174.656005815711
 30
0.0
  0
SEQEND
  5
2BC
330
2B9
100
AcDbEntity
  8
Ebene 1
370
    13
  0
POLYLINE
  5
2BD
330
1F
100
AcDbEntity
  8
Ebene 1
 62
   179
420
  1709851
370
    13
100
AcDb2dPolyline
 66
     1
 10
0.0
 20
0.0
 30
0.0
  0
VERTEX
  5
2BE
330
2BD
100
AcDbEntity
  8
Ebene 1
 62
   179
420
  1709851
370
    13
100
AcDbVertex
100
AcDb2dVertex
 10
53.81979843489574
 20
-174.656005815711
 30
0.0
  0
VERTEX
  5
2BF
330
2BD
100
AcDbEntity
  8
Ebene 1
 62
   179
420
  1709851
370
    13
100
AcDbVertex
100
AcDb2dVertex
 10
53.81979843489574
 20
-174.656005815711
 30
0.0
  0
VERTEX
  5
2C0
330
2BD
100
AcDbEntity
  8
Ebene 1
 62
   179
420
  1709851
370
    13
100
AcDbVertex
100
AcDb2dVertex
 10
54.43371445036727
 20
-174.656005815711
 30
0.0
  0
SEQEND
  5
2C1
330
2BD
100
AcDbEntity
  8
Ebene 1
370
    13
  0
POLYLINE
  5
2C2
330
1F
100
AcDbEntity
  8
Ebene 1
 62
   179
420
  1709851
370
    25
100
AcDb2dPolyline
 66
     1
 10
0.0
 20
0.0
 30
0.0
  0
VERTEX
  5
2C3
330
2C2
100
AcDbEntity
  8
Ebene 1
 62
   179
420
  1709851
370
    25
100
AcDbVertex
100
AcDb2dVertex
 10
152.2025959905952
 20
-171.8406737851649
 30
0.0
  0
VERTEX
  5
2C4
330
2C2
100
AcDbEntity
  8
Ebene 1
 62
   179
420
  1709851
370
    25
100
AcDbVertex
100
AcDb2dVertex
 10
53.81979843489574
 20
-171.8406737851649
 30
0.0
  0
SEQEND
  5
2C5
330
2C2
100
AcDbEntity
  8
Ebene 1
370
    25
  0
POLYLINE
  5
2C6
330
1F
100
AcDbEntity
  8
Ebene 1
 62
   179
420
  1709851
370
    25
100
AcDb2dPolyline
 66
     1
 10
0.0
 20
0.0
 30
0.0
  0
VERTEX
  5
2C7
330
2C6
100
AcDbEntity
  8
Ebene 1
 62
   179
420
  1709851
370
    25
100
AcDbVertex
100
AcDb2dVertex
 10
53.81979843489574
 20
-175.8411186626369
 30
0.0
  0
VERTEX
  5
2C8
330
2C6
100
AcDbEntity
  8
Ebene 1
 62
   179
420
  1709851
370
    25
100
AcDbVertex
100
AcDb2dVertex
 10
53.81979843489574
 20
-171.8406737851649
 30
0.0
  0
SEQEND
  5
2C9
330
2C6
100
AcDbEntity
  8
Ebene 1
370
    25
  0
POLYLINE
  5
2CA
330
1F
100
AcDbEntity
  8
Ebene 1
 62
   179
420
  1709851
370
    25
100
AcDb2dPolyline
 66
     1
 10
0.0
 20
0.0
 30
0.0
  0
VERTEX
  5
2CB
330
2CA
100
AcDbEntity
  8
Ebene 1
 62
   179
420
  1709851
370
    25
100
AcDbVertex
100
AcDb2dVertex
 10
153.8111110726583
 20
-171.8406737851649
 30
0.0
  0
VERTEX
  5
2CC
330
2CA
100
AcDbEntity
  8
Ebene 1
 62
   179
420
  1709851
370
    25
100
AcDbVertex
100
AcDb2dVertex
 10
153.8111110726583
 20
-175.8411186626369
 30
0.0
  0
SEQEND
  5
2CD
330
2CA
100
AcDbEntity
  8
Ebene 1
370
    25
  0
POLYLINE
  5
2CE
330
1F
100
AcDbEntity
  8
Ebene 1
 62
   179
420
  1709851
370
    25
100
AcDb2dPolyline
 66
     1
 10
0.0
 20
0.0
 30
0.0
  0
VERTEX
  5
2CF
330
2CE
100
AcDbEntity
  8
Ebene 1
 62
   179
420
  1709851
370
    25
100
AcDbVertex
100
AcDb2dVertex
 10
152.2025959905952
 20
-175.8411186626369
 30
0.0
  0
VERTEX
  5
2D0
330
2CE
100
AcDbEntity
  8
Ebene 1
 62
   179
420
  1709851
370
    25
100
AcDbVertex
100
AcDb2dVertex
 10
152.2025959905952
 20
-171.8406737851649
 30
0.0
  0
SEQEND
  5
2D1
330
2CE
100
AcDbEntity
  8
Ebene 1
370
    25
  0
POLYLINE
  5
2D2
330
1F
100
AcDbEntity
  8
Ebene 1
 62
   179
420
  1709851
370
    25
100
AcDb2dPolyline
 66
     1
 10
0.0
 20
0.0
 30
0.0
  0
VERTEX
  5
2D3
330
2D2
100
AcDbEntity
  8
Ebene 1
 62
   179
420
  1709851
370
    25
100
AcDbVertex
100
AcDb2dVertex
 10
52.21111109805834
 20
-175.8411186626369
 30
0.0
  0
VERTEX
  5
2D4
330
2D2
100
AcDbEntity
  8
Ebene 1
 62
   179
420
  1709851
370
    25
100
AcDbVertex
100
AcDb2dVertex
 10
52.21111109805834
 20
-171.8406737851649
 30
0.0
  0
SEQEND
  5
2D5
330
2D2
100
AcDbEntity
  8
Ebene 1
370
    25
  0
POLYLINE
  5
2D6
330
1F
100
AcDbEntity
  8
Ebene 1
 62
   179
420
  1709851
370
    25
100
AcDb2dPolyline
 66
     1
 10
0.0
 20
0.0
 30
0.0
  0
VERTEX
  5
2D7
330
2D6
100
AcDbEntity
  8
Ebene 1
 62
   179
420
  1709851
370
    25
100
AcDbVertex
100
AcDb2dVertex
 10
152.2025959905952
 20
-175.8411186626369
 30
0.0
  0
VERTEX
  5
2D8
330
2D6
100
AcDbEntity
  8
Ebene 1
 62
   179
420
  1709851
370
    25
100
AcDbVertex
100
AcDb2dVertex
 10
53.81979843489574
 20
-175.8411186626369
 30
0.0
  0
SEQEND
  5
2D9
330
2D6
100
AcDbEntity
  8
Ebene 1
370
    25
  0
POLYLINE
  5
2DA
330
1F
100
AcDbEntity
  8
Ebene 1
 62
   179
420
  1709851
370
    13
100
AcDb2dPolyline
 66
     1
 10
0.0
 20
0.0
 30
0.0
  0
VERTEX
  5
2DB
330
2DA
100
AcDbEntity
  8
Ebene 1
 62
   179
420
  1709851
370
    13
100
AcDbVertex
100
AcDb2dVertex
 10
151.4191812772494
 20
-173.0471462240993
 30
0.0
  0
VERTEX
  5
2DC
330
2DA
100
AcDbEntity
  8
Ebene 1
 62
   179
420
  1709851
370
    13
100
AcDbVertex
100
AcDb2dVertex
 10
152.2025959905952
 20
-173.0471462240993
 30
0.0
  0
SEQEND
  5
2DD
330
2DA
100
AcDbEntity
  8
Ebene 1
370
    13
  0
POLYLINE
  5
2DE
330
1F
100
AcDbEntity
  8
Ebene 1
 62
   179
420
  1709851
370
    13
100
AcDb2dPolyline
 66
     1
 10
0.0
 20
0.0
 30
0.0
  0
VERTEX
  5
2DF
330
2DE
100
AcDbEntity
  8
Ebene 1
 62
   179
420
  1709851
370
    13
100
AcDbVertex
100
AcDb2dVertex
 10
148.4346950583775
 20
-173.0471462240993
 30
0.0
  0
VERTEX
  5
2E0
330
2DE
100
AcDbEntity
  8
Ebene 1
 62
   179
420
  1709851
370
    13
100
AcDbVertex
100
AcDb2dVertex
 10
150.4245822106577
 20
-173.0471462240993
 30
0.0
  0
SEQEND
  5
2E1
330
2DE
100
AcDbEntity
  8
Ebene 1
370
    13
  0
POLYLINE
  5
2E2
330
1F
100
AcDbEntity
  8
Ebene 1
 62
   179
420
  1709851
370
    13
100
AcDb2dPolyline
 66
     1
 10
0.0
 20
0.0
 30
0.0
  0
VERTEX
  5
2E3
330
2E2
100
AcDbEntity
  8
Ebene 1
 62
   179
420
  1709851
370
    13
100
AcDbVertex
100
AcDb2dVertex
 10
145.4291937570455
 20
-173.0471462240993
 30
0.0
  0
VERTEX
  5
2E4
330
2E2
100
AcDbEntity
  8
Ebene 1
 62
   179
420
  1709851
370
    13
100
AcDbVertex
100
AcDb2dVertex
 10
147.4187363997773
 20
-173.0471462240993
 30
0.0
  0
SEQEND
  5
2E5
330
2E2
100
AcDbEntity
  8
Ebene 1
370
    13
  0
POLYLINE
  5
2E6
330
1F
100
AcDbEntity
  8
Ebene 1
 62
   179
420
  1709851
370
    13
100
AcDb2dPolyline
 66
     1
 10
0.0
 20
0.0
 30
0.0
  0
VERTEX
  5
2E7
330
2E6
100
AcDbEntity
  8
Ebene 1
 62
   179
420
  1709851
370
    13
100
AcDbVertex
100
AcDb2dVertex
 10
142.423347946165
 20
-173.0471462240993
 30
0.0
  0
VERTEX
  5
2E8
330
2E6
100
AcDbEntity
  8
Ebene 1
 62
   179
420
  1709851
370
    13
100
AcDbVertex
100
AcDb2dVertex
 10
144.4339056713568
 20
-173.0471462240993
 30
0.0
  0
SEQEND
  5
2E9
330
2E6
100
AcDbEntity
  8
Ebene 1
370
    13
  0
POLYLINE
  5
2EA
330
1F
100
AcDbEntity
  8
Ebene 1
 62
   179
420
  1709851
370
    13
100
AcDb2dPolyline
 66
     1
 10
0.0
 20
0.0
 30
0.0
  0
VERTEX
  5
2EB
330
2EA
100
AcDbEntity
  8
Ebene 1
 62
   179
420
  1709851
370
    13
100
AcDbVertex
100
AcDb2dVertex
 10
139.4388617272931
 20
-173.0471462240993
 30
0.0
  0
VERTEX
  5
2EC
330
2EA
100
AcDbEntity
  8
Ebene 1
 62
   179
420
  1709851
370
    13
100
AcDbVertex
100
AcDb2dVertex
 10
141.4287488795734
 20
-173.0471462240993
 30
0.0
  0
SEQEND
  5
2ED
330
2EA
100
AcDbEntity
  8
Ebene 1
370
    13
  0
POLYLINE
  5
2EE
330
1F
100
AcDbEntity
  8
Ebene 1
 62
   179
420
  1709851
370
    13
100
AcDb2dPolyline
 66
     1
 10
0.0
 20
0.0
 30
0.0
  0
VERTEX
  5
2EF
330
2EE
100
AcDbEntity
  8
Ebene 1
 62
   179
420
  1709851
370
    13
100
AcDbVertex
100
AcDb2dVertex
 10
136.4333604259611
 20
-173.0471462240993
 30
0.0
  0
VERTEX
  5
2F0
330
2EE
100
AcDbEntity
  8
Ebene 1
 62
   179
420
  1709851
370
    13
100
AcDbVertex
100
AcDb2dVertex
 10
138.4229030686929
 20
-173.0471462240993
 30
0.0
  0
SEQEND
  5
2F1
330
2EE
100
AcDbEntity
  8
Ebene 1
370
    13
  0
POLYLINE
  5
2F2
330
1F
100
AcDbEntity
  8
Ebene 1
 62
   179
420
  1709851
370
    13
100
AcDb2dPolyline
 66
     1
 10
0.0
 20
0.0
 30
0.0
  0
VERTEX
  5
2F3
330
2F2
100
AcDbEntity
  8
Ebene 1
 62
   179
420
  1709851
370
    13
100
AcDbVertex
100
AcDb2dVertex
 10
133.4275146150806
 20
-173.0471462240993
 30
0.0
  0
VERTEX
  5
2F4
330
2F2
100
AcDbEntity
  8
Ebene 1
 62
   179
420
  1709851
370
    13
100
AcDbVertex
100
AcDb2dVertex
 10
135.4380723402724
 20
-173.0471462240993
 30
0.0
  0
SEQEND
  5
2F5
330
2F2
100
AcDbEntity
  8
Ebene 1
370
    13
  0
POLYLINE
  5
2F6
330
1F
100
AcDbEntity
  8
Ebene 1
 62
   179
420
  1709851
370
    13
100
AcDb2dPolyline
 66
     1
 10
0.0
 20
0.0
 30
0.0
  0
VERTEX
  5
2F7
330
2F6
100
AcDbEntity
  8
Ebene 1
 62
   179
420
  1709851
370
    13
100
AcDbVertex
100
AcDb2dVertex
 10
130.4220133137487
 20
-173.0471462240993
 30
0.0
  0
VERTEX
  5
2F8
330
2F6
100
AcDbEntity
  8
Ebene 1
 62
   179
420
  1709851
370
    13
100
AcDbVertex
100
AcDb2dVertex
 10
132.432915548489
 20
-173.0471462240993
 30
0.0
  0
SEQEND
  5
2F9
330
2F6
100
AcDbEntity
  8
Ebene 1
370
    13
  0
POLYLINE
  5
2FA
330
1F
100
AcDbEntity
  8
Ebene 1
 62
   179
420
  1709851
370
    13
100
AcDb2dPolyline
 66
     1
 10
0.0
 20
0.0
 30
0.0
  0
VERTEX
  5
2FB
330
2FA
100
AcDbEntity
  8
Ebene 1
 62
   179
420
  1709851
370
    13
100
AcDbVertex
100
AcDb2dVertex
 10
127.4375270948767
 20
-173.0471462240993
 30
0.0
  0
VERTEX
  5
2FC
330
2FA
100
AcDbEntity
  8
Ebene 1
 62
   179
420
  1709851
370
    13
100
AcDbVertex
100
AcDb2dVertex
 10
129.4270697376085
 20
-173.0471462240993
 30
0.0
  0
SEQEND
  5
2FD
330
2FA
100
AcDbEntity
  8
Ebene 1
370
    13
  0
POLYLINE
  5
2FE
330
1F
100
AcDbEntity
  8
Ebene 1
 62
   179
420
  1709851
370
    13
100
AcDb2dPolyline
 66
     1
 10
0.0
 20
0.0
 30
0.0
  0
VERTEX
  5
2FF
330
2FE
100
AcDbEntity
  8
Ebene 1
 62
   179
420
  1709851
370
    13
100
AcDbVertex
100
AcDb2dVertex
 10
124.4320257935448
 20
-173.0471462240993
 30
0.0
  0
VERTEX
  5
300
330
2FE
100
AcDbEntity
  8
Ebene 1
 62
   179
420
  1709851
370
    13
100
AcDbVertex
100
AcDb2dVertex
 10
126.4215684362766
 20
-173.0471462240993
 30
0.0
  0
SEQEND
  5
301
330
2FE
100
AcDbEntity
  8
Ebene 1
370
    13
  0
POLYLINE
  5
302
330
1F
100
AcDbEntity
  8
Ebene 1
 62
   179
420
  1709851
370
    13
100
AcDb2dPolyline
 66
     1
 10
0.0
 20
0.0
 30
0.0
  0
VERTEX
  5
303
330
302
100
AcDbEntity
  8
Ebene 1
 62
   179
420
  1709851
370
    13
100
AcDbVertex
100
AcDb2dVertex
 10
121.4261799826643
 20
-173.0471462240993
 30
0.0
  0
VERTEX
  5
304
330
302
100
AcDbEntity
  8
Ebene 1
 62
   179
420
  1709851
370
    13
100
AcDbVertex
100
AcDb2dVertex
 10
123.4370822174046
 20
-173.0471462240993
 30
0.0
  0
SEQEND
  5
305
330
302
100
AcDbEntity
  8
Ebene 1
370
    13
  0
POLYLINE
  5
306
330
1F
100
AcDbEntity
  8
Ebene 1
 62
   179
420
  1709851
370
    13
100
AcDb2dPolyline
 66
     1
 10
0.0
 20
0.0
 30
0.0
  0
VERTEX
  5
307
330
306
100
AcDbEntity
  8
Ebene 1
 62
   179
420
  1709851
370
    13
100
AcDbVertex
100
AcDb2dVertex
 10
118.4416937637924
 20
-173.0471462240993
 30
0.0
  0
VERTEX
  5
308
330
306
100
AcDbEntity
  8
Ebene 1
 62
   179
420
  1709851
370
    13
100
AcDbVertex
100
AcDb2dVertex
 10
120.4315809160727
 20
-173.0471462240993
 30
0.0
  0
SEQEND
  5
309
330
306
100
AcDbEntity
  8
Ebene 1
370
    13
  0
POLYLINE
  5
30A
330
1F
100
AcDbEntity
  8
Ebene 1
 62
   179
420
  1709851
370
    13
100
AcDb2dPolyline
 66
     1
 10
0.0
 20
0.0
 30
0.0
  0
VERTEX
  5
30B
330
30A
100
AcDbEntity
  8
Ebene 1
 62
   179
420
  1709851
370
    13
100
AcDbVertex
100
AcDb2dVertex
 10
115.4361924624604
 20
-173.0471462240993
 30
0.0
  0
VERTEX
  5
30C
330
30A
100
AcDbEntity
  8
Ebene 1
 62
   179
420
  1709851
370
    13
100
AcDbVertex
100
AcDb2dVertex
 10
117.4257351051922
 20
-173.0471462240993
 30
0.0
  0
SEQEND
  5
30D
330
30A
100
AcDbEntity
  8
Ebene 1
370
    13
  0
POLYLINE
  5
30E
330
1F
100
AcDbEntity
  8
Ebene 1
 62
   179
420
  1709851
370
    13
100
AcDb2dPolyline
 66
     1
 10
0.0
 20
0.0
 30
0.0
  0
VERTEX
  5
30F
330
30E
100
AcDbEntity
  8
Ebene 1
 62
   179
420
  1709851
370
    13
100
AcDbVertex
100
AcDb2dVertex
 10
112.4303466515799
 20
-173.0471462240993
 30
0.0
  0
VERTEX
  5
310
330
30E
100
AcDbEntity
  8
Ebene 1
 62
   179
420
  1709851
370
    13
100
AcDbVertex
100
AcDb2dVertex
 10
114.4412488863203
 20
-173.0471462240993
 30
0.0
  0
SEQEND
  5
311
330
30E
100
AcDbEntity
  8
Ebene 1
370
    13
  0
POLYLINE
  5
312
330
1F
100
AcDbEntity
  8
Ebene 1
 62
   179
420
  1709851
370
    13
100
AcDb2dPolyline
 66
     1
 10
0.0
 20
0.0
 30
0.0
  0
VERTEX
  5
313
330
312
100
AcDbEntity
  8
Ebene 1
 62
   179
420
  1709851
370
    13
100
AcDbVertex
100
AcDb2dVertex
 10
109.4245008406994
 20
-173.0471462240993
 30
0.0
  0
VERTEX
  5
314
330
312
100
AcDbEntity
  8
Ebene 1
 62
   179
420
  1709851
370
    13
100
AcDbVertex
100
AcDb2dVertex
 10
111.4357475849883
 20
-173.0471462240993
 30
0.0
  0
SEQEND
  5
315
330
312
100
AcDbEntity
  8
Ebene 1
370
    13
  0
POLYLINE
  5
316
330
1F
100
AcDbEntity
  8
Ebene 1
 62
   179
420
  1709851
370
    13
100
AcDb2dPolyline
 66
     1
 10
0.0
 20
0.0
 30
0.0
  0
VERTEX
  5
317
330
316
100
AcDbEntity
  8
Ebene 1
 62
   179
420
  1709851
370
    13
100
AcDbVertex
100
AcDb2dVertex
 10
106.440359131376
 20
-173.0471462240993
 30
0.0
  0
VERTEX
  5
318
330
316
100
AcDbEntity
  8
Ebene 1
 62
   179
420
  1709851
370
    13
100
AcDbVertex
100
AcDb2dVertex
 10
108.4299017741078
 20
-173.0471462240993
 30
0.0
  0
SEQEND
  5
319
330
316
100
AcDbEntity
  8
Ebene 1
370
    13
  0
POLYLINE
  5
31A
330
1F
100
AcDbEntity
  8
Ebene 1
 62
   179
420
  1709851
370
    13
100
AcDb2dPolyline
 66
     1
 10
0.0
 20
0.0
 30
0.0
  0
VERTEX
  5
31B
330
31A
100
AcDbEntity
  8
Ebene 1
 62
   179
420
  1709851
370
    13
100
AcDbVertex
100
AcDb2dVertex
 10
103.4345133204955
 20
-173.0471462240993
 30
0.0
  0
VERTEX
  5
31C
330
31A
100
AcDbEntity
  8
Ebene 1
 62
   179
420
  1709851
370
    13
100
AcDbVertex
100
AcDb2dVertex
 10
105.4242282180016
 20
-173.0471462240993
 30
0.0
  0
SEQEND
  5
31D
330
31A
100
AcDbEntity
  8
Ebene 1
370
    13
  0
POLYLINE
  5
31E
330
1F
100
AcDbEntity
  8
Ebene 1
 62
   179
420
  1709851
370
    13
100
AcDb2dPolyline
 66
     1
 10
0.0
 20
0.0
 30
0.0
  0
VERTEX
  5
31F
330
31E
100
AcDbEntity
  8
Ebene 1
 62
   179
420
  1709851
370
    13
100
AcDbVertex
100
AcDb2dVertex
 10
100.4288397643893
 20
-173.0471462240993
 30
0.0
  0
VERTEX
  5
320
330
31E
100
AcDbEntity
  8
Ebene 1
 62
   179
420
  1709851
370
    13
100
AcDbVertex
100
AcDb2dVertex
 10
102.4397419991297
 20
-173.0471462240993
 30
0.0
  0
SEQEND
  5
321
330
31E
100
AcDbEntity
  8
Ebene 1
370
    13
  0
POLYLINE
  5
322
330
1F
100
AcDbEntity
  8
Ebene 1
 62
   179
420
  1709851
370
    13
100
AcDb2dPolyline
 66
     1
 10
0.0
 20
0.0
 30
0.0
  0
VERTEX
  5
323
330
322
100
AcDbEntity
  8
Ebene 1
 62
   179
420
  1709851
370
    13
100
AcDbVertex
100
AcDb2dVertex
 10
97.4231662082831
 20
-173.0471462240993
 30
0.0
  0
VERTEX
  5
324
330
322
100
AcDbEntity
  8
Ebene 1
 62
   179
420
  1709851
370
    13
100
AcDbVertex
100
AcDb2dVertex
 10
99.43406844302343
 20
-173.0471462240993
 30
0.0
  0
SEQEND
  5
325
330
322
100
AcDbEntity
  8
Ebene 1
370
    13
  0
POLYLINE
  5
326
330
1F
100
AcDbEntity
  8
Ebene 1
 62
   179
420
  1709851
370
    13
100
AcDb2dPolyline
 66
     1
 10
0.0
 20
0.0
 30
0.0
  0
VERTEX
  5
327
330
326
100
AcDbEntity
  8
Ebene 1
 62
   179
420
  1709851
370
    13
100
AcDbVertex
100
AcDb2dVertex
 10
94.43867998941117
 20
-173.0471462240993
 30
0.0
  0
VERTEX
  5
328
330
326
100
AcDbEntity
  8
Ebene 1
 62
   179
420
  1709851
370
    13
100
AcDbVertex
100
AcDb2dVertex
 10
96.42839488691722
 20
-173.0471462240993
 30
0.0
  0
SEQEND
  5
329
330
326
100
AcDbEntity
  8
Ebene 1
370
    13
  0
POLYLINE
  5
32A
330
1F
100
AcDbEntity
  8
Ebene 1
 62
   179
420
  1709851
370
    13
100
AcDb2dPolyline
 66
     1
 10
0.0
 20
0.0
 30
0.0
  0
VERTEX
  5
32B
330
32A
100
AcDbEntity
  8
Ebene 1
 62
   179
420
  1709851
370
    13
100
AcDbVertex
100
AcDb2dVertex
 10
91.43300643330495
 20
-173.0471462240993
 30
0.0
  0
VERTEX
  5
32C
330
32A
100
AcDbEntity
  8
Ebene 1
 62
   179
420
  1709851
370
    13
100
AcDbVertex
100
AcDb2dVertex
 10
93.44390866804528
 20
-173.0471462240993
 30
0.0
  0
SEQEND
  5
32D
330
32A
100
AcDbEntity
  8
Ebene 1
370
    13
  0
POLYLINE
  5
32E
330
1F
100
AcDbEntity
  8
Ebene 1
 62
   179
420
  1709851
370
    13
100
AcDb2dPolyline
 66
     1
 10
0.0
 20
0.0
 30
0.0
  0
VERTEX
  5
32F
330
32E
100
AcDbEntity
  8
Ebene 1
 62
   179
420
  1709851
370
    13
100
AcDbVertex
100
AcDb2dVertex
 10
88.42733287719872
 20
-173.0471462240993
 30
0.0
  0
VERTEX
  5
330
330
32E
100
AcDbEntity
  8
Ebene 1
 62
   179
420
  1709851
370
    13
100
AcDbVertex
100
AcDb2dVertex
 10
90.43823511193905
 20
-173.0471462240993
 30
0.0
  0
SEQEND
  5
331
330
32E
100
AcDbEntity
  8
Ebene 1
370
    13
  0
POLYLINE
  5
332
330
1F
100
AcDbEntity
  8
Ebene 1
 62
   179
420
  1709851
370
    13
100
AcDb2dPolyline
 66
     1
 10
0.0
 20
0.0
 30
0.0
  0
VERTEX
  5
333
330
332
100
AcDbEntity
  8
Ebene 1
 62
   179
420
  1709851
370
    13
100
AcDbVertex
100
AcDb2dVertex
 10
85.44284665832679
 20
-173.0471462240993
 30
0.0
  0
VERTEX
  5
334
330
332
100
AcDbEntity
  8
Ebene 1
 62
   179
420
  1709851
370
    13
100
AcDbVertex
100
AcDb2dVertex
 10
87.43256155583283
 20
-173.0471462240993
 30
0.0
  0
SEQEND
  5
335
330
332
100
AcDbEntity
  8
Ebene 1
370
    13
  0
POLYLINE
  5
336
330
1F
100
AcDbEntity
  8
Ebene 1
 62
   179
420
  1709851
370
    13
100
AcDb2dPolyline
 66
     1
 10
0.0
 20
0.0
 30
0.0
  0
VERTEX
  5
337
330
336
100
AcDbEntity
  8
Ebene 1
 62
   179
420
  1709851
370
    13
100
AcDbVertex
100
AcDb2dVertex
 10
82.43717310222057
 20
-173.0471462240993
 30
0.0
  0
VERTEX
  5
338
330
336
100
AcDbEntity
  8
Ebene 1
 62
   179
420
  1709851
370
    13
100
AcDbVertex
100
AcDb2dVertex
 10
84.42688799972662
 20
-173.0471462240993
 30
0.0
  0
SEQEND
  5
339
330
336
100
AcDbEntity
  8
Ebene 1
370
    13
  0
POLYLINE
  5
33A
330
1F
100
AcDbEntity
  8
Ebene 1
 62
   179
420
  1709851
370
    13
100
AcDb2dPolyline
 66
     1
 10
0.0
 20
0.0
 30
0.0
  0
VERTEX
  5
33B
330
33A
100
AcDbEntity
  8
Ebene 1
 62
   179
420
  1709851
370
    13
100
AcDbVertex
100
AcDb2dVertex
 10
79.43149954611435
 20
-173.0471462240993
 30
0.0
  0
VERTEX
  5
33C
330
33A
100
AcDbEntity
  8
Ebene 1
 62
   179
420
  1709851
370
    13
100
AcDbVertex
100
AcDb2dVertex
 10
81.44240178085468
 20
-173.0471462240993
 30
0.0
  0
SEQEND
  5
33D
330
33A
100
AcDbEntity
  8
Ebene 1
370
    13
  0
POLYLINE
  5
33E
330
1F
100
AcDbEntity
  8
Ebene 1
 62
   179
420
  1709851
370
    13
100
AcDb2dPolyline
 66
     1
 10
0.0
 20
0.0
 30
0.0
  0
VERTEX
  5
33F
330
33E
100
AcDbEntity
  8
Ebene 1
 62
   179
420
  1709851
370
    13
100
AcDbVertex
100
AcDb2dVertex
 10
76.42582599000814
 20
-173.0471462240993
 30
0.0
  0
VERTEX
  5
340
330
33E
100
AcDbEntity
  8
Ebene 1
 62
   179
420
  1709851
370
    13
100
AcDbVertex
100
AcDb2dVertex
 10
78.43672822474846
 20
-173.0471462240993
 30
0.0
  0
SEQEND
  5
341
330
33E
100
AcDbEntity
  8
Ebene 1
370
    13
  0
POLYLINE
  5
342
330
1F
100
AcDbEntity
  8
Ebene 1
 62
   179
420
  1709851
370
    13
100
AcDb2dPolyline
 66
     1
 10
0.0
 20
0.0
 30
0.0
  0
VERTEX
  5
343
330
342
100
AcDbEntity
  8
Ebene 1
 62
   179
420
  1709851
370
    13
100
AcDbVertex
100
AcDb2dVertex
 10
73.4413397711362
 20
-173.0471462240993
 30
0.0
  0
VERTEX
  5
344
330
342
100
AcDbEntity
  8
Ebene 1
 62
   179
420
  1709851
370
    13
100
AcDbVertex
100
AcDb2dVertex
 10
75.43105466864223
 20
-173.0471462240993
 30
0.0
  0
SEQEND
  5
345
330
342
100
AcDbEntity
  8
Ebene 1
370
    13
  0
POLYLINE
  5
346
330
1F
100
AcDbEntity
  8
Ebene 1
 62
   179
420
  1709851
370
    13
100
AcDb2dPolyline
 66
     1
 10
0.0
 20
0.0
 30
0.0
  0
VERTEX
  5
347
330
346
100
AcDbEntity
  8
Ebene 1
 62
   179
420
  1709851
370
    13
100
AcDbVertex
100
AcDb2dVertex
 10
70.43566621502998
 20
-173.0471462240993
 30
0.0
  0
VERTEX
  5
348
330
346
100
AcDbEntity
  8
Ebene 1
 62
   179
420
  1709851
370
    13
100
AcDbVertex
100
AcDb2dVertex
 10
72.42538111253602
 20
-173.0471462240993
 30
0.0
  0
SEQEND
  5
349
330
346
100
AcDbEntity
  8
Ebene 1
370
    13
  0
POLYLINE
  5
34A
330
1F
100
AcDbEntity
  8
Ebene 1
 62
   179
420
  1709851
370
    13
100
AcDb2dPolyline
 66
     1
 10
0.0
 20
0.0
 30
0.0
  0
VERTEX
  5
34B
330
34A
100
AcDbEntity
  8
Ebene 1
 62
   179
420
  1709851
370
    13
100
AcDbVertex
100
AcDb2dVertex
 10
67.42999265892375
 20
-173.0471462240993
 30
0.0
  0
VERTEX
  5
34C
330
34A
100
AcDbEntity
  8
Ebene 1
 62
   179
420
  1709851
370
    13
100
AcDbVertex
100
AcDb2dVertex
 10
69.44089489366408
 20
-173.0471462240993
 30
0.0
  0
SEQEND
  5
34D
330
34A
100
AcDbEntity
  8
Ebene 1
370
    13
  0
POLYLINE
  5
34E
330
1F
100
AcDbEntity
  8
Ebene 1
 62
   179
420
  1709851
370
    13
100
AcDb2dPolyline
 66
     1
 10
0.0
 20
0.0
 30
0.0
  0
VERTEX
  5
34F
330
34E
100
AcDbEntity
  8
Ebene 1
 62
   179
420
  1709851
370
    13
100
AcDbVertex
100
AcDb2dVertex
 10
64.44550644005182
 20
-173.0471462240993
 30
0.0
  0
VERTEX
  5
350
330
34E
100
AcDbEntity
  8
Ebene 1
 62
   179
420
  1709851
370
    13
100
AcDbVertex
100
AcDb2dVertex
 10
66.43522133755786
 20
-173.0471462240993
 30
0.0
  0
SEQEND
  5
351
330
34E
100
AcDbEntity
  8
Ebene 1
370
    13
  0
POLYLINE
  5
352
330
1F
100
AcDbEntity
  8
Ebene 1
 62
   179
420
  1709851
370
    13
100
AcDb2dPolyline
 66
     1
 10
0.0
 20
0.0
 30
0.0
  0
VERTEX
  5
353
330
352
100
AcDbEntity
  8
Ebene 1
 62
   179
420
  1709851
370
    13
100
AcDbVertex
100
AcDb2dVertex
 10
61.4398328839456
 20
-173.0471462240993
 30
0.0
  0
VERTEX
  5
354
330
352
100
AcDbEntity
  8
Ebene 1
 62
   179
420
  1709851
370
    13
100
AcDbVertex
100
AcDb2dVertex
 10
63.42954778145165
 20
-173.0471462240993
 30
0.0
  0
SEQEND
  5
355
330
352
100
AcDbEntity
  8
Ebene 1
370
    13
  0
POLYLINE
  5
356
330
1F
100
AcDbEntity
  8
Ebene 1
 62
   179
420
  1709851
370
    13
100
AcDb2dPolyline
 66
     1
 10
0.0
 20
0.0
 30
0.0
  0
VERTEX
  5
357
330
356
100
AcDbEntity
  8
Ebene 1
 62
   179
420
  1709851
370
    13
100
AcDbVertex
100
AcDb2dVertex
 10
58.43415932783938
 20
-173.0471462240993
 30
0.0
  0
VERTEX
  5
358
330
356
100
AcDbEntity
  8
Ebene 1
 62
   179
420
  1709851
370
    13
100
AcDbVertex
100
AcDb2dVertex
 10
60.44506156257971
 20
-173.0471462240993
 30
0.0
  0
SEQEND
  5
359
330
356
100
AcDbEntity
  8
Ebene 1
370
    13
  0
POLYLINE
  5
35A
330
1F
100
AcDbEntity
  8
Ebene 1
 62
   179
420
  1709851
370
    13
100
AcDb2dPolyline
 66
     1
 10
0.0
 20
0.0
 30
0.0
  0
VERTEX
  5
35B
330
35A
100
AcDbEntity
  8
Ebene 1
 62
   179
420
  1709851
370
    13
100
AcDbVertex
100
AcDb2dVertex
 10
55.42848577173316
 20
-173.0471462240993
 30
0.0
  0
VERTEX
  5
35C
330
35A
100
AcDbEntity
  8
Ebene 1
 62
   179
420
  1709851
370
    13
100
AcDbVertex
100
AcDb2dVertex
 10
57.43938800647349
 20
-173.0471462240993
 30
0.0
  0
SEQEND
  5
35D
330
35A
100
AcDbEntity
  8
Ebene 1
370
    13
  0
POLYLINE
  5
35E
330
1F
100
AcDbEntity
  8
Ebene 1
 62
   179
420
  1709851
370
    13
100
AcDb2dPolyline
 66
     1
 10
0.0
 20
0.0
 30
0.0
  0
VERTEX
  5
35F
330
35E
100
AcDbEntity
  8
Ebene 1
 62
   179
420
  1709851
370
    13
100
AcDbVertex
100
AcDb2dVertex
 10
53.81979843489574
 20
-173.0471462240993
 30
0.0
  0
VERTEX
  5
360
330
35E
100
AcDbEntity
  8
Ebene 1
 62
   179
420
  1709851
370
    13
100
AcDbVertex
100
AcDb2dVertex
 10
53.81979843489574
 20
-173.0471462240993
 30
0.0
  0
VERTEX
  5
361
330
35E
100
AcDbEntity
  8
Ebene 1
 62
   179
420
  1709851
370
    13
100
AcDbVertex
100
AcDb2dVertex
 10
54.43371445036727
 20
-173.0471462240993
 30
0.0
  0
SEQEND
  5
362
330
35E
100
AcDbEntity
  8
Ebene 1
370
    13
  0
POLYLINE
  5
363
330
1F
100
AcDbEntity
  8
Ebene 1
 62
   179
420
  1709851
370
    18
100
AcDb2dPolyline
 66
     1
 10
0.0
 20
0.0
 30
0.0
  0
VERTEX
  5
364
330
363
100
AcDbEntity
  8
Ebene 1
 62
   179
420
  1709851
370
    18
100
AcDbVertex
100
AcDb2dVertex
 10
152.8165120060667
 20
-187.7577039461162
 30
0.0
  0
VERTEX
  5
365
330
363
100
AcDbEntity
  8
Ebene 1
 62
   179
420
  1709851
370
    18
100
AcDbVertex
100
AcDb2dVertex
 10
154.4040120056698
 20
-187.7577039461162
 30
0.0
  0
SEQEND
  5
366
330
363
100
AcDbEntity
  8
Ebene 1
370
    18
  0
POLYLINE
  5
367
330
1F
100
AcDbEntity
  8
Ebene 1
 62
   179
420
  1709851
370
    18
100
AcDb2dPolyline
 66
     1
 10
0.0
 20
0.0
 30
0.0
  0
VERTEX
  5
368
330
367
100
AcDbEntity
  8
Ebene 1
 62
   179
420
  1709851
370
    18
100
AcDbVertex
100
AcDb2dVertex
 10
154.4040120056698
 20
-187.7577039461162
 30
0.0
  0
VERTEX
  5
369
330
367
100
AcDbEntity
  8
Ebene 1
 62
   179
420
  1709851
370
    18
100
AcDbVertex
100
AcDb2dVertex
 10
154.4040120056698
 20
-189.2397840238706
 30
0.0
  0
SEQEND
  5
36A
330
367
100
AcDbEntity
  8
Ebene 1
370
    18
  0
POLYLINE
  5
36B
330
1F
100
AcDbEntity
  8
Ebene 1
 62
   179
420
  1709851
370
    18
100
AcDb2dPolyline
 66
     1
 10
0.0
 20
0.0
 30
0.0
  0
VERTEX
  5
36C
330
36B
100
AcDbEntity
  8
Ebene 1
 62
   179
420
  1709851
370
    18
100
AcDbVertex
100
AcDb2dVertex
 10
154.4040120056698
 20
-187.7577039461162
 30
0.0
  0
VERTEX
  5
36D
330
36B
100
AcDbEntity
  8
Ebene 1
 62
   179
420
  1709851
370
    18
100
AcDbVertex
100
AcDb2dVertex
 10
154.4040120056698
 20
-186.2549532954502
 30
0.0
  0
SEQEND
  5
36E
330
36B
100
AcDbEntity
  8
Ebene 1
370
    18
  0
POLYLINE
  5
36F
330
1F
100
AcDbEntity
  8
Ebene 1
 62
   179
420
  1709851
370
    18
100
AcDb2dPolyline
 66
     1
 10
0.0
 20
0.0
 30
0.0
  0
VERTEX
  5
370
330
36F
100
AcDbEntity
  8
Ebene 1
 62
   179
420
  1709851
370
    18
100
AcDbVertex
100
AcDb2dVertex
 10
154.4040120056698
 20
-187.7577039461162
 30
0.0
  0
VERTEX
  5
371
330
36F
100
AcDbEntity
  8
Ebene 1
 62
   179
420
  1709851
370
    18
100
AcDbVertex
100
AcDb2dVertex
 10
155.9067626563358
 20
-187.7577039461162
 30
0.0
  0
SEQEND
  5
372
330
36F
100
AcDbEntity
  8
Ebene 1
370
    18
  0
POLYLINE
  5
373
330
1F
100
AcDbEntity
  8
Ebene 1
 62
   179
420
  1709851
370
    18
100
AcDb2dPolyline
 66
     1
 10
0.0
 20
0.0
 30
0.0
  0
VERTEX
  5
374
330
373
100
AcDbEntity
  8
Ebene 1
 62
   179
420
  1709851
370
    18
100
AcDbVertex
100
AcDb2dVertex
 10
153.5148328609268
 20
-188.6472276004076
 30
0.0
  0
VERTEX
  5
375
330
373
100
AcDbEntity
  8
Ebene 1
 62
   179
420
  1709851
370
    18
100
AcDbVertex
100
AcDb2dVertex
 10
155.3138617233243
 20
-186.8475097189131
 30
0.0
  0
SEQEND
  5
376
330
373
100
AcDbEntity
  8
Ebene 1
370
    18
  0
POLYLINE
  5
377
330
1F
100
AcDbEntity
  8
Ebene 1
 62
   179
420
  1709851
370
    18
100
AcDb2dPolyline
 66
     1
 10
0.0
 20
0.0
 30
0.0
  0
VERTEX
  5
378
330
377
100
AcDbEntity
  8
Ebene 1
 62
   179
420
  1709851
370
    18
100
AcDbVertex
100
AcDb2dVertex
 10
54.41252711313298
 20
-187.7577039461162
 30
0.0
  0
VERTEX
  5
379
330
377
100
AcDbEntity
  8
Ebene 1
 62
   179
420
  1709851
370
    18
100
AcDbVertex
100
AcDb2dVertex
 10
152.8165120060667
 20
-187.7577039461162
 30
0.0
  0
SEQEND
  5
37A
330
377
100
AcDbEntity
  8
Ebene 1
370
    18
  0
POLYLINE
  5
37B
330
1F
100
AcDbEntity
  8
Ebene 1
 62
   179
420
  1709851
370
    18
100
AcDb2dPolyline
 66
     1
 10
0.0
 20
0.0
 30
0.0
  0
VERTEX
  5
37C
330
37B
100
AcDbEntity
  8
Ebene 1
 62
   179
420
  1709851
370
    18
100
AcDbVertex
100
AcDb2dVertex
 10
152.8165120060667
 20
-187.7577039461162
 30
0.0
  0
VERTEX
  5
37D
330
37B
100
AcDbEntity
  8
Ebene 1
 62
   179
420
  1709851
370
    18
100
AcDbVertex
100
AcDb2dVertex
 10
152.8165120060667
 20
-189.2397840238706
 30
0.0
  0
SEQEND
  5
37E
330
37B
100
AcDbEntity
  8
Ebene 1
370
    18
  0
POLYLINE
  5
37F
330
1F
100
AcDbEntity
  8
Ebene 1
 62
   179
420
  1709851
370
    18
100
AcDb2dPolyline
 66
     1
 10
0.0
 20
0.0
 30
0.0
  0
VERTEX
  5
380
330
37F
100
AcDbEntity
  8
Ebene 1
 62
   179
420
  1709851
370
    18
100
AcDbVertex
100
AcDb2dVertex
 10
152.8165120060667
 20
-187.7577039461162
 30
0.0
  0
VERTEX
  5
381
330
37F
100
AcDbEntity
  8
Ebene 1
 62
   179
420
  1709851
370
    18
100
AcDbVertex
100
AcDb2dVertex
 10
152.8165120060667
 20
-186.2549532954502
 30
0.0
  0
SEQEND
  5
382
330
37F
100
AcDbEntity
  8
Ebene 1
370
    18
  0
POLYLINE
  5
383
330
1F
100
AcDbEntity
  8
Ebene 1
 62
   179
420
  1709851
370
    18
100
AcDb2dPolyline
 66
     1
 10
0.0
 20
0.0
 30
0.0
  0
VERTEX
  5
384
330
383
100
AcDbEntity
  8
Ebene 1
 62
   179
420
  1709851
370
    18
100
AcDbVertex
100
AcDb2dVertex
 10
151.9063177788637
 20
-188.6472276004076
 30
0.0
  0
VERTEX
  5
385
330
383
100
AcDbEntity
  8
Ebene 1
 62
   179
420
  1709851
370
    18
100
AcDbVertex
100
AcDb2dVertex
 10
153.7053466412612
 20
-186.8475097189131
 30
0.0
  0
SEQEND
  5
386
330
383
100
AcDbEntity
  8
Ebene 1
370
    18
  0
POLYLINE
  5
387
330
1F
100
AcDbEntity
  8
Ebene 1
 62
   179
420
  1709851
370
    18
100
AcDb2dPolyline
 66
     1
 10
0.0
 20
0.0
 30
0.0
  0
VERTEX
  5
388
330
387
100
AcDbEntity
  8
Ebene 1
 62
   179
420
  1709851
370
    18
100
AcDbVertex
100
AcDb2dVertex
 10
52.82502711352986
 20
-187.7577039461162
 30
0.0
  0
VERTEX
  5
389
330
387
100
AcDbEntity
  8
Ebene 1
 62
   179
420
  1709851
370
    18
100
AcDbVertex
100
AcDb2dVertex
 10
54.41252711313298
 20
-187.7577039461162
 30
0.0
  0
SEQEND
  5
38A
330
387
100
AcDbEntity
  8
Ebene 1
370
    18
  0
POLYLINE
  5
38B
330
1F
100
AcDbEntity
  8
Ebene 1
 62
   179
420
  1709851
370
    18
100
AcDb2dPolyline
 66
     1
 10
0.0
 20
0.0
 30
0.0
  0
VERTEX
  5
38C
330
38B
100
AcDbEntity
  8
Ebene 1
 62
   179
420
  1709851
370
    18
100
AcDbVertex
100
AcDb2dVertex
 10
54.41252711313298
 20
-187.7577039461162
 30
0.0
  0
VERTEX
  5
38D
330
38B
100
AcDbEntity
  8
Ebene 1
 62
   179
420
  1709851
370
    18
100
AcDbVertex
100
AcDb2dVertex
 10
54.41252711313298
 20
-189.2397840238706
 30
0.0
  0
SEQEND
  5
38E
330
38B
100
AcDbEntity
  8
Ebene 1
370
    18
  0
POLYLINE
  5
38F
330
1F
100
AcDbEntity
  8
Ebene 1
 62
   179
420
  1709851
370
    18
100
AcDb2dPolyline
 66
     1
 10
0.0
 20
0.0
 30
0.0
  0
VERTEX
  5
390
330
38F
100
AcDbEntity
  8
Ebene 1
 62
   179
420
  1709851
370
    18
100
AcDbVertex
100
AcDb2dVertex
 10
54.41252711313298
 20
-187.7577039461162
 30
0.0
  0
VERTEX
  5
391
330
38F
100
AcDbEntity
  8
Ebene 1
 62
   179
420
  1709851
370
    18
100
AcDbVertex
100
AcDb2dVertex
 10
54.41252711313298
 20
-186.2549532954502
 30
0.0
  0
SEQEND
  5
392
330
38F
100
AcDbEntity
  8
Ebene 1
370
    18
  0
POLYLINE
  5
393
330
1F
100
AcDbEntity
  8
Ebene 1
 62
   179
420
  1709851
370
    18
100
AcDb2dPolyline
 66
     1
 10
0.0
 20
0.0
 30
0.0
  0
VERTEX
  5
394
330
393
100
AcDbEntity
  8
Ebene 1
 62
   179
420
  1709851
370
    18
100
AcDbVertex
100
AcDb2dVertex
 10
52.82502711352986
 20
-187.7577039461162
 30
0.0
  0
VERTEX
  5
395
330
393
100
AcDbEntity
  8
Ebene 1
 62
   179
420
  1709851
370
    18
100
AcDbVertex
100
AcDb2dVertex
 10
52.82502711352986
 20
-189.2397840238706
 30
0.0
  0
SEQEND
  5
396
330
393
100
AcDbEntity
  8
Ebene 1
370
    18
  0
POLYLINE
  5
397
330
1F
100
AcDbEntity
  8
Ebene 1
 62
   179
420
  1709851
370
    18
100
AcDb2dPolyline
 66
     1
 10
0.0
 20
0.0
 30
0.0
  0
VERTEX
  5
398
330
397
100
AcDbEntity
  8
Ebene 1
 62
   179
420
  1709851
370
    18
100
AcDbVertex
100
AcDb2dVertex
 10
52.82502711352986
 20
-187.7577039461162
 30
0.0
  0
VERTEX
  5
399
330
397
100
AcDbEntity
  8
Ebene 1
 62
   179
420
  1709851
370
    18
100
AcDbVertex
100
AcDb2dVertex
 10
52.82502711352986
 20
-186.2549532954502
 30
0.0
  0
SEQEND
  5
39A
330
397
100
AcDbEntity
  8
Ebene 1
370
    18
  0
POLYLINE
  5
39B
330
1F
100
AcDbEntity
  8
Ebene 1
 62
   179
420
  1709851
370
    18
100
AcDb2dPolyline
 66
     1
 10
0.0
 20
0.0
 30
0.0
  0
VERTEX
  5
39C
330
39B
100
AcDbEntity
  8
Ebene 1
 62
   179
420
  1709851
370
    18
100
AcDbVertex
100
AcDb2dVertex
 10
52.82502711352986
 20
-187.7577039461162
 30
0.0
  0
VERTEX
  5
39D
330
39B
100
AcDbEntity
  8
Ebene 1
 62
   179
420
  1709851
370
    18
100
AcDbVertex
100
AcDb2dVertex
 10
51.32210420808961
 20
-187.7577039461162
 30
0.0
  0
SEQEND
  5
39E
330
39B
100
AcDbEntity
  8
Ebene 1
370
    18
  0
POLYLINE
  5
39F
330
1F
100
AcDbEntity
  8
Ebene 1
 62
   179
420
  1709851
370
    18
100
AcDb2dPolyline
 66
     1
 10
0.0
 20
0.0
 30
0.0
  0
VERTEX
  5
3A0
330
39F
100
AcDbEntity
  8
Ebene 1
 62
   179
420
  1709851
370
    18
100
AcDbVertex
100
AcDb2dVertex
 10
53.52352022316426
 20
-188.6472276004076
 30
0.0
  0
VERTEX
  5
3A1
330
39F
100
AcDbEntity
  8
Ebene 1
 62
   179
420
  1709851
370
    18
100
AcDbVertex
100
AcDb2dVertex
 10
55.32272134033599
 20
-186.8475097189131
 30
0.0
  0
SEQEND
  5
3A2
330
39F
100
AcDbEntity
  8
Ebene 1
370
    18
  0
POLYLINE
  5
3A3
330
1F
100
AcDbEntity
  8
Ebene 1
 62
   179
420
  1709851
370
    18
100
AcDb2dPolyline
 66
     1
 10
0.0
 20
0.0
 30
0.0
  0
VERTEX
  5
3A4
330
3A3
100
AcDbEntity
  8
Ebene 1
 62
   179
420
  1709851
370
    18
100
AcDbVertex
100
AcDb2dVertex
 10
51.91483288632685
 20
-188.6472276004076
 30
0.0
  0
VERTEX
  5
3A5
330
3A3
100
AcDbEntity
  8
Ebene 1
 62
   179
420
  1709851
370
    18
100
AcDbVertex
100
AcDb2dVertex
 10
53.71403400349858
 20
-186.8475097189131
 30
0.0
  0
SEQEND
  5
3A6
330
3A3
100
AcDbEntity
  8
Ebene 1
370
    18
  0
POLYLINE
  5
3A7
330
1F
100
AcDbEntity
  8
Ebene 1
 62
   179
420
  1709851
370
    18
100
AcDb2dPolyline
 66
     1
 10
0.0
 20
0.0
 30
0.0
  0
VERTEX
  5
3A8
330
3A7
100
AcDbEntity
  8
Ebene 1
 62
   179
420
  1709851
370
    18
100
AcDbVertex
100
AcDb2dVertex
 10
53.81979843489574
 20
-201.4953667030984
 30
0.0
  0
VERTEX
  5
3A9
330
3A7
100
AcDbEntity
  8
Ebene 1
 62
   179
420
  1709851
370
    18
100
AcDbVertex
100
AcDb2dVertex
 10
153.8111110726583
 20
-201.4953667030984
 30
0.0
  0
SEQEND
  5
3AA
330
3A7
100
AcDbEntity
  8
Ebene 1
370
    18
  0
POLYLINE
  5
3AB
330
1F
100
AcDbEntity
  8
Ebene 1
 62
   179
420
  1709851
370
    18
100
AcDb2dPolyline
 66
     1
 10
0.0
 20
0.0
 30
0.0
  0
VERTEX
  5
3AC
330
3AB
100
AcDbEntity
  8
Ebene 1
 62
   179
420
  1709851
370
    18
100
AcDbVertex
100
AcDb2dVertex
 10
153.8111110726583
 20
-201.4953667030984
 30
0.0
  0
VERTEX
  5
3AD
330
3AB
100
AcDbEntity
  8
Ebene 1
 62
   179
420
  1709851
370
    18
100
AcDbVertex
100
AcDb2dVertex
 10
153.8111110726583
 20
-202.9981173537644
 30
0.0
  0
SEQEND
  5
3AE
330
3AB
100
AcDbEntity
  8
Ebene 1
370
    18
  0
POLYLINE
  5
3AF
330
1F
100
AcDbEntity
  8
Ebene 1
 62
   179
420
  1709851
370
    18
100
AcDb2dPolyline
 66
     1
 10
0.0
 20
0.0
 30
0.0
  0
VERTEX
  5
3B0
330
3AF
100
AcDbEntity
  8
Ebene 1
 62
   179
420
  1709851
370
    18
100
AcDbVertex
100
AcDb2dVertex
 10
153.8111110726583
 20
-201.4953667030984
 30
0.0
  0
VERTEX
  5
3B1
330
3AF
100
AcDbEntity
  8
Ebene 1
 62
   179
420
  1709851
370
    18
100
AcDbVertex
100
AcDb2dVertex
 10
153.8111110726583
 20
-199.9926160524324
 30
0.0
  0
SEQEND
  5
3B2
330
3AF
100
AcDbEntity
  8
Ebene 1
370
    18
  0
POLYLINE
  5
3B3
330
1F
100
AcDbEntity
  8
Ebene 1
 62
   179
420
  1709851
370
    18
100
AcDb2dPolyline
 66
     1
 10
0.0
 20
0.0
 30
0.0
  0
VERTEX
  5
3B4
330
3B3
100
AcDbEntity
  8
Ebene 1
 62
   179
420
  1709851
370
    18
100
AcDbVertex
100
AcDb2dVertex
 10
53.81979843489574
 20
-201.4953667030984
 30
0.0
  0
VERTEX
  5
3B5
330
3B3
100
AcDbEntity
  8
Ebene 1
 62
   179
420
  1709851
370
    18
100
AcDbVertex
100
AcDb2dVertex
 10
53.81979843489574
 20
-202.9981173537644
 30
0.0
  0
SEQEND
  5
3B6
330
3B3
100
AcDbEntity
  8
Ebene 1
370
    18
  0
POLYLINE
  5
3B7
330
1F
100
AcDbEntity
  8
Ebene 1
 62
   179
420
  1709851
370
    18
100
AcDb2dPolyline
 66
     1
 10
0.0
 20
0.0
 30
0.0
  0
VERTEX
  5
3B8
330
3B7
100
AcDbEntity
  8
Ebene 1
 62
   179
420
  1709851
370
    18
100
AcDbVertex
100
AcDb2dVertex
 10
53.81979843489574
 20
-201.4953667030984
 30
0.0
  0
VERTEX
  5
3B9
330
3B7
100
AcDbEntity
  8
Ebene 1
 62
   179
420
  1709851
370
    18
100
AcDbVertex
100
AcDb2dVertex
 10
53.81979843489574
 20
-199.9926160524324
 30
0.0
  0
SEQEND
  5
3BA
330
3B7
100
AcDbEntity
  8
Ebene 1
370
    18
  0
POLYLINE
  5
3BB
330
1F
100
AcDbEntity
  8
Ebene 1
 62
   179
420
  1709851
370
    18
100
AcDb2dPolyline
 66
     1
 10
0.0
 20
0.0
 30
0.0
  0
VERTEX
  5
3BC
330
3BB
100
AcDbEntity
  8
Ebene 1
 62
   179
420
  1709851
370
    18
100
AcDbVertex
100
AcDb2dVertex
 10
153.8111110726583
 20
-201.4953667030984
 30
0.0
  0
VERTEX
  5
3BD
330
3BB
100
AcDbEntity
  8
Ebene 1
 62
   179
420
  1709851
370
    18
100
AcDbVertex
100
AcDb2dVertex
 10
155.3138617233243
 20
-201.4953667030984
 30
0.0
  0
SEQEND
  5
3BE
330
3BB
100
AcDbEntity
  8
Ebene 1
370
    18
  0
POLYLINE
  5
3BF
330
1F
100
AcDbEntity
  8
Ebene 1
 62
   179
420
  1709851
370
    18
100
AcDb2dPolyline
 66
     1
 10
0.0
 20
0.0
 30
0.0
  0
VERTEX
  5
3C0
330
3BF
100
AcDbEntity
  8
Ebene 1
 62
   179
420
  1709851
370
    18
100
AcDbVertex
100
AcDb2dVertex
 10
53.81979843489574
 20
-201.4953667030984
 30
0.0
  0
VERTEX
  5
3C1
330
3BF
100
AcDbEntity
  8
Ebene 1
 62
   179
420
  1709851
370
    18
100
AcDbVertex
100
AcDb2dVertex
 10
52.31704778422977
 20
-201.4953667030984
 30
0.0
  0
SEQEND
  5
3C2
330
3BF
100
AcDbEntity
  8
Ebene 1
370
    18
  0
POLYLINE
  5
3C3
330
1F
100
AcDbEntity
  8
Ebene 1
 62
   179
420
  1709851
370
    18
100
AcDb2dPolyline
 66
     1
 10
0.0
 20
0.0
 30
0.0
  0
VERTEX
  5
3C4
330
3C3
100
AcDbEntity
  8
Ebene 1
 62
   179
420
  1709851
370
    18
100
AcDbVertex
100
AcDb2dVertex
 10
152.9012613550039
 20
-202.4055609303014
 30
0.0
  0
VERTEX
  5
3C5
330
3C3
100
AcDbEntity
  8
Ebene 1
 62
   179
420
  1709851
370
    18
100
AcDbVertex
100
AcDb2dVertex
 10
154.7002902174013
 20
-200.6058430488069
 30
0.0
  0
SEQEND
  5
3C6
330
3C3
100
AcDbEntity
  8
Ebene 1
370
    18
  0
POLYLINE
  5
3C7
330
1F
100
AcDbEntity
  8
Ebene 1
 62
   179
420
  1709851
370
    18
100
AcDb2dPolyline
 66
     1
 10
0.0
 20
0.0
 30
0.0
  0
VERTEX
  5
3C8
330
3C7
100
AcDbEntity
  8
Ebene 1
 62
   179
420
  1709851
370
    18
100
AcDbVertex
100
AcDb2dVertex
 10
52.90960420769274
 20
-202.4055609303014
 30
0.0
  0
VERTEX
  5
3C9
330
3C7
100
AcDbEntity
  8
Ebene 1
 62
   179
420
  1709851
370
    18
100
AcDbVertex
100
AcDb2dVertex
 10
54.70880532486447
 20
-200.6058430488069
 30
0.0
  0
SEQEND
  5
3CA
330
3C7
100
AcDbEntity
  8
Ebene 1
370
    18
  0
INSERT
  5
3CC
330
1F
100
AcDbEntity
  8
Ebene 1
100
AcDbBlockReference
  2
block 4
 10
0.0
 20
0.0
 30
0.0
  0
POLYLINE
  5
3DA
330
1F
100
AcDbEntity
  8
Ebene 1
 62
   179
420
  1709851
370
    25
100
AcDb2dPolyline
 66
     1
 10
0.0
 20
0.0
 30
0.0
  0
VERTEX
  5
3DB
330
3DA
100
AcDbEntity
  8
Ebene 1
 62
   179
420
  1709851
370
    25
100
AcDbVertex
100
AcDb2dVertex
 10
24.71563177550512
 20
-175.8411186626369
 30
0.0
  0
VERTEX
  5
3DC
330
3DA
100
AcDbEntity
  8
Ebene 1
 62
   179
420
  1709851
370
    25
100
AcDbVertex
100
AcDb2dVertex
 10
52.2112833528326
 20
-175.8411186626369
 30
0.0
  0
SEQEND
  5
3DD
330
3DA
100
AcDbEntity
  8
Ebene 1
370
    25
  0
POLYLINE
  5
3DE
330
1F
100
AcDbEntity
  8
Ebene 1
 62
   179
420
  1709851
370
    13
100
AcDb2dPolyline
 66
     1
 10
0.0
 20
0.0
 30
0.0
  0
VERTEX
  5
3DF
330
3DE
100
AcDbEntity
  8
Ebene 1
 62
   179
420
  1709851
370
    13
100
AcDbVertex
100
AcDb2dVertex
 10
49.438325996755
 20
-173.0471462240993
 30
0.0
  0
VERTEX
  5
3E0
330
3DE
100
AcDbEntity
  8
Ebene 1
 62
   179
420
  1709851
370
    13
100
AcDbVertex
100
AcDb2dVertex
 10
51.42804089426104
 20
-173.0471462240993
 30
0.0
  0
SEQEND
  5
3E1
330
3DE
100
AcDbEntity
  8
Ebene 1
370
    13
  0
POLYLINE
  5
3E2
330
1F
100
AcDbEntity
  8
Ebene 1
 62
   179
420
  1709851
370
    13
100
AcDb2dPolyline
 66
     1
 10
0.0
 20
0.0
 30
0.0
  0
VERTEX
  5
3E3
330
3E2
100
AcDbEntity
  8
Ebene 1
 62
   179
420
  1709851
370
    13
100
AcDbVertex
100
AcDb2dVertex
 10
46.43265244064878
 20
-173.0471462240993
 30
0.0
  0
VERTEX
  5
3E4
330
3E2
100
AcDbEntity
  8
Ebene 1
 62
   179
420
  1709851
370
    13
100
AcDbVertex
100
AcDb2dVertex
 10
48.44355467538912
 20
-173.0471462240993
 30
0.0
  0
SEQEND
  5
3E5
330
3E2
100
AcDbEntity
  8
Ebene 1
370
    13
  0
POLYLINE
  5
3E6
330
1F
100
AcDbEntity
  8
Ebene 1
 62
   179
420
  1709851
370
    13
100
AcDb2dPolyline
 66
     1
 10
0.0
 20
0.0
 30
0.0
  0
VERTEX
  5
3E7
330
3E6
100
AcDbEntity
  8
Ebene 1
 62
   179
420
  1709851
370
    13
100
AcDbVertex
100
AcDb2dVertex
 10
43.44816622177685
 20
-173.0471462240993
 30
0.0
  0
VERTEX
  5
3E8
330
3E6
100
AcDbEntity
  8
Ebene 1
 62
   179
420
  1709851
370
    13
100
AcDbVertex
100
AcDb2dVertex
 10
45.43788111928289
 20
-173.0471462240993
 30
0.0
  0
SEQEND
  5
3E9
330
3E6
100
AcDbEntity
  8
Ebene 1
370
    13
  0
POLYLINE
  5
3EA
330
1F
100
AcDbEntity
  8
Ebene 1
 62
   179
420
  1709851
370
    13
100
AcDb2dPolyline
 66
     1
 10
0.0
 20
0.0
 30
0.0
  0
VERTEX
  5
3EB
330
3EA
100
AcDbEntity
  8
Ebene 1
 62
   179
420
  1709851
370
    13
100
AcDbVertex
100
AcDb2dVertex
 10
40.44249266567063
 20
-173.0471462240993
 30
0.0
  0
VERTEX
  5
3EC
330
3EA
100
AcDbEntity
  8
Ebene 1
 62
   179
420
  1709851
370
    13
100
AcDbVertex
100
AcDb2dVertex
 10
42.43220756317668
 20
-173.0471462240993
 30
0.0
  0
SEQEND
  5
3ED
330
3EA
100
AcDbEntity
  8
Ebene 1
370
    13
  0
POLYLINE
  5
3EE
330
1F
100
AcDbEntity
  8
Ebene 1
 62
   179
420
  1709851
370
    13
100
AcDb2dPolyline
 66
     1
 10
0.0
 20
0.0
 30
0.0
  0
VERTEX
  5
3EF
330
3EE
100
AcDbEntity
  8
Ebene 1
 62
   179
420
  1709851
370
    13
100
AcDbVertex
100
AcDb2dVertex
 10
37.43681910956441
 20
-173.0471462240993
 30
0.0
  0
VERTEX
  5
3F0
330
3EE
100
AcDbEntity
  8
Ebene 1
 62
   179
420
  1709851
370
    13
100
AcDbVertex
100
AcDb2dVertex
 10
39.44772134430474
 20
-173.0471462240993
 30
0.0
  0
SEQEND
  5
3F1
330
3EE
100
AcDbEntity
  8
Ebene 1
370
    13
  0
POLYLINE
  5
3F2
330
1F
100
AcDbEntity
  8
Ebene 1
 62
   179
420
  1709851
370
    13
100
AcDb2dPolyline
 66
     1
 10
0.0
 20
0.0
 30
0.0
  0
VERTEX
  5
3F3
330
3F2
100
AcDbEntity
  8
Ebene 1
 62
   179
420
  1709851
370
    13
100
AcDbVertex
100
AcDb2dVertex
 10
34.43114555345819
 20
-173.0471462240993
 30
0.0
  0
VERTEX
  5
3F4
330
3F2
100
AcDbEntity
  8
Ebene 1
 62
   179
420
  1709851
370
    13
100
AcDbVertex
100
AcDb2dVertex
 10
36.44204778819851
 20
-173.0471462240993
 30
0.0
  0
SEQEND
  5
3F5
330
3F2
100
AcDbEntity
  8
Ebene 1
370
    13
  0
POLYLINE
  5
3F6
330
1F
100
AcDbEntity
  8
Ebene 1
 62
   179
420
  1709851
370
    13
100
AcDb2dPolyline
 66
     1
 10
0.0
 20
0.0
 30
0.0
  0
VERTEX
  5
3F7
330
3F6
100
AcDbEntity
  8
Ebene 1
 62
   179
420
  1709851
370
    13
100
AcDbVertex
100
AcDb2dVertex
 10
31.44665933458625
 20
-173.0471462240993
 30
0.0
  0
VERTEX
  5
3F8
330
3F6
100
AcDbEntity
  8
Ebene 1
 62
   179
420
  1709851
370
    13
100
AcDbVertex
100
AcDb2dVertex
 10
33.4363742320923
 20
-173.0471462240993
 30
0.0
  0
SEQEND
  5
3F9
330
3F6
100
AcDbEntity
  8
Ebene 1
370
    13
  0
POLYLINE
  5
3FA
330
1F
100
AcDbEntity
  8
Ebene 1
 62
   179
420
  1709851
370
    13
100
AcDb2dPolyline
 66
     1
 10
0.0
 20
0.0
 30
0.0
  0
VERTEX
  5
3FB
330
3FA
100
AcDbEntity
  8
Ebene 1
 62
   179
420
  1709851
370
    13
100
AcDbVertex
100
AcDb2dVertex
 10
28.44098577848003
 20
-173.0471462240993
 30
0.0
  0
VERTEX
  5
3FC
330
3FA
100
AcDbEntity
  8
Ebene 1
 62
   179
420
  1709851
370
    13
100
AcDbVertex
100
AcDb2dVertex
 10
30.43070067598608
 20
-173.0471462240993
 30
0.0
  0
SEQEND
  5
3FD
330
3FA
100
AcDbEntity
  8
Ebene 1
370
    13
  0
POLYLINE
  5
3FE
330
1F
100
AcDbEntity
  8
Ebene 1
 62
   179
420
  1709851
370
    13
100
AcDb2dPolyline
 66
     1
 10
0.0
 20
0.0
 30
0.0
  0
VERTEX
  5
3FF
330
3FE
100
AcDbEntity
  8
Ebene 1
 62
   179
420
  1709851
370
    13
100
AcDbVertex
100
AcDb2dVertex
 10
25.43531222237381
 20
-173.0471462240993
 30
0.0
  0
VERTEX
  5
400
330
3FE
100
AcDbEntity
  8
Ebene 1
 62
   179
420
  1709851
370
    13
100
AcDbVertex
100
AcDb2dVertex
 10
27.44621445711414
 20
-173.0471462240993
 30
0.0
  0
SEQEND
  5
401
330
3FE
100
AcDbEntity
  8
Ebene 1
370
    13
  0
POLYLINE
  5
402
330
1F
100
AcDbEntity
  8
Ebene 1
 62
   179
420
  1709851
370
    13
100
AcDb2dPolyline
 66
     1
 10
0.0
 20
0.0
 30
0.0
  0
VERTEX
  5
403
330
402
100
AcDbEntity
  8
Ebene 1
 62
   179
420
  1709851
370
    13
100
AcDbVertex
100
AcDb2dVertex
 10
49.438325996755
 20
-174.656005815711
 30
0.0
  0
VERTEX
  5
404
330
402
100
AcDbEntity
  8
Ebene 1
 62
   179
420
  1709851
370
    13
100
AcDbVertex
100
AcDb2dVertex
 10
51.42804089426104
 20
-174.656005815711
 30
0.0
  0
SEQEND
  5
405
330
402
100
AcDbEntity
  8
Ebene 1
370
    13
  0
POLYLINE
  5
406
330
1F
100
AcDbEntity
  8
Ebene 1
 62
   179
420
  1709851
370
    13
100
AcDb2dPolyline
 66
     1
 10
0.0
 20
0.0
 30
0.0
  0
VERTEX
  5
407
330
406
100
AcDbEntity
  8
Ebene 1
 62
   179
420
  1709851
370
    13
100
AcDbVertex
100
AcDb2dVertex
 10
46.43265244064878
 20
-174.656005815711
 30
0.0
  0
VERTEX
  5
408
330
406
100
AcDbEntity
  8
Ebene 1
 62
   179
420
  1709851
370
    13
100
AcDbVertex
100
AcDb2dVertex
 10
48.44355467538912
 20
-174.656005815711
 30
0.0
  0
SEQEND
  5
409
330
406
100
AcDbEntity
  8
Ebene 1
370
    13
  0
POLYLINE
  5
40A
330
1F
100
AcDbEntity
  8
Ebene 1
 62
   179
420
  1709851
370
    13
100
AcDb2dPolyline
 66
     1
 10
0.0
 20
0.0
 30
0.0
  0
VERTEX
  5
40B
330
40A
100
AcDbEntity
  8
Ebene 1
 62
   179
420
  1709851
370
    13
100
AcDbVertex
100
AcDb2dVertex
 10
43.44816622177685
 20
-174.656005815711
 30
0.0
  0
VERTEX
  5
40C
330
40A
100
AcDbEntity
  8
Ebene 1
 62
   179
420
  1709851
370
    13
100
AcDbVertex
100
AcDb2dVertex
 10
45.43788111928289
 20
-174.656005815711
 30
0.0
  0
SEQEND
  5
40D
330
40A
100
AcDbEntity
  8
Ebene 1
370
    13
  0
POLYLINE
  5
40E
330
1F
100
AcDbEntity
  8
Ebene 1
 62
   179
420
  1709851
370
    13
100
AcDb2dPolyline
 66
     1
 10
0.0
 20
0.0
 30
0.0
  0
VERTEX
  5
40F
330
40E
100
AcDbEntity
  8
Ebene 1
 62
   179
420
  1709851
370
    13
100
AcDbVertex
100
AcDb2dVertex
 10
40.44249266567063
 20
-174.656005815711
 30
0.0
  0
VERTEX
  5
410
330
40E
100
AcDbEntity
  8
Ebene 1
 62
   179
420
  1709851
370
    13
100
AcDbVertex
100
AcDb2dVertex
 10
42.43220756317668
 20
-174.656005815711
 30
0.0
  0
SEQEND
  5
411
330
40E
100
AcDbEntity
  8
Ebene 1
370
    13
  0
POLYLINE
  5
412
330
1F
100
AcDbEntity
  8
Ebene 1
 62
   179
420
  1709851
370
    13
100
AcDb2dPolyline
 66
     1
 10
0.0
 20
0.0
 30
0.0
  0
VERTEX
  5
413
330
412
100
AcDbEntity
  8
Ebene 1
 62
   179
420
  1709851
370
    13
100
AcDbVertex
100
AcDb2dVertex
 10
37.43681910956441
 20
-174.656005815711
 30
0.0
  0
VERTEX
  5
414
330
412
100
AcDbEntity
  8
Ebene 1
 62
   179
420
  1709851
370
    13
100
AcDbVertex
100
AcDb2dVertex
 10
39.44772134430474
 20
-174.656005815711
 30
0.0
  0
SEQEND
  5
415
330
412
100
AcDbEntity
  8
Ebene 1
370
    13
  0
POLYLINE
  5
416
330
1F
100
AcDbEntity
  8
Ebene 1
 62
   179
420
  1709851
370
    13
100
AcDb2dPolyline
 66
     1
 10
0.0
 20
0.0
 30
0.0
  0
VERTEX
  5
417
330
416
100
AcDbEntity
  8
Ebene 1
 62
   179
420
  1709851
370
    13
100
AcDbVertex
100
AcDb2dVertex
 10
34.43114555345819
 20
-174.656005815711
 30
0.0
  0
VERTEX
  5
418
330
416
100
AcDbEntity
  8
Ebene 1
 62
   179
420
  1709851
370
    13
100
AcDbVertex
100
AcDb2dVertex
 10
36.44204778819851
 20
-174.656005815711
 30
0.0
  0
SEQEND
  5
419
330
416
100
AcDbEntity
  8
Ebene 1
370
    13
  0
POLYLINE
  5
41A
330
1F
100
AcDbEntity
  8
Ebene 1
 62
   179
420
  1709851
370
    13
100
AcDb2dPolyline
 66
     1
 10
0.0
 20
0.0
 30
0.0
  0
VERTEX
  5
41B
330
41A
100
AcDbEntity
  8
Ebene 1
 62
   179
420
  1709851
370
    13
100
AcDbVertex
100
AcDb2dVertex
 10
31.44665933458625
 20
-174.656005815711
 30
0.0
  0
VERTEX
  5
41C
330
41A
100
AcDbEntity
  8
Ebene 1
 62
   179
420
  1709851
370
    13
100
AcDbVertex
100
AcDb2dVertex
 10
33.4363742320923
 20
-174.656005815711
 30
0.0
  0
SEQEND
  5
41D
330
41A
100
AcDbEntity
  8
Ebene 1
370
    13
  0
POLYLINE
  5
41E
330
1F
100
AcDbEntity
  8
Ebene 1
 62
   179
420
  1709851
370
    13
100
AcDb2dPolyline
 66
     1
 10
0.0
 20
0.0
 30
0.0
  0
VERTEX
  5
41F
330
41E
100
AcDbEntity
  8
Ebene 1
 62
   179
420
  1709851
370
    13
100
AcDbVertex
100
AcDb2dVertex
 10
28.44098577848003
 20
-174.656005815711
 30
0.0
  0
VERTEX
  5
420
330
41E
100
AcDbEntity
  8
Ebene 1
 62
   179
420
  1709851
370
    13
100
AcDbVertex
100
AcDb2dVertex
 10
30.43070067598608
 20
-174.656005815711
 30
0.0
  0
SEQEND
  5
421
330
41E
100
AcDbEntity
  8
Ebene 1
370
    13
  0
POLYLINE
  5
422
330
1F
100
AcDbEntity
  8
Ebene 1
 62
   179
420
  1709851
370
    13
100
AcDb2dPolyline
 66
     1
 10
0.0
 20
0.0
 30
0.0
  0
VERTEX
  5
423
330
422
100
AcDbEntity
  8
Ebene 1
 62
   179
420
  1709851
370
    13
100
AcDbVertex
100
AcDb2dVertex
 10
25.43531222237381
 20
-174.656005815711
 30
0.0
  0
VERTEX
  5
424
330
422
100
AcDbEntity
  8
Ebene 1
 62
   179
420
  1709851
370
    13
100
AcDbVertex
100
AcDb2dVertex
 10
27.44621445711414
 20
-174.656005815711
 30
0.0
  0
SEQEND
  5
425
330
422
100
AcDbEntity
  8
Ebene 1
370
    13
  0
POLYLINE
  5
426
330
1F
100
AcDbEntity
  8
Ebene 1
 62
   179
420
  1709851
370
    25
100
AcDb2dPolyline
 66
     1
 10
0.0
 20
0.0
 30
0.0
  0
VERTEX
  5
427
330
426
100
AcDbEntity
  8
Ebene 1
 62
   179
420
  1709851
370
    25
100
AcDbVertex
100
AcDb2dVertex
 10
153.8111110726583
 20
-175.8411186626369
 30
0.0
  0
VERTEX
  5
428
330
426
100
AcDbEntity
  8
Ebene 1
 62
   179
420
  1709851
370
    25
100
AcDbVertex
100
AcDb2dVertex
 10
184.714651103995
 20
-175.8411186626369
 30
0.0
  0
SEQEND
  5
429
330
426
100
AcDbEntity
  8
Ebene 1
370
    25
  0
POLYLINE
  5
42A
330
1F
100
AcDbEntity
  8
Ebene 1
 62
   179
420
  1709851
370
    25
100
AcDb2dPolyline
 66
     1
 10
0.0
 20
0.0
 30
0.0
  0
VERTEX
  5
42B
330
42A
100
AcDbEntity
  8
Ebene 1
 62
   179
420
  1709851
370
    25
100
AcDbVertex
100
AcDb2dVertex
 10
52.2112833528326
 20
-171.8406737851649
 30
0.0
  0
VERTEX
  5
42C
330
42A
100
AcDbEntity
  8
Ebene 1
 62
   179
420
  1709851
370
    25
100
AcDbVertex
100
AcDb2dVertex
 10
24.71563177550512
 20
-171.8406737851649
 30
0.0
  0
SEQEND
  5
42D
330
42A
100
AcDbEntity
  8
Ebene 1
370
    25
  0
POLYLINE
  5
42E
330
1F
100
AcDbEntity
  8
Ebene 1
 62
   179
420
  1709851
370
    13
100
AcDb2dPolyline
 66
     1
 10
0.0
 20
0.0
 30
0.0
  0
VERTEX
  5
42F
330
42E
100
AcDbEntity
  8
Ebene 1
 62
   179
420
  1709851
370
    13
100
AcDbVertex
100
AcDb2dVertex
 10
184.4183728922635
 20
-173.0471462240993
 30
0.0
  0
VERTEX
  5
430
330
42E
100
AcDbEntity
  8
Ebene 1
 62
   179
420
  1709851
370
    13
100
AcDbVertex
100
AcDb2dVertex
 10
184.714651103995
 20
-173.0471462240993
 30
0.0
  0
SEQEND
  5
431
330
42E
100
AcDbEntity
  8
Ebene 1
370
    13
  0
POLYLINE
  5
432
330
1F
100
AcDbEntity
  8
Ebene 1
 62
   179
420
  1709851
370
    13
100
AcDb2dPolyline
 66
     1
 10
0.0
 20
0.0
 30
0.0
  0
VERTEX
  5
433
330
432
100
AcDbEntity
  8
Ebene 1
 62
   179
420
  1709851
370
    13
100
AcDbVertex
100
AcDb2dVertex
 10
181.433542163843
 20
-173.0471462240993
 30
0.0
  0
VERTEX
  5
434
330
432
100
AcDbEntity
  8
Ebene 1
 62
   179
420
  1709851
370
    13
100
AcDbVertex
100
AcDb2dVertex
 10
183.4230848065748
 20
-173.0471462240993
 30
0.0
  0
SEQEND
  5
435
330
432
100
AcDbEntity
  8
Ebene 1
370
    13
  0
POLYLINE
  5
436
330
1F
100
AcDbEntity
  8
Ebene 1
 62
   179
420
  1709851
370
    13
100
AcDb2dPolyline
 66
     1
 10
0.0
 20
0.0
 30
0.0
  0
VERTEX
  5
437
330
436
100
AcDbEntity
  8
Ebene 1
 62
   179
420
  1709851
370
    13
100
AcDbVertex
100
AcDb2dVertex
 10
178.4276963529625
 20
-173.0471462240993
 30
0.0
  0
VERTEX
  5
438
330
436
100
AcDbEntity
  8
Ebene 1
 62
   179
420
  1709851
370
    13
100
AcDbVertex
100
AcDb2dVertex
 10
180.4175835052428
 20
-173.0471462240993
 30
0.0
  0
SEQEND
  5
439
330
436
100
AcDbEntity
  8
Ebene 1
370
    13
  0
POLYLINE
  5
43A
330
1F
100
AcDbEntity
  8
Ebene 1
 62
   179
420
  1709851
370
    13
100
AcDb2dPolyline
 66
     1
 10
0.0
 20
0.0
 30
0.0
  0
VERTEX
  5
43B
330
43A
100
AcDbEntity
  8
Ebene 1
 62
   179
420
  1709851
370
    13
100
AcDbVertex
100
AcDb2dVertex
 10
175.4225395611791
 20
-173.0471462240993
 30
0.0
  0
VERTEX
  5
43C
330
43A
100
AcDbEntity
  8
Ebene 1
 62
   179
420
  1709851
370
    13
100
AcDbVertex
100
AcDb2dVertex
 10
177.4330972863709
 20
-173.0471462240993
 30
0.0
  0
SEQEND
  5
43D
330
43A
100
AcDbEntity
  8
Ebene 1
370
    13
  0
POLYLINE
  5
43E
330
1F
100
AcDbEntity
  8
Ebene 1
 62
   179
420
  1709851
370
    13
100
AcDb2dPolyline
 66
     1
 10
0.0
 20
0.0
 30
0.0
  0
VERTEX
  5
43F
330
43E
100
AcDbEntity
  8
Ebene 1
 62
   179
420
  1709851
370
    13
100
AcDbVertex
100
AcDb2dVertex
 10
172.4166937502986
 20
-173.0471462240993
 30
0.0
  0
VERTEX
  5
440
330
43E
100
AcDbEntity
  8
Ebene 1
 62
   179
420
  1709851
370
    13
100
AcDbVertex
100
AcDb2dVertex
 10
174.4272514754904
 20
-173.0471462240993
 30
0.0
  0
SEQEND
  5
441
330
43E
100
AcDbEntity
  8
Ebene 1
370
    13
  0
POLYLINE
  5
442
330
1F
100
AcDbEntity
  8
Ebene 1
 62
   179
420
  1709851
370
    13
100
AcDb2dPolyline
 66
     1
 10
0.0
 20
0.0
 30
0.0
  0
VERTEX
  5
443
330
442
100
AcDbEntity
  8
Ebene 1
 62
   179
420
  1709851
370
    13
100
AcDbVertex
100
AcDb2dVertex
 10
169.4318630218781
 20
-173.0471462240993
 30
0.0
  0
VERTEX
  5
444
330
442
100
AcDbEntity
  8
Ebene 1
 62
   179
420
  1709851
370
    13
100
AcDbVertex
100
AcDb2dVertex
 10
171.4217501741585
 20
-173.0471462240993
 30
0.0
  0
SEQEND
  5
445
330
442
100
AcDbEntity
  8
Ebene 1
370
    13
  0
POLYLINE
  5
446
330
1F
100
AcDbEntity
  8
Ebene 1
 62
   179
420
  1709851
370
    13
100
AcDb2dPolyline
 66
     1
 10
0.0
 20
0.0
 30
0.0
  0
VERTEX
  5
447
330
446
100
AcDbEntity
  8
Ebene 1
 62
   179
420
  1709851
370
    13
100
AcDbVertex
100
AcDb2dVertex
 10
166.4267062300947
 20
-173.0471462240993
 30
0.0
  0
VERTEX
  5
448
330
446
100
AcDbEntity
  8
Ebene 1
 62
   179
420
  1709851
370
    13
100
AcDbVertex
100
AcDb2dVertex
 10
168.4372639552865
 20
-173.0471462240993
 30
0.0
  0
SEQEND
  5
449
330
446
100
AcDbEntity
  8
Ebene 1
370
    13
  0
POLYLINE
  5
44A
330
1F
100
AcDbEntity
  8
Ebene 1
 62
   179
420
  1709851
370
    13
100
AcDb2dPolyline
 66
     1
 10
0.0
 20
0.0
 30
0.0
  0
VERTEX
  5
44B
330
44A
100
AcDbEntity
  8
Ebene 1
 62
   179
420
  1709851
370
    13
100
AcDbVertex
100
AcDb2dVertex
 10
163.4208604192143
 20
-173.0471462240993
 30
0.0
  0
VERTEX
  5
44C
330
44A
100
AcDbEntity
  8
Ebene 1
 62
   179
420
  1709851
370
    13
100
AcDbVertex
100
AcDb2dVertex
 10
165.4314181444061
 20
-173.0471462240993
 30
0.0
  0
SEQEND
  5
44D
330
44A
100
AcDbEntity
  8
Ebene 1
370
    13
  0
POLYLINE
  5
44E
330
1F
100
AcDbEntity
  8
Ebene 1
 62
   179
420
  1709851
370
    13
100
AcDb2dPolyline
 66
     1
 10
0.0
 20
0.0
 30
0.0
  0
VERTEX
  5
44F
330
44E
100
AcDbEntity
  8
Ebene 1
 62
   179
420
  1709851
370
    13
100
AcDbVertex
100
AcDb2dVertex
 10
160.4360296907938
 20
-173.0471462240993
 30
0.0
  0
VERTEX
  5
450
330
44E
100
AcDbEntity
  8
Ebene 1
 62
   179
420
  1709851
370
    13
100
AcDbVertex
100
AcDb2dVertex
 10
162.4259168430741
 20
-173.0471462240993
 30
0.0
  0
SEQEND
  5
451
330
44E
100
AcDbEntity
  8
Ebene 1
370
    13
  0
POLYLINE
  5
452
330
1F
100
AcDbEntity
  8
Ebene 1
 62
   179
420
  1709851
370
    13
100
AcDb2dPolyline
 66
     1
 10
0.0
 20
0.0
 30
0.0
  0
VERTEX
  5
453
330
452
100
AcDbEntity
  8
Ebene 1
 62
   179
420
  1709851
370
    13
100
AcDbVertex
100
AcDb2dVertex
 10
157.4308728990104
 20
-173.0471462240993
 30
0.0
  0
VERTEX
  5
454
330
452
100
AcDbEntity
  8
Ebene 1
 62
   179
420
  1709851
370
    13
100
AcDbVertex
100
AcDb2dVertex
 10
159.4200710321936
 20
-173.0471462240993
 30
0.0
  0
SEQEND
  5
455
330
452
100
AcDbEntity
  8
Ebene 1
370
    13
  0
POLYLINE
  5
456
330
1F
100
AcDbEntity
  8
Ebene 1
 62
   179
420
  1709851
370
    13
100
AcDb2dPolyline
 66
     1
 10
0.0
 20
0.0
 30
0.0
  0
VERTEX
  5
457
330
456
100
AcDbEntity
  8
Ebene 1
 62
   179
420
  1709851
370
    13
100
AcDbVertex
100
AcDb2dVertex
 10
154.4250270881299
 20
-173.0471462240993
 30
0.0
  0
VERTEX
  5
458
330
456
100
AcDbEntity
  8
Ebene 1
 62
   179
420
  1709851
370
    13
100
AcDbVertex
100
AcDb2dVertex
 10
156.4355848133217
 20
-173.0471462240993
 30
0.0
  0
SEQEND
  5
459
330
456
100
AcDbEntity
  8
Ebene 1
370
    13
  0
POLYLINE
  5
45A
330
1F
100
AcDbEntity
  8
Ebene 1
 62
   179
420
  1709851
370
    13
100
AcDb2dPolyline
 66
     1
 10
0.0
 20
0.0
 30
0.0
  0
VERTEX
  5
45B
330
45A
100
AcDbEntity
  8
Ebene 1
 62
   179
420
  1709851
370
    13
100
AcDbVertex
100
AcDb2dVertex
 10
184.4183728922635
 20
-174.656005815711
 30
0.0
  0
VERTEX
  5
45C
330
45A
100
AcDbEntity
  8
Ebene 1
 62
   179
420
  1709851
370
    13
100
AcDbVertex
100
AcDb2dVertex
 10
184.714651103995
 20
-174.656005815711
 30
0.0
  0
SEQEND
  5
45D
330
45A
100
AcDbEntity
  8
Ebene 1
370
    13
  0
POLYLINE
  5
45E
330
1F
100
AcDbEntity
  8
Ebene 1
 62
   179
420
  1709851
370
    13
100
AcDb2dPolyline
 66
     1
 10
0.0
 20
0.0
 30
0.0
  0
VERTEX
  5
45F
330
45E
100
AcDbEntity
  8
Ebene 1
 62
   179
420
  1709851
370
    13
100
AcDbVertex
100
AcDb2dVertex
 10
181.4338866733915
 20
-174.656005815711
 30
0.0
  0
VERTEX
  5
460
330
45E
100
AcDbEntity
  8
Ebene 1
 62
   179
420
  1709851
370
    13
100
AcDbVertex
100
AcDb2dVertex
 10
183.4230848065748
 20
-174.656005815711
 30
0.0
  0
SEQEND
  5
461
330
45E
100
AcDbEntity
  8
Ebene 1
370
    13
  0
POLYLINE
  5
462
330
1F
100
AcDbEntity
  8
Ebene 1
 62
   179
420
  1709851
370
    13
100
AcDb2dPolyline
 66
     1
 10
0.0
 20
0.0
 30
0.0
  0
VERTEX
  5
463
330
462
100
AcDbEntity
  8
Ebene 1
 62
   179
420
  1709851
370
    13
100
AcDbVertex
100
AcDb2dVertex
 10
178.4276963529625
 20
-174.656005815711
 30
0.0
  0
VERTEX
  5
464
330
462
100
AcDbEntity
  8
Ebene 1
 62
   179
420
  1709851
370
    13
100
AcDbVertex
100
AcDb2dVertex
 10
180.4175835052428
 20
-174.656005815711
 30
0.0
  0
SEQEND
  5
465
330
462
100
AcDbEntity
  8
Ebene 1
370
    13
  0
POLYLINE
  5
466
330
1F
100
AcDbEntity
  8
Ebene 1
 62
   179
420
  1709851
370
    13
100
AcDb2dPolyline
 66
     1
 10
0.0
 20
0.0
 30
0.0
  0
VERTEX
  5
467
330
466
100
AcDbEntity
  8
Ebene 1
 62
   179
420
  1709851
370
    13
100
AcDbVertex
100
AcDb2dVertex
 10
175.4225395611791
 20
-174.656005815711
 30
0.0
  0
VERTEX
  5
468
330
466
100
AcDbEntity
  8
Ebene 1
 62
   179
420
  1709851
370
    13
100
AcDbVertex
100
AcDb2dVertex
 10
177.4330972863709
 20
-174.656005815711
 30
0.0
  0
SEQEND
  5
469
330
466
100
AcDbEntity
  8
Ebene 1
370
    13
  0
POLYLINE
  5
46A
330
1F
100
AcDbEntity
  8
Ebene 1
 62
   179
420
  1709851
370
    13
100
AcDb2dPolyline
 66
     1
 10
0.0
 20
0.0
 30
0.0
  0
VERTEX
  5
46B
330
46A
100
AcDbEntity
  8
Ebene 1
 62
   179
420
  1709851
370
    13
100
AcDbVertex
100
AcDb2dVertex
 10
172.4166937502986
 20
-174.656005815711
 30
0.0
  0
VERTEX
  5
46C
330
46A
100
AcDbEntity
  8
Ebene 1
 62
   179
420
  1709851
370
    13
100
AcDbVertex
100
AcDb2dVertex
 10
174.4272514754904
 20
-174.656005815711
 30
0.0
  0
SEQEND
  5
46D
330
46A
100
AcDbEntity
  8
Ebene 1
370
    13
  0
POLYLINE
  5
46E
330
1F
100
AcDbEntity
  8
Ebene 1
 62
   179
420
  1709851
370
    13
100
AcDb2dPolyline
 66
     1
 10
0.0
 20
0.0
 30
0.0
  0
VERTEX
  5
46F
330
46E
100
AcDbEntity
  8
Ebene 1
 62
   179
420
  1709851
370
    13
100
AcDbVertex
100
AcDb2dVertex
 10
169.4318630218781
 20
-174.656005815711
 30
0.0
  0
VERTEX
  5
470
330
46E
100
AcDbEntity
  8
Ebene 1
 62
   179
420
  1709851
370
    13
100
AcDbVertex
100
AcDb2dVertex
 10
171.4217501741585
 20
-174.656005815711
 30
0.0
  0
SEQEND
  5
471
330
46E
100
AcDbEntity
  8
Ebene 1
370
    13
  0
POLYLINE
  5
472
330
1F
100
AcDbEntity
  8
Ebene 1
 62
   179
420
  1709851
370
    13
100
AcDb2dPolyline
 66
     1
 10
0.0
 20
0.0
 30
0.0
  0
VERTEX
  5
473
330
472
100
AcDbEntity
  8
Ebene 1
 62
   179
420
  1709851
370
    13
100
AcDbVertex
100
AcDb2dVertex
 10
166.4267062300947
 20
-174.656005815711
 30
0.0
  0
VERTEX
  5
474
330
472
100
AcDbEntity
  8
Ebene 1
 62
   179
420
  1709851
370
    13
100
AcDbVertex
100
AcDb2dVertex
 10
168.4372639552865
 20
-174.656005815711
 30
0.0
  0
SEQEND
  5
475
330
472
100
AcDbEntity
  8
Ebene 1
370
    13
  0
POLYLINE
  5
476
330
1F
100
AcDbEntity
  8
Ebene 1
 62
   179
420
  1709851
370
    13
100
AcDb2dPolyline
 66
     1
 10
0.0
 20
0.0
 30
0.0
  0
VERTEX
  5
477
330
476
100
AcDbEntity
  8
Ebene 1
 62
   179
420
  1709851
370
    13
100
AcDbVertex
100
AcDb2dVertex
 10
163.4208604192143
 20
-174.656005815711
 30
0.0
  0
VERTEX
  5
478
330
476
100
AcDbEntity
  8
Ebene 1
 62
   179
420
  1709851
370
    13
100
AcDbVertex
100
AcDb2dVertex
 10
165.4314181444061
 20
-174.656005815711
 30
0.0
  0
SEQEND
  5
479
330
476
100
AcDbEntity
  8
Ebene 1
370
    13
  0
POLYLINE
  5
47A
330
1F
100
AcDbEntity
  8
Ebene 1
 62
   179
420
  1709851
370
    13
100
AcDb2dPolyline
 66
     1
 10
0.0
 20
0.0
 30
0.0
  0
VERTEX
  5
47B
330
47A
100
AcDbEntity
  8
Ebene 1
 62
   179
420
  1709851
370
    13
100
AcDbVertex
100
AcDb2dVertex
 10
160.4360296907938
 20
-174.656005815711
 30
0.0
  0
VERTEX
  5
47C
330
47A
100
AcDbEntity
  8
Ebene 1
 62
   179
420
  1709851
370
    13
100
AcDbVertex
100
AcDb2dVertex
 10
162.4259168430741
 20
-174.656005815711
 30
0.0
  0
SEQEND
  5
47D
330
47A
100
AcDbEntity
  8
Ebene 1
370
    13
  0
POLYLINE
  5
47E
330
1F
100
AcDbEntity
  8
Ebene 1
 62
   179
420
  1709851
370
    13
100
AcDb2dPolyline
 66
     1
 10
0.0
 20
0.0
 30
0.0
  0
VERTEX
  5
47F
330
47E
100
AcDbEntity
  8
Ebene 1
 62
   179
420
  1709851
370
    13
100
AcDbVertex
100
AcDb2dVertex
 10
157.4308728990104
 20
-174.656005815711
 30
0.0
  0
VERTEX
  5
480
330
47E
100
AcDbEntity
  8
Ebene 1
 62
   179
420
  1709851
370
    13
100
AcDbVertex
100
AcDb2dVertex
 10
159.4200710321936
 20
-174.656005815711
 30
0.0
  0
SEQEND
  5
481
330
47E
100
AcDbEntity
  8
Ebene 1
370
    13
  0
POLYLINE
  5
482
330
1F
100
AcDbEntity
  8
Ebene 1
 62
   179
420
  1709851
370
    13
100
AcDb2dPolyline
 66
     1
 10
0.0
 20
0.0
 30
0.0
  0
VERTEX
  5
483
330
482
100
AcDbEntity
  8
Ebene 1
 62
   179
420
  1709851
370
    13
100
AcDbVertex
100
AcDb2dVertex
 10
154.4250270881299
 20
-174.656005815711
 30
0.0
  0
VERTEX
  5
484
330
482
100
AcDbEntity
  8
Ebene 1
 62
   179
420
  1709851
370
    13
100
AcDbVertex
100
AcDb2dVertex
 10
156.4355848133217
 20
-174.656005815711
 30
0.0
  0
SEQEND
  5
485
330
482
100
AcDbEntity
  8
Ebene 1
370
    13
  0
POLYLINE
  5
486
330
1F
100
AcDbEntity
  8
Ebene 1
 62
   179
420
  1709851
370
    18
100
AcDb2dPolyline
 66
     1
 10
0.0
 20
0.0
 30
0.0
  0
VERTEX
  5
487
330
486
100
AcDbEntity
  8
Ebene 1
 62
   179
420
  1709851
370
    18
100
AcDbVertex
100
AcDb2dVertex
 10
184.714651103995
 20
-90.3912095585654
 30
0.0
  0
VERTEX
  5
488
330
486
100
AcDbEntity
  8
Ebene 1
 62
   179
420
  1709851
370
    18
100
AcDbVertex
100
AcDb2dVertex
 10
184.714651103995
 20
-85.71345890869317
 30
0.0
  0
SEQEND
  5
489
330
486
100
AcDbEntity
  8
Ebene 1
370
    18
  0
POLYLINE
  5
48A
330
1F
100
AcDbEntity
  8
Ebene 1
 62
   179
420
  1709851
370
    18
100
AcDb2dPolyline
 66
     1
 10
0.0
 20
0.0
 30
0.0
  0
VERTEX
  5
48B
330
48A
100
AcDbEntity
  8
Ebene 1
 62
   179
420
  1709851
370
    18
100
AcDbVertex
100
AcDb2dVertex
 10
184.714651103995
 20
-92.40211179330572
 30
0.0
  0
VERTEX
  5
48C
330
48A
100
AcDbEntity
  8
Ebene 1
 62
   179
420
  1709851
370
    18
100
AcDbVertex
100
AcDb2dVertex
 10
184.714651103995
 20
-91.4075127267141
 30
0.0
  0
SEQEND
  5
48D
330
48A
100
AcDbEntity
  8
Ebene 1
370
    18
  0
POLYLINE
  5
48E
330
1F
100
AcDbEntity
  8
Ebene 1
 62
   179
420
  1709851
370
    18
100
AcDb2dPolyline
 66
     1
 10
0.0
 20
0.0
 30
0.0
  0
VERTEX
  5
48F
330
48E
100
AcDbEntity
  8
Ebene 1
 62
   179
420
  1709851
370
    18
100
AcDbVertex
100
AcDb2dVertex
 10
184.714651103995
 20
-100.4033460577985
 30
0.0
  0
VERTEX
  5
490
330
48E
100
AcDbEntity
  8
Ebene 1
 62
   179
420
  1709851
370
    18
100
AcDbVertex
100
AcDb2dVertex
 10
184.714651103995
 20
-93.39705536944588
 30
0.0
  0
SEQEND
  5
491
330
48E
100
AcDbEntity
  8
Ebene 1
370
    18
  0
POLYLINE
  5
492
330
1F
100
AcDbEntity
  8
Ebene 1
 62
   179
420
  1709851
370
    18
100
AcDb2dPolyline
 66
     1
 10
0.0
 20
0.0
 30
0.0
  0
VERTEX
  5
493
330
492
100
AcDbEntity
  8
Ebene 1
 62
   179
420
  1709851
370
    18
100
AcDbVertex
100
AcDb2dVertex
 10
184.714651103995
 20
-102.3928887005302
 30
0.0
  0
VERTEX
  5
494
330
492
100
AcDbEntity
  8
Ebene 1
 62
   179
420
  1709851
370
    18
100
AcDbVertex
100
AcDb2dVertex
 10
184.714651103995
 20
-101.3979451243901
 30
0.0
  0
SEQEND
  5
495
330
492
100
AcDbEntity
  8
Ebene 1
370
    18
  0
POLYLINE
  5
496
330
1F
100
AcDbEntity
  8
Ebene 1
 62
   179
420
  1709851
370
    18
100
AcDb2dPolyline
 66
     1
 10
0.0
 20
0.0
 30
0.0
  0
VERTEX
  5
497
330
496
100
AcDbEntity
  8
Ebene 1
 62
   179
420
  1709851
370
    18
100
AcDbVertex
100
AcDb2dVertex
 10
184.714651103995
 20
-110.3937784554745
 30
0.0
  0
VERTEX
  5
498
330
496
100
AcDbEntity
  8
Ebene 1
 62
   179
420
  1709851
370
    18
100
AcDbVertex
100
AcDb2dVertex
 10
184.714651103995
 20
-103.3878322766704
 30
0.0
  0
SEQEND
  5
499
330
496
100
AcDbEntity
  8
Ebene 1
370
    18
  0
POLYLINE
  5
49A
330
1F
100
AcDbEntity
  8
Ebene 1
 62
   179
420
  1709851
370
    18
100
AcDb2dPolyline
 66
     1
 10
0.0
 20
0.0
 30
0.0
  0
VERTEX
  5
49B
330
49A
100
AcDbEntity
  8
Ebene 1
 62
   179
420
  1709851
370
    18
100
AcDbVertex
100
AcDb2dVertex
 10
184.714651103995
 20
-112.4046806902148
 30
0.0
  0
VERTEX
  5
49C
330
49A
100
AcDbEntity
  8
Ebene 1
 62
   179
420
  1709851
370
    18
100
AcDbVertex
100
AcDb2dVertex
 10
184.714651103995
 20
-111.3887220316146
 30
0.0
  0
SEQEND
  5
49D
330
49A
100
AcDbEntity
  8
Ebene 1
370
    18
  0
POLYLINE
  5
49E
330
1F
100
AcDbEntity
  8
Ebene 1
 62
   179
420
  1709851
370
    18
100
AcDb2dPolyline
 66
     1
 10
0.0
 20
0.0
 30
0.0
  0
VERTEX
  5
49F
330
49E
100
AcDbEntity
  8
Ebene 1
 62
   179
420
  1709851
370
    18
100
AcDbVertex
100
AcDb2dVertex
 10
184.714651103995
 20
-120.405570445159
 30
0.0
  0
VERTEX
  5
4A0
330
49E
100
AcDbEntity
  8
Ebene 1
 62
   179
420
  1709851
370
    18
100
AcDbVertex
100
AcDb2dVertex
 10
184.714651103995
 20
-113.399624266355
 30
0.0
  0
SEQEND
  5
4A1
330
49E
100
AcDbEntity
  8
Ebene 1
370
    18
  0
POLYLINE
  5
4A2
330
1F
100
AcDbEntity
  8
Ebene 1
 62
   179
420
  1709851
370
    18
100
AcDb2dPolyline
 66
     1
 10
0.0
 20
0.0
 30
0.0
  0
VERTEX
  5
4A3
330
4A2
100
AcDbEntity
  8
Ebene 1
 62
   179
420
  1709851
370
    18
100
AcDbVertex
100
AcDb2dVertex
 10
184.714651103995
 20
-122.3954575974393
 30
0.0
  0
VERTEX
  5
4A4
330
4A2
100
AcDbEntity
  8
Ebene 1
 62
   179
420
  1709851
370
    18
100
AcDbVertex
100
AcDb2dVertex
 10
184.714651103995
 20
-121.4005140212992
 30
0.0
  0
SEQEND
  5
4A5
330
4A2
100
AcDbEntity
  8
Ebene 1
370
    18
  0
POLYLINE
  5
4A6
330
1F
100
AcDbEntity
  8
Ebene 1
 62
   179
420
  1709851
370
    18
100
AcDb2dPolyline
 66
     1
 10
0.0
 20
0.0
 30
0.0
  0
VERTEX
  5
4A7
330
4A6
100
AcDbEntity
  8
Ebene 1
 62
   179
420
  1709851
370
    18
100
AcDbVertex
100
AcDb2dVertex
 10
184.714651103995
 20
-130.3963473523836
 30
0.0
  0
VERTEX
  5
4A8
330
4A6
100
AcDbEntity
  8
Ebene 1
 62
   179
420
  1709851
370
    18
100
AcDbVertex
100
AcDb2dVertex
 10
184.714651103995
 20
-123.390056664031
 30
0.0
  0
SEQEND
  5
4A9
330
4A6
100
AcDbEntity
  8
Ebene 1
370
    18
  0
POLYLINE
  5
4AA
330
1F
100
AcDbEntity
  8
Ebene 1
 62
   179
420
  1709851
370
    18
100
AcDb2dPolyline
 66
     1
 10
0.0
 20
0.0
 30
0.0
  0
VERTEX
  5
4AB
330
4AA
100
AcDbEntity
  8
Ebene 1
 62
   179
420
  1709851
370
    18
100
AcDbVertex
100
AcDb2dVertex
 10
184.714651103995
 20
-132.3858899951153
 30
0.0
  0
VERTEX
  5
4AC
330
4AA
100
AcDbEntity
  8
Ebene 1
 62
   179
420
  1709851
370
    18
100
AcDbVertex
100
AcDb2dVertex
 10
184.714651103995
 20
-131.3912909285237
 30
0.0
  0
SEQEND
  5
4AD
330
4AA
100
AcDbEntity
  8
Ebene 1
370
    18
  0
POLYLINE
  5
4AE
330
1F
100
AcDbEntity
  8
Ebene 1
 62
   179
420
  1709851
370
    18
100
AcDb2dPolyline
 66
     1
 10
0.0
 20
0.0
 30
0.0
  0
VERTEX
  5
4AF
330
4AE
100
AcDbEntity
  8
Ebene 1
 62
   179
420
  1709851
370
    18
100
AcDbVertex
100
AcDb2dVertex
 10
184.714651103995
 20
-140.3871242596081
 30
0.0
  0
VERTEX
  5
4B0
330
4AE
100
AcDbEntity
  8
Ebene 1
 62
   179
420
  1709851
370
    18
100
AcDbVertex
100
AcDb2dVertex
 10
184.714651103995
 20
-133.4018486537155
 30
0.0
  0
SEQEND
  5
4B1
330
4AE
100
AcDbEntity
  8
Ebene 1
370
    18
  0
POLYLINE
  5
4B2
330
1F
100
AcDbEntity
  8
Ebene 1
 62
   179
420
  1709851
370
    18
100
AcDb2dPolyline
 66
     1
 10
0.0
 20
0.0
 30
0.0
  0
VERTEX
  5
4B3
330
4B2
100
AcDbEntity
  8
Ebene 1
 62
   179
420
  1709851
370
    18
100
AcDbVertex
100
AcDb2dVertex
 10
184.714651103995
 20
-142.3976819847999
 30
0.0
  0
VERTEX
  5
4B4
330
4B2
100
AcDbEntity
  8
Ebene 1
 62
   179
420
  1709851
370
    18
100
AcDbVertex
100
AcDb2dVertex
 10
184.714651103995
 20
-141.4030829182083
 30
0.0
  0
SEQEND
  5
4B5
330
4B2
100
AcDbEntity
  8
Ebene 1
370
    18
  0
POLYLINE
  5
4B6
330
1F
100
AcDbEntity
  8
Ebene 1
 62
   179
420
  1709851
370
    18
100
AcDb2dPolyline
 66
     1
 10
0.0
 20
0.0
 30
0.0
  0
VERTEX
  5
4B7
330
4B6
100
AcDbEntity
  8
Ebene 1
 62
   179
420
  1709851
370
    18
100
AcDbVertex
100
AcDb2dVertex
 10
184.714651103995
 20
-150.3990885040669
 30
0.0
  0
VERTEX
  5
4B8
330
4B6
100
AcDbEntity
  8
Ebene 1
 62
   179
420
  1709851
370
    18
100
AcDbVertex
100
AcDb2dVertex
 10
184.714651103995
 20
-143.39262556094
 30
0.0
  0
SEQEND
  5
4B9
330
4B6
100
AcDbEntity
  8
Ebene 1
370
    18
  0
POLYLINE
  5
4BA
330
1F
100
AcDbEntity
  8
Ebene 1
 62
   179
420
  1709851
370
    18
100
AcDb2dPolyline
 66
     1
 10
0.0
 20
0.0
 30
0.0
  0
VERTEX
  5
4BB
330
4BA
100
AcDbEntity
  8
Ebene 1
 62
   179
420
  1709851
370
    18
100
AcDbVertex
100
AcDb2dVertex
 10
184.714651103995
 20
-152.3882866372502
 30
0.0
  0
VERTEX
  5
4BC
330
4BA
100
AcDbEntity
  8
Ebene 1
 62
   179
420
  1709851
370
    18
100
AcDbVertex
100
AcDb2dVertex
 10
184.714651103995
 20
-151.39334306111
 30
0.0
  0
SEQEND
  5
4BD
330
4BA
100
AcDbEntity
  8
Ebene 1
370
    18
  0
POLYLINE
  5
4BE
330
1F
100
AcDbEntity
  8
Ebene 1
 62
   179
420
  1709851
370
    18
100
AcDb2dPolyline
 66
     1
 10
0.0
 20
0.0
 30
0.0
  0
VERTEX
  5
4BF
330
4BE
100
AcDbEntity
  8
Ebene 1
 62
   179
420
  1709851
370
    18
100
AcDbVertex
100
AcDb2dVertex
 10
184.714651103995
 20
-160.3891763921944
 30
0.0
  0
VERTEX
  5
4C0
330
4BE
100
AcDbEntity
  8
Ebene 1
 62
   179
420
  1709851
370
    18
100
AcDbVertex
100
AcDb2dVertex
 10
184.714651103995
 20
-153.3832302133903
 30
0.0
  0
SEQEND
  5
4C1
330
4BE
100
AcDbEntity
  8
Ebene 1
370
    18
  0
POLYLINE
  5
4C2
330
1F
100
AcDbEntity
  8
Ebene 1
 62
   179
420
  1709851
370
    18
100
AcDb2dPolyline
 66
     1
 10
0.0
 20
0.0
 30
0.0
  0
VERTEX
  5
4C3
330
4C2
100
AcDbEntity
  8
Ebene 1
 62
   179
420
  1709851
370
    18
100
AcDbVertex
100
AcDb2dVertex
 10
184.714651103995
 20
-162.4004231364832
 30
0.0
  0
VERTEX
  5
4C4
330
4C2
100
AcDbEntity
  8
Ebene 1
 62
   179
420
  1709851
370
    18
100
AcDbVertex
100
AcDb2dVertex
 10
184.714651103995
 20
-161.3841199683345
 30
0.0
  0
SEQEND
  5
4C5
330
4C2
100
AcDbEntity
  8
Ebene 1
370
    18
  0
POLYLINE
  5
4C6
330
1F
100
AcDbEntity
  8
Ebene 1
 62
   179
420
  1709851
370
    18
100
AcDb2dPolyline
 66
     1
 10
0.0
 20
0.0
 30
0.0
  0
VERTEX
  5
4C7
330
4C6
100
AcDbEntity
  8
Ebene 1
 62
   179
420
  1709851
370
    18
100
AcDbVertex
100
AcDb2dVertex
 10
184.714651103995
 20
-170.4013128914275
 30
0.0
  0
VERTEX
  5
4C8
330
4C6
100
AcDbEntity
  8
Ebene 1
 62
   179
420
  1709851
370
    18
100
AcDbVertex
100
AcDb2dVertex
 10
184.714651103995
 20
-163.3953667126234
 30
0.0
  0
SEQEND
  5
4C9
330
4C6
100
AcDbEntity
  8
Ebene 1
370
    18
  0
POLYLINE
  5
4CA
330
1F
100
AcDbEntity
  8
Ebene 1
 62
   179
420
  1709851
370
    18
100
AcDb2dPolyline
 66
     1
 10
0.0
 20
0.0
 30
0.0
  0
VERTEX
  5
4CB
330
4CA
100
AcDbEntity
  8
Ebene 1
 62
   179
420
  1709851
370
    18
100
AcDbVertex
100
AcDb2dVertex
 10
184.714651103995
 20
-172.3912000437078
 30
0.0
  0
VERTEX
  5
4CC
330
4CA
100
AcDbEntity
  8
Ebene 1
 62
   179
420
  1709851
370
    18
100
AcDbVertex
100
AcDb2dVertex
 10
184.714651103995
 20
-171.3962564675676
 30
0.0
  0
SEQEND
  5
4CD
330
4CA
100
AcDbEntity
  8
Ebene 1
370
    18
  0
POLYLINE
  5
4CE
330
1F
100
AcDbEntity
  8
Ebene 1
 62
   179
420
  1709851
370
    18
100
AcDb2dPolyline
 66
     1
 10
0.0
 20
0.0
 30
0.0
  0
VERTEX
  5
4CF
330
4CE
100
AcDbEntity
  8
Ebene 1
 62
   179
420
  1709851
370
    18
100
AcDbVertex
100
AcDb2dVertex
 10
184.714651103995
 20
-178.5296711793259
 30
0.0
  0
VERTEX
  5
4D0
330
4CE
100
AcDbEntity
  8
Ebene 1
 62
   179
420
  1709851
370
    18
100
AcDbVertex
100
AcDb2dVertex
 10
184.714651103995
 20
-178.5296711793259
 30
0.0
  0
VERTEX
  5
4D1
330
4CE
100
AcDbEntity
  8
Ebene 1
 62
   179
420
  1709851
370
    18
100
AcDbVertex
100
AcDb2dVertex
 10
184.714651103995
 20
-173.3861436198479
 30
0.0
  0
SEQEND
  5
4D2
330
4CE
100
AcDbEntity
  8
Ebene 1
370
    18
  0
POLYLINE
  5
4D3
330
1F
100
AcDbEntity
  8
Ebene 1
 62
   179
420
  1709851
370
    25
100
AcDb2dPolyline
 66
     1
 10
0.0
 20
0.0
 30
0.0
  0
VERTEX
  5
4D4
330
4D3
100
AcDbEntity
  8
Ebene 1
 62
   179
420
  1709851
370
    25
100
AcDbVertex
100
AcDb2dVertex
 10
153.8111110726583
 20
-171.8406737851649
 30
0.0
  0
VERTEX
  5
4D5
330
4D3
100
AcDbEntity
  8
Ebene 1
 62
   179
420
  1709851
370
    25
100
AcDbVertex
100
AcDb2dVertex
 10
184.714651103995
 20
-171.8406737851649
 30
0.0
  0
SEQEND
  5
4D6
330
4D3
100
AcDbEntity
  8
Ebene 1
370
    25
  0
POLYLINE
  5
4D7
330
1F
100
AcDbEntity
  8
Ebene 1
 62
   179
420
  1709851
370
    18
100
AcDb2dPolyline
 66
     1
 10
0.0
 20
0.0
 30
0.0
  0
VERTEX
  5
4D8
330
4D7
100
AcDbEntity
  8
Ebene 1
 62
   179
420
  1709851
370
    18
100
AcDbVertex
100
AcDb2dVertex
 10
52.2112833528326
 20
-174.5498968747653
 30
0.0
  0
VERTEX
  5
4D9
330
4D7
100
AcDbEntity
  8
Ebene 1
 62
   179
420
  1709851
370
    18
100
AcDbVertex
100
AcDb2dVertex
 10
53.81997068967001
 20
-174.5498968747653
 30
0.0
  0
SEQEND
  5
4DA
330
4D7
100
AcDbEntity
  8
Ebene 1
370
    18
  0
POLYLINE
  5
4DB
330
1F
100
AcDbEntity
  8
Ebene 1
 62
   179
420
  1709851
370
    18
100
AcDb2dPolyline
 66
     1
 10
0.0
 20
0.0
 30
0.0
  0
VERTEX
  5
4DC
330
4DB
100
AcDbEntity
  8
Ebene 1
 62
   179
420
  1709851
370
    18
100
AcDbVertex
100
AcDb2dVertex
 10
55.21695690893882
 20
-171.2901475266219
 30
0.0
  0
VERTEX
  5
4DD
330
4DB
100
AcDbEntity
  8
Ebene 1
 62
   179
420
  1709851
370
    18
100
AcDbVertex
100
AcDb2dVertex
 10
56.97378335164198
 20
-171.2901475266219
 30
0.0
  0
SEQEND
  5
4DE
330
4DB
100
AcDbEntity
  8
Ebene 1
370
    18
  0
POLYLINE
  5
4DF
330
1F
100
AcDbEntity
  8
Ebene 1
 62
   179
420
  1709851
370
    18
100
AcDb2dPolyline
 66
     1
 10
0.0
 20
0.0
 30
0.0
  0
VERTEX
  5
4E0
330
4DF
100
AcDbEntity
  8
Ebene 1
 62
   179
420
  1709851
370
    18
100
AcDbVertex
100
AcDb2dVertex
 10
56.67733288513622
 20
-171.0999782558361
 30
0.0
  0
VERTEX
  5
4E1
330
4DF
100
AcDbEntity
  8
Ebene 1
 62
   179
420
  1709851
370
    18
100
AcDbVertex
100
AcDb2dVertex
 10
56.95259601440769
 20
-171.2687879346134
 30
0.0
  0
VERTEX
  5
4E2
330
4DF
100
AcDbEntity
  8
Ebene 1
 62
   179
420
  1709851
370
    18
100
AcDbVertex
100
AcDb2dVertex
 10
57.54515243787066
 20
-171.649815495282
 30
0.0
  0
SEQEND
  5
4E3
330
4DF
100
AcDbEntity
  8
Ebene 1
370
    18
  0
POLYLINE
  5
4E4
330
1F
100
AcDbEntity
  8
Ebene 1
 62
   179
420
  1709851
370
    18
100
AcDb2dPolyline
 66
     1
 10
0.0
 20
0.0
 30
0.0
  0
VERTEX
  5
4E5
330
4E4
100
AcDbEntity
  8
Ebene 1
 62
   179
420
  1709851
370
    18
100
AcDbVertex
100
AcDb2dVertex
 10
57.8627902416107
 20
-171.1420084207562
 30
0.0
  0
VERTEX
  5
4E6
330
4E4
100
AcDbEntity
  8
Ebene 1
 62
   179
420
  1709851
370
    18
100
AcDbVertex
100
AcDb2dVertex
 10
57.77804089267354
 20
-171.0999782558361
 30
0.0
  0
SEQEND
  5
4E7
330
4E4
100
AcDbEntity
  8
Ebene 1
370
    18
  0
POLYLINE
  5
4E8
330
1F
100
AcDbEntity
  8
Ebene 1
 62
   179
420
  1709851
370
    18
100
AcDb2dPolyline
 66
     1
 10
0.0
 20
0.0
 30
0.0
  0
VERTEX
  5
4E9
330
4E8
100
AcDbEntity
  8
Ebene 1
 62
   179
420
  1709851
370
    18
100
AcDbVertex
100
AcDb2dVertex
 10
58.94213865713947
 20
-171.0999782558361
 30
0.0
  0
VERTEX
  5
4EA
330
4E8
100
AcDbEntity
  8
Ebene 1
 62
   179
420
  1709851
370
    18
100
AcDbVertex
100
AcDb2dVertex
 10
58.30720755920792
 20
-171.2267577696933
 30
0.0
  0
SEQEND
  5
4EB
330
4E8
100
AcDbEntity
  8
Ebene 1
370
    18
  0
POLYLINE
  5
4EC
330
1F
100
AcDbEntity
  8
Ebene 1
 62
   179
420
  1709851
370
    18
100
AcDb2dPolyline
 66
     1
 10
0.0
 20
0.0
 30
0.0
  0
VERTEX
  5
4ED
330
4EC
100
AcDbEntity
  8
Ebene 1
 62
   179
420
  1709851
370
    18
100
AcDbVertex
100
AcDb2dVertex
 10
61.90560979355138
 20
-171.0999782558361
 30
0.0
  0
VERTEX
  5
4EE
330
4EC
100
AcDbEntity
  8
Ebene 1
 62
   179
420
  1709851
370
    18
100
AcDbVertex
100
AcDb2dVertex
 10
61.73628335045135
 20
-171.0999782558361
 30
0.0
  0
SEQEND
  5
4EF
330
4EC
100
AcDbEntity
  8
Ebene 1
370
    18
  0
POLYLINE
  5
4F0
330
1F
100
AcDbEntity
  8
Ebene 1
 62
   179
420
  1709851
370
    18
100
AcDb2dPolyline
 66
     1
 10
0.0
 20
0.0
 30
0.0
  0
VERTEX
  5
4F1
330
4F0
100
AcDbEntity
  8
Ebene 1
 62
   179
420
  1709851
370
    18
100
AcDbVertex
100
AcDb2dVertex
 10
58.43415932783938
 20
-171.8193141931563
 30
0.0
  0
VERTEX
  5
4F2
330
4F0
100
AcDbEntity
  8
Ebene 1
 62
   179
420
  1709851
370
    18
100
AcDbVertex
100
AcDb2dVertex
 10
61.73628335045135
 20
-171.0999782558361
 30
0.0
  0
SEQEND
  5
4F3
330
4F0
100
AcDbEntity
  8
Ebene 1
370
    18
  0
POLYLINE
  5
4F4
330
1F
100
AcDbEntity
  8
Ebene 1
 62
   179
420
  1709851
370
    18
100
AcDb2dPolyline
 66
     1
 10
0.0
 20
0.0
 30
0.0
  0
VERTEX
  5
4F5
330
4F4
100
AcDbEntity
  8
Ebene 1
 62
   179
420
  1709851
370
    18
100
AcDbVertex
100
AcDb2dVertex
 10
57.8627902416107
 20
-171.1420084207562
 30
0.0
  0
VERTEX
  5
4F6
330
4F4
100
AcDbEntity
  8
Ebene 1
 62
   179
420
  1709851
370
    18
100
AcDbVertex
100
AcDb2dVertex
 10
58.07431910440503
 20
-171.2267577696933
 30
0.0
  0
VERTEX
  5
4F7
330
4F4
100
AcDbEntity
  8
Ebene 1
 62
   179
420
  1709851
370
    18
100
AcDbVertex
100
AcDb2dVertex
 10
58.13788111610789
 20
-171.2481173617019
 30
0.0
  0
SEQEND
  5
4F8
330
4F4
100
AcDbEntity
  8
Ebene 1
370
    18
  0
POLYLINE
  5
4F9
330
1F
100
AcDbEntity
  8
Ebene 1
 62
   179
420
  1709851
370
    18
100
AcDb2dPolyline
 66
     1
 10
0.0
 20
0.0
 30
0.0
  0
VERTEX
  5
4FA
330
4F9
100
AcDbEntity
  8
Ebene 1
 62
   179
420
  1709851
370
    18
100
AcDbVertex
100
AcDb2dVertex
 10
58.13788111610789
 20
-171.2481173617019
 30
0.0
  0
VERTEX
  5
4FB
330
4F9
100
AcDbEntity
  8
Ebene 1
 62
   179
420
  1709851
370
    18
100
AcDbVertex
100
AcDb2dVertex
 10
58.30720755920792
 20
-171.2267577696933
 30
0.0
  0
SEQEND
  5
4FC
330
4F9
100
AcDbEntity
  8
Ebene 1
370
    18
  0
POLYLINE
  5
4FD
330
1F
100
AcDbEntity
  8
Ebene 1
 62
   179
420
  1709851
370
    18
100
AcDb2dPolyline
 66
     1
 10
0.0
 20
0.0
 30
0.0
  0
VERTEX
  5
4FE
330
4FD
100
AcDbEntity
  8
Ebene 1
 62
   179
420
  1709851
370
    18
100
AcDbVertex
100
AcDb2dVertex
 10
57.54515243787066
 20
-171.649815495282
 30
0.0
  0
VERTEX
  5
4FF
330
4FD
100
AcDbEntity
  8
Ebene 1
 62
   179
420
  1709851
370
    18
100
AcDbVertex
100
AcDb2dVertex
 10
57.82041556714212
 20
-171.7979546011478
 30
0.0
  0
VERTEX
  5
500
330
4FD
100
AcDbEntity
  8
Ebene 1
 62
   179
420
  1709851
370
    18
100
AcDbVertex
100
AcDb2dVertex
 10
58.1166937788736
 20
-171.8406737851649
 30
0.0
  0
VERTEX
  5
501
330
4FD
100
AcDbEntity
  8
Ebene 1
 62
   179
420
  1709851
370
    18
100
AcDbVertex
100
AcDb2dVertex
 10
58.41297199060509
 20
-171.8193141931563
 30
0.0
  0
VERTEX
  5
502
330
4FD
100
AcDbEntity
  8
Ebene 1
 62
   179
420
  1709851
370
    18
100
AcDbVertex
100
AcDb2dVertex
 10
58.43415932783938
 20
-171.8193141931563
 30
0.0
  0
SEQEND
  5
503
330
4FD
100
AcDbEntity
  8
Ebene 1
370
    18
  0
POLYLINE
  5
504
330
1F
100
AcDbEntity
  8
Ebene 1
 62
   179
420
  1709851
370
    18
100
AcDb2dPolyline
 66
     1
 10
0.0
 20
0.0
 30
0.0
  0
VERTEX
  5
505
330
504
100
AcDbEntity
  8
Ebene 1
 62
   179
420
  1709851
370
    18
100
AcDbVertex
100
AcDb2dVertex
 10
49.05747069086063
 20
-171.2901475266219
 30
0.0
  0
VERTEX
  5
506
330
504
100
AcDbEntity
  8
Ebene 1
 62
   179
420
  1709851
370
    18
100
AcDbVertex
100
AcDb2dVertex
 10
50.81429713356379
 20
-171.2901475266219
 30
0.0
  0
SEQEND
  5
507
330
504
100
AcDbEntity
  8
Ebene 1
370
    18
  0
POLYLINE
  5
508
330
1F
100
AcDbEntity
  8
Ebene 1
 62
   179
420
  1709851
370
    18
100
AcDb2dPolyline
 66
     1
 10
0.0
 20
0.0
 30
0.0
  0
VERTEX
  5
509
330
508
100
AcDbEntity
  8
Ebene 1
 62
   179
420
  1709851
370
    18
100
AcDbVertex
100
AcDb2dVertex
 10
49.35374890259212
 20
-171.0999782558361
 30
0.0
  0
VERTEX
  5
50A
330
508
100
AcDbEntity
  8
Ebene 1
 62
   179
420
  1709851
370
    18
100
AcDbVertex
100
AcDb2dVertex
 10
49.09967311055495
 20
-171.2687879346134
 30
0.0
  0
VERTEX
  5
50B
330
508
100
AcDbEntity
  8
Ebene 1
 62
   179
420
  1709851
370
    18
100
AcDbVertex
100
AcDb2dVertex
 10
48.50711668709197
 20
-171.649815495282
 30
0.0
  0
SEQEND
  5
50C
330
508
100
AcDbEntity
  8
Ebene 1
370
    18
  0
POLYLINE
  5
50D
330
1F
100
AcDbEntity
  8
Ebene 1
 62
   179
420
  1709851
370
    18
100
AcDb2dPolyline
 66
     1
 10
0.0
 20
0.0
 30
0.0
  0
VERTEX
  5
50E
330
50D
100
AcDbEntity
  8
Ebene 1
 62
   179
420
  1709851
370
    18
100
AcDbVertex
100
AcDb2dVertex
 10
48.16846380089191
 20
-171.1420084207562
 30
0.0
  0
VERTEX
  5
50F
330
50D
100
AcDbEntity
  8
Ebene 1
 62
   179
420
  1709851
370
    18
100
AcDbVertex
100
AcDb2dVertex
 10
48.2530408950548
 20
-171.0999782558361
 30
0.0
  0
SEQEND
  5
510
330
50D
100
AcDbEntity
  8
Ebene 1
370
    18
  0
POLYLINE
  5
511
330
1F
100
AcDbEntity
  8
Ebene 1
 62
   179
420
  1709851
370
    18
100
AcDb2dPolyline
 66
     1
 10
0.0
 20
0.0
 30
0.0
  0
VERTEX
  5
512
330
511
100
AcDbEntity
  8
Ebene 1
 62
   179
420
  1709851
370
    18
100
AcDbVertex
100
AcDb2dVertex
 10
47.08894313058888
 20
-171.0999782558361
 30
0.0
  0
VERTEX
  5
513
330
511
100
AcDbEntity
  8
Ebene 1
 62
   179
420
  1709851
370
    18
100
AcDbVertex
100
AcDb2dVertex
 10
47.72387422852042
 20
-171.2267577696933
 30
0.0
  0
SEQEND
  5
514
330
511
100
AcDbEntity
  8
Ebene 1
370
    18
  0
POLYLINE
  5
515
330
1F
100
AcDbEntity
  8
Ebene 1
 62
   179
420
  1709851
370
    18
100
AcDb2dPolyline
 66
     1
 10
0.0
 20
0.0
 30
0.0
  0
VERTEX
  5
516
330
515
100
AcDbEntity
  8
Ebene 1
 62
   179
420
  1709851
370
    18
100
AcDbVertex
100
AcDb2dVertex
 10
47.59692245988897
 20
-171.8193141931563
 30
0.0
  0
VERTEX
  5
517
330
515
100
AcDbEntity
  8
Ebene 1
 62
   179
420
  1709851
370
    18
100
AcDbVertex
100
AcDb2dVertex
 10
44.29497069205126
 20
-171.0999782558361
 30
0.0
  0
VERTEX
  5
518
330
515
100
AcDbEntity
  8
Ebene 1
 62
   179
420
  1709851
370
    18
100
AcDbVertex
100
AcDb2dVertex
 10
44.12547199417697
 20
-171.0999782558361
 30
0.0
  0
SEQEND
  5
519
330
515
100
AcDbEntity
  8
Ebene 1
370
    18
  0
POLYLINE
  5
51A
330
1F
100
AcDbEntity
  8
Ebene 1
 62
   179
420
  1709851
370
    18
100
AcDb2dPolyline
 66
     1
 10
0.0
 20
0.0
 30
0.0
  0
VERTEX
  5
51B
330
51A
100
AcDbEntity
  8
Ebene 1
 62
   179
420
  1709851
370
    18
100
AcDbVertex
100
AcDb2dVertex
 10
47.72387422852042
 20
-171.2267577696933
 30
0.0
  0
VERTEX
  5
51C
330
51A
100
AcDbEntity
  8
Ebene 1
 62
   179
420
  1709851
370
    18
100
AcDbVertex
100
AcDb2dVertex
 10
47.89320067162046
 20
-171.2481173617019
 30
0.0
  0
VERTEX
  5
51D
330
51A
100
AcDbEntity
  8
Ebene 1
 62
   179
420
  1709851
370
    18
100
AcDbVertex
100
AcDb2dVertex
 10
48.10490178918906
 20
-171.1847276047733
 30
0.0
  0
VERTEX
  5
51E
330
51A
100
AcDbEntity
  8
Ebene 1
 62
   179
420
  1709851
370
    18
100
AcDbVertex
100
AcDb2dVertex
 10
48.16846380089191
 20
-171.1420084207562
 30
0.0
  0
SEQEND
  5
51F
330
51A
100
AcDbEntity
  8
Ebene 1
370
    18
  0
POLYLINE
  5
520
330
1F
100
AcDbEntity
  8
Ebene 1
 62
   179
420
  1709851
370
    18
100
AcDb2dPolyline
 66
     1
 10
0.0
 20
0.0
 30
0.0
  0
VERTEX
  5
521
330
520
100
AcDbEntity
  8
Ebene 1
 62
   179
420
  1709851
370
    18
100
AcDbVertex
100
AcDb2dVertex
 10
47.59692245988897
 20
-171.8193141931563
 30
0.0
  0
VERTEX
  5
522
330
520
100
AcDbEntity
  8
Ebene 1
 62
   179
420
  1709851
370
    18
100
AcDbVertex
100
AcDb2dVertex
 10
47.91438800885474
 20
-171.8406737851649
 30
0.0
  0
VERTEX
  5
523
330
520
100
AcDbEntity
  8
Ebene 1
 62
   179
420
  1709851
370
    18
100
AcDbVertex
100
AcDb2dVertex
 10
47.93557534608902
 20
-171.8406737851649
 30
0.0
  0
SEQEND
  5
524
330
520
100
AcDbEntity
  8
Ebene 1
370
    18
  0
POLYLINE
  5
525
330
1F
100
AcDbEntity
  8
Ebene 1
 62
   179
420
  1709851
370
    18
100
AcDb2dPolyline
 66
     1
 10
0.0
 20
0.0
 30
0.0
  0
VERTEX
  5
526
330
525
100
AcDbEntity
  8
Ebene 1
 62
   179
420
  1709851
370
    18
100
AcDbVertex
100
AcDb2dVertex
 10
47.93557534608902
 20
-171.8406737851649
 30
0.0
  0
VERTEX
  5
527
330
525
100
AcDbEntity
  8
Ebene 1
 62
   179
420
  1709851
370
    18
100
AcDbVertex
100
AcDb2dVertex
 10
48.23185355782051
 20
-171.7772840282362
 30
0.0
  0
VERTEX
  5
528
330
525
100
AcDbEntity
  8
Ebene 1
 62
   179
420
  1709851
370
    18
100
AcDbVertex
100
AcDb2dVertex
 10
48.50711668709197
 20
-171.649815495282
 30
0.0
  0
SEQEND
  5
529
330
525
100
AcDbEntity
  8
Ebene 1
370
    18
  0
POLYLINE
  5
52A
330
1F
100
AcDbEntity
  8
Ebene 1
 62
   179
420
  1709851
370
    18
100
AcDb2dPolyline
 66
     1
 10
0.0
 20
0.0
 30
0.0
  0
VERTEX
  5
52B
330
52A
100
AcDbEntity
  8
Ebene 1
 62
   179
420
  1709851
370
    18
100
AcDbVertex
100
AcDb2dVertex
 10
52.31704778422977
 20
-171.6925346792991
 30
0.0
  0
VERTEX
  5
52C
330
52A
100
AcDbEntity
  8
Ebene 1
 62
   179
420
  1709851
370
    18
100
AcDbVertex
100
AcDb2dVertex
 10
52.31704778422977
 20
-173.153255165045
 30
0.0
  0
SEQEND
  5
52D
330
52A
100
AcDbEntity
  8
Ebene 1
370
    18
  0
POLYLINE
  5
52E
330
1F
100
AcDbEntity
  8
Ebene 1
 62
   179
420
  1709851
370
    18
100
AcDb2dPolyline
 66
     1
 10
0.0
 20
0.0
 30
0.0
  0
VERTEX
  5
52F
330
52E
100
AcDbEntity
  8
Ebene 1
 62
   179
420
  1709851
370
    18
100
AcDbVertex
100
AcDb2dVertex
 10
52.2112833528326
 20
-173.2373154948851
 30
0.0
  0
VERTEX
  5
530
330
52E
100
AcDbEntity
  8
Ebene 1
 62
   179
420
  1709851
370
    18
100
AcDbVertex
100
AcDb2dVertex
 10
52.29586044699548
 20
-173.2166449219736
 30
0.0
  0
VERTEX
  5
531
330
52E
100
AcDbEntity
  8
Ebene 1
 62
   179
420
  1709851
370
    18
100
AcDbVertex
100
AcDb2dVertex
 10
52.31704778422977
 20
-173.153255165045
 30
0.0
  0
SEQEND
  5
532
330
52E
100
AcDbEntity
  8
Ebene 1
370
    18
  0
POLYLINE
  5
533
330
1F
100
AcDbEntity
  8
Ebene 1
 62
   179
420
  1709851
370
    18
100
AcDb2dPolyline
 66
     1
 10
0.0
 20
0.0
 30
0.0
  0
VERTEX
  5
534
330
533
100
AcDbEntity
  8
Ebene 1
 62
   179
420
  1709851
370
    18
100
AcDbVertex
100
AcDb2dVertex
 10
53.01554089386417
 20
-172.4545898006364
 30
0.0
  0
VERTEX
  5
535
330
533
100
AcDbEntity
  8
Ebene 1
 62
   179
420
  1709851
370
    18
100
AcDbVertex
100
AcDb2dVertex
 10
53.01554089386417
 20
-173.6183430555538
 30
0.0
  0
SEQEND
  5
536
330
533
100
AcDbEntity
  8
Ebene 1
370
    18
  0
POLYLINE
  5
537
330
1F
100
AcDbEntity
  8
Ebene 1
 62
   179
420
  1709851
370
    18
100
AcDb2dPolyline
 66
     1
 10
0.0
 20
0.0
 30
0.0
  0
VERTEX
  5
538
330
537
100
AcDbEntity
  8
Ebene 1
 62
   179
420
  1709851
370
    18
100
AcDbVertex
100
AcDb2dVertex
 10
53.71403400349858
 20
-173.153255165045
 30
0.0
  0
VERTEX
  5
539
330
537
100
AcDbEntity
  8
Ebene 1
 62
   179
420
  1709851
370
    18
100
AcDbVertex
100
AcDb2dVertex
 10
53.75640867796715
 20
-173.2166449219736
 30
0.0
  0
VERTEX
  5
53A
330
537
100
AcDbEntity
  8
Ebene 1
 62
   179
420
  1709851
370
    18
100
AcDbVertex
100
AcDb2dVertex
 10
53.81997068967001
 20
-173.2373154948851
 30
0.0
  0
SEQEND
  5
53B
330
537
100
AcDbEntity
  8
Ebene 1
370
    18
  0
POLYLINE
  5
53C
330
1F
100
AcDbEntity
  8
Ebene 1
 62
   179
420
  1709851
370
    18
100
AcDb2dPolyline
 66
     1
 10
0.0
 20
0.0
 30
0.0
  0
VERTEX
  5
53D
330
53C
100
AcDbEntity
  8
Ebene 1
 62
   179
420
  1709851
370
    18
100
AcDbVertex
100
AcDb2dVertex
 10
53.71403400349858
 20
-173.153255165045
 30
0.0
  0
VERTEX
  5
53E
330
53C
100
AcDbEntity
  8
Ebene 1
 62
   179
420
  1709851
370
    18
100
AcDbVertex
100
AcDb2dVertex
 10
53.71403400349858
 20
-171.6925346792991
 30
0.0
  0
SEQEND
  5
53F
330
53C
100
AcDbEntity
  8
Ebene 1
370
    18
  0
POLYLINE
  5
540
330
1F
100
AcDbEntity
  8
Ebene 1
 62
   179
420
  1709851
370
    18
100
AcDb2dPolyline
 66
     1
 10
0.0
 20
0.0
 30
0.0
  0
VERTEX
  5
541
330
540
100
AcDbEntity
  8
Ebene 1
 62
   179
420
  1709851
370
    18
100
AcDbVertex
100
AcDb2dVertex
 10
52.71926268213269
 20
-173.6397026475623
 30
0.0
  0
VERTEX
  5
542
330
540
100
AcDbEntity
  8
Ebene 1
 62
   179
420
  1709851
370
    18
100
AcDbVertex
100
AcDb2dVertex
 10
52.76163735660126
 20
-173.8092013454366
 30
0.0
  0
VERTEX
  5
543
330
540
100
AcDbEntity
  8
Ebene 1
 62
   179
420
  1709851
370
    18
100
AcDbVertex
100
AcDb2dVertex
 10
52.86740178799843
 20
-173.9146212672852
 30
0.0
  0
VERTEX
  5
544
330
540
100
AcDbEntity
  8
Ebene 1
 62
   179
420
  1709851
370
    18
100
AcDbVertex
100
AcDb2dVertex
 10
53.01554089386417
 20
-173.9359808592938
 30
0.0
  0
VERTEX
  5
545
330
540
100
AcDbEntity
  8
Ebene 1
 62
   179
420
  1709851
370
    18
100
AcDbVertex
100
AcDb2dVertex
 10
53.1848673369642
 20
-173.8939506943737
 30
0.0
  0
VERTEX
  5
546
330
540
100
AcDbEntity
  8
Ebene 1
 62
   179
420
  1709851
370
    18
100
AcDbVertex
100
AcDb2dVertex
 10
53.29080402313564
 20
-173.787841753428
 30
0.0
  0
VERTEX
  5
547
330
540
100
AcDbEntity
  8
Ebene 1
 62
   179
420
  1709851
370
    18
100
AcDbVertex
100
AcDb2dVertex
 10
53.31181910559566
 20
-173.6397026475623
 30
0.0
  0
SEQEND
  5
548
330
540
100
AcDbEntity
  8
Ebene 1
370
    18
  0
POLYLINE
  5
549
330
1F
100
AcDbEntity
  8
Ebene 1
 62
   179
420
  1709851
370
    18
100
AcDb2dPolyline
 66
     1
 10
0.0
 20
0.0
 30
0.0
  0
VERTEX
  5
54A
330
549
100
AcDbEntity
  8
Ebene 1
 62
   179
420
  1709851
370
    18
100
AcDbVertex
100
AcDb2dVertex
 10
52.71926268213269
 20
-173.6397026475623
 30
0.0
  0
VERTEX
  5
54B
330
549
100
AcDbEntity
  8
Ebene 1
 62
   179
420
  1709851
370
    18
100
AcDbVertex
100
AcDb2dVertex
 10
52.71926268213269
 20
-172.4545898006364
 30
0.0
  0
SEQEND
  5
54C
330
549
100
AcDbEntity
  8
Ebene 1
370
    18
  0
POLYLINE
  5
54D
330
1F
100
AcDbEntity
  8
Ebene 1
 62
   179
420
  1709851
370
    18
100
AcDb2dPolyline
 66
     1
 10
0.0
 20
0.0
 30
0.0
  0
VERTEX
  5
54E
330
54D
100
AcDbEntity
  8
Ebene 1
 62
   179
420
  1709851
370
    18
100
AcDbVertex
100
AcDb2dVertex
 10
53.31181910559566
 20
-172.4545898006364
 30
0.0
  0
VERTEX
  5
54F
330
54D
100
AcDbEntity
  8
Ebene 1
 62
   179
420
  1709851
370
    18
100
AcDbVertex
100
AcDb2dVertex
 10
53.31181910559566
 20
-173.6397026475623
 30
0.0
  0
SEQEND
  5
550
330
54D
100
AcDbEntity
  8
Ebene 1
370
    18
  0
POLYLINE
  5
551
330
1F
100
AcDbEntity
  8
Ebene 1
 62
   179
420
  1709851
370
    18
100
AcDb2dPolyline
 66
     1
 10
0.0
 20
0.0
 30
0.0
  0
VERTEX
  5
552
330
551
100
AcDbEntity
  8
Ebene 1
 62
   179
420
  1709851
370
    18
100
AcDbVertex
100
AcDb2dVertex
 10
53.31181910559566
 20
-172.4545898006364
 30
0.0
  0
VERTEX
  5
553
330
551
100
AcDbEntity
  8
Ebene 1
 62
   179
420
  1709851
370
    18
100
AcDbVertex
100
AcDb2dVertex
 10
53.26961668590135
 20
-172.2850911027621
 30
0.0
  0
VERTEX
  5
554
330
551
100
AcDbEntity
  8
Ebene 1
 62
   179
420
  1709851
370
    18
100
AcDbVertex
100
AcDb2dVertex
 10
53.16367999972991
 20
-172.1789821618164
 30
0.0
  0
VERTEX
  5
555
330
551
100
AcDbEntity
  8
Ebene 1
 62
   179
420
  1709851
370
    18
100
AcDbVertex
100
AcDb2dVertex
 10
53.01554089386417
 20
-172.1369519968963
 30
0.0
  0
VERTEX
  5
556
330
551
100
AcDbEntity
  8
Ebene 1
 62
   179
420
  1709851
370
    18
100
AcDbVertex
100
AcDb2dVertex
 10
52.86740178799843
 20
-172.2003417538249
 30
0.0
  0
VERTEX
  5
557
330
551
100
AcDbEntity
  8
Ebene 1
 62
   179
420
  1709851
370
    18
100
AcDbVertex
100
AcDb2dVertex
 10
52.74045001936697
 20
-172.3064506947706
 30
0.0
  0
VERTEX
  5
558
330
551
100
AcDbEntity
  8
Ebene 1
 62
   179
420
  1709851
370
    18
100
AcDbVertex
100
AcDb2dVertex
 10
52.71926268213269
 20
-172.4545898006364
 30
0.0
  0
SEQEND
  5
559
330
551
100
AcDbEntity
  8
Ebene 1
370
    18
  0
POLYLINE
  5
55A
330
1F
100
AcDbEntity
  8
Ebene 1
 62
   179
420
  1709851
370
    18
100
AcDb2dPolyline
 66
     1
 10
0.0
 20
0.0
 30
0.0
  0
VERTEX
  5
55B
330
55A
100
AcDbEntity
  8
Ebene 1
 62
   179
420
  1709851
370
    18
100
AcDbVertex
100
AcDb2dVertex
 10
53.71403400349858
 20
-170.5074218323732
 30
0.0
  0
VERTEX
  5
55C
330
55A
100
AcDbEntity
  8
Ebene 1
 62
   179
420
  1709851
370
    18
100
AcDbVertex
100
AcDb2dVertex
 10
53.71403400349858
 20
-171.6925346792991
 30
0.0
  0
SEQEND
  5
55D
330
55A
100
AcDbEntity
  8
Ebene 1
370
    18
  0
POLYLINE
  5
55E
330
1F
100
AcDbEntity
  8
Ebene 1
 62
   179
420
  1709851
370
    18
100
AcDb2dPolyline
 66
     1
 10
0.0
 20
0.0
 30
0.0
  0
VERTEX
  5
55F
330
55E
100
AcDbEntity
  8
Ebene 1
 62
   179
420
  1709851
370
    18
100
AcDbVertex
100
AcDb2dVertex
 10
52.31704778422977
 20
-170.5074218323732
 30
0.0
  0
VERTEX
  5
560
330
55E
100
AcDbEntity
  8
Ebene 1
 62
   179
420
  1709851
370
    18
100
AcDbVertex
100
AcDb2dVertex
 10
52.31704778422977
 20
-171.6925346792991
 30
0.0
  0
SEQEND
  5
561
330
55E
100
AcDbEntity
  8
Ebene 1
370
    18
  0
POLYLINE
  5
562
330
1F
100
AcDbEntity
  8
Ebene 1
 62
   179
420
  1709851
370
    18
100
AcDb2dPolyline
 66
     1
 10
0.0
 20
0.0
 30
0.0
  0
VERTEX
  5
563
330
562
100
AcDbEntity
  8
Ebene 1
 62
   179
420
  1709851
370
    18
100
AcDbVertex
100
AcDb2dVertex
 10
51.40685355702676
 20
-171.0999782558361
 30
0.0
  0
VERTEX
  5
564
330
562
100
AcDbEntity
  8
Ebene 1
 62
   179
420
  1709851
370
    18
100
AcDbVertex
100
AcDb2dVertex
 10
51.61855467459537
 20
-171.0999782558361
 30
0.0
  0
SEQEND
  5
565
330
562
100
AcDbEntity
  8
Ebene 1
370
    18
  0
POLYLINE
  5
566
330
1F
100
AcDbEntity
  8
Ebene 1
 62
   179
420
  1709851
370
    18
100
AcDb2dPolyline
 66
     1
 10
0.0
 20
0.0
 30
0.0
  0
VERTEX
  5
567
330
566
100
AcDbEntity
  8
Ebene 1
 62
   179
420
  1709851
370
    18
100
AcDbVertex
100
AcDb2dVertex
 10
54.41252711313298
 20
-171.0999782558361
 30
0.0
  0
VERTEX
  5
568
330
566
100
AcDbEntity
  8
Ebene 1
 62
   179
420
  1709851
370
    18
100
AcDbVertex
100
AcDb2dVertex
 10
54.62422823070158
 20
-171.0999782558361
 30
0.0
  0
SEQEND
  5
569
330
566
100
AcDbEntity
  8
Ebene 1
370
    18
  0
POLYLINE
  5
56A
330
1F
100
AcDbEntity
  8
Ebene 1
 62
   179
420
  1709851
370
    18
100
AcDb2dPolyline
 66
     1
 10
0.0
 20
0.0
 30
0.0
  0
VERTEX
  5
56B
330
56A
100
AcDbEntity
  8
Ebene 1
 62
   179
420
  1709851
370
    18
100
AcDbVertex
100
AcDb2dVertex
 10
43.42697888454256
 20
-171.0999782558361
 30
0.0
  0
VERTEX
  5
56C
330
56A
100
AcDbEntity
  8
Ebene 1
 62
   179
420
  1709851
370
    18
100
AcDbVertex
100
AcDb2dVertex
 10
51.02582599635813
 20
-171.0999782558361
 30
0.0
  0
SEQEND
  5
56D
330
56A
100
AcDbEntity
  8
Ebene 1
370
    18
  0
POLYLINE
  5
56E
330
1F
100
AcDbEntity
  8
Ebene 1
 62
   179
420
  1709851
370
    18
100
AcDb2dPolyline
 66
     1
 10
0.0
 20
0.0
 30
0.0
  0
VERTEX
  5
56F
330
56E
100
AcDbEntity
  8
Ebene 1
 62
   179
420
  1709851
370
    18
100
AcDbVertex
100
AcDb2dVertex
 10
51.61855467459537
 20
-171.0999782558361
 30
0.0
  0
VERTEX
  5
570
330
56E
100
AcDbEntity
  8
Ebene 1
 62
   179
420
  1709851
370
    18
100
AcDbVertex
100
AcDb2dVertex
 10
52.31704778422977
 20
-171.0999782558361
 30
0.0
  0
SEQEND
  5
571
330
56E
100
AcDbEntity
  8
Ebene 1
370
    18
  0
POLYLINE
  5
572
330
1F
100
AcDbEntity
  8
Ebene 1
 62
   179
420
  1709851
370
    18
100
AcDb2dPolyline
 66
     1
 10
0.0
 20
0.0
 30
0.0
  0
VERTEX
  5
573
330
572
100
AcDbEntity
  8
Ebene 1
 62
   179
420
  1709851
370
    18
100
AcDbVertex
100
AcDb2dVertex
 10
53.71403400349858
 20
-171.0999782558361
 30
0.0
  0
VERTEX
  5
574
330
572
100
AcDbEntity
  8
Ebene 1
 62
   179
420
  1709851
370
    18
100
AcDbVertex
100
AcDb2dVertex
 10
54.41252711313298
 20
-171.0999782558361
 30
0.0
  0
SEQEND
  5
575
330
572
100
AcDbEntity
  8
Ebene 1
370
    18
  0
POLYLINE
  5
576
330
1F
100
AcDbEntity
  8
Ebene 1
 62
   179
420
  1709851
370
    18
100
AcDb2dPolyline
 66
     1
 10
0.0
 20
0.0
 30
0.0
  0
VERTEX
  5
577
330
576
100
AcDbEntity
  8
Ebene 1
 62
   179
420
  1709851
370
    18
100
AcDbVertex
100
AcDb2dVertex
 10
55.02644312860451
 20
-171.0999782558361
 30
0.0
  0
VERTEX
  5
578
330
576
100
AcDbEntity
  8
Ebene 1
 62
   179
420
  1709851
370
    18
100
AcDbVertex
100
AcDb2dVertex
 10
62.62529024042007
 20
-171.0999782558361
 30
0.0
  0
SEQEND
  5
579
330
576
100
AcDbEntity
  8
Ebene 1
370
    18
  0
POLYLINE
  5
57A
330
1F
100
AcDbEntity
  8
Ebene 1
 62
   179
420
  1709851
370
    18
100
AcDb2dPolyline
 66
     1
 10
0.0
 20
0.0
 30
0.0
  0
VERTEX
  5
57B
330
57A
100
AcDbEntity
  8
Ebene 1
 62
   179
420
  1709851
370
    18
100
AcDbVertex
100
AcDb2dVertex
 10
51.40685355702676
 20
-171.0999782558361
 30
0.0
  0
VERTEX
  5
57C
330
57A
100
AcDbEntity
  8
Ebene 1
 62
   179
420
  1709851
370
    18
100
AcDbVertex
100
AcDb2dVertex
 10
51.40685355702676
 20
-170.5074218323732
 30
0.0
  0
SEQEND
  5
57D
330
57A
100
AcDbEntity
  8
Ebene 1
370
    18
  0
POLYLINE
  5
57E
330
1F
100
AcDbEntity
  8
Ebene 1
 62
   179
420
  1709851
370
    18
100
AcDb2dPolyline
 66
     1
 10
0.0
 20
0.0
 30
0.0
  0
VERTEX
  5
57F
330
57E
100
AcDbEntity
  8
Ebene 1
 62
   179
420
  1709851
370
    18
100
AcDbVertex
100
AcDb2dVertex
 10
54.62422823070158
 20
-170.5074218323732
 30
0.0
  0
VERTEX
  5
580
330
57E
100
AcDbEntity
  8
Ebene 1
 62
   179
420
  1709851
370
    18
100
AcDbVertex
100
AcDb2dVertex
 10
54.62422823070158
 20
-171.0999782558361
 30
0.0
  0
SEQEND
  5
581
330
57E
100
AcDbEntity
  8
Ebene 1
370
    18
  0
POLYLINE
  5
582
330
1F
100
AcDbEntity
  8
Ebene 1
 62
   179
420
  1709851
370
    18
100
AcDb2dPolyline
 66
     1
 10
0.0
 20
0.0
 30
0.0
  0
VERTEX
  5
583
330
582
100
AcDbEntity
  8
Ebene 1
 62
   179
420
  1709851
370
    18
100
AcDbVertex
100
AcDb2dVertex
 10
43.0249362414139
 20
-170.5074218323732
 30
0.0
  0
VERTEX
  5
584
330
582
100
AcDbEntity
  8
Ebene 1
 62
   179
420
  1709851
370
    18
100
AcDbVertex
100
AcDb2dVertex
 10
43.0249362414139
 20
-171.0999782558361
 30
0.0
  0
SEQEND
  5
585
330
582
100
AcDbEntity
  8
Ebene 1
370
    18
  0
POLYLINE
  5
586
330
1F
100
AcDbEntity
  8
Ebene 1
 62
   179
420
  1709851
370
    18
100
AcDb2dPolyline
 66
     1
 10
0.0
 20
0.0
 30
0.0
  0
VERTEX
  5
587
330
586
100
AcDbEntity
  8
Ebene 1
 62
   179
420
  1709851
370
    18
100
AcDbVertex
100
AcDb2dVertex
 10
63.00614554631444
 20
-171.0999782558361
 30
0.0
  0
VERTEX
  5
588
330
586
100
AcDbEntity
  8
Ebene 1
 62
   179
420
  1709851
370
    18
100
AcDbVertex
100
AcDb2dVertex
 10
63.00614554631444
 20
-170.5074218323732
 30
0.0
  0
SEQEND
  5
589
330
586
100
AcDbEntity
  8
Ebene 1
370
    18
  0
POLYLINE
  5
58A
330
1F
100
AcDbEntity
  8
Ebene 1
 62
   179
420
  1709851
370
    18
100
AcDb2dPolyline
 66
     1
 10
0.0
 20
0.0
 30
0.0
  0
VERTEX
  5
58B
330
58A
100
AcDbEntity
  8
Ebene 1
 62
   179
420
  1709851
370
    18
100
AcDbVertex
100
AcDb2dVertex
 10
43.42697888454256
 20
-171.0999782558361
 30
0.0
  0
VERTEX
  5
58C
330
58A
100
AcDbEntity
  8
Ebene 1
 62
   179
420
  1709851
370
    18
100
AcDbVertex
100
AcDb2dVertex
 10
43.0249362414139
 20
-171.0999782558361
 30
0.0
  0
SEQEND
  5
58D
330
58A
100
AcDbEntity
  8
Ebene 1
370
    18
  0
POLYLINE
  5
58E
330
1F
100
AcDbEntity
  8
Ebene 1
 62
   179
420
  1709851
370
    18
100
AcDb2dPolyline
 66
     1
 10
0.0
 20
0.0
 30
0.0
  0
VERTEX
  5
58F
330
58E
100
AcDbEntity
  8
Ebene 1
 62
   179
420
  1709851
370
    18
100
AcDbVertex
100
AcDb2dVertex
 10
51.40685355702676
 20
-171.0999782558361
 30
0.0
  0
VERTEX
  5
590
330
58E
100
AcDbEntity
  8
Ebene 1
 62
   179
420
  1709851
370
    18
100
AcDbVertex
100
AcDb2dVertex
 10
51.02582599635813
 20
-171.0999782558361
 30
0.0
  0
SEQEND
  5
591
330
58E
100
AcDbEntity
  8
Ebene 1
370
    18
  0
POLYLINE
  5
592
330
1F
100
AcDbEntity
  8
Ebene 1
 62
   179
420
  1709851
370
    18
100
AcDb2dPolyline
 66
     1
 10
0.0
 20
0.0
 30
0.0
  0
VERTEX
  5
593
330
592
100
AcDbEntity
  8
Ebene 1
 62
   179
420
  1709851
370
    18
100
AcDbVertex
100
AcDb2dVertex
 10
55.02644312860451
 20
-171.0999782558361
 30
0.0
  0
VERTEX
  5
594
330
592
100
AcDbEntity
  8
Ebene 1
 62
   179
420
  1709851
370
    18
100
AcDbVertex
100
AcDb2dVertex
 10
54.62422823070158
 20
-171.0999782558361
 30
0.0
  0
SEQEND
  5
595
330
592
100
AcDbEntity
  8
Ebene 1
370
    18
  0
POLYLINE
  5
596
330
1F
100
AcDbEntity
  8
Ebene 1
 62
   179
420
  1709851
370
    18
100
AcDb2dPolyline
 66
     1
 10
0.0
 20
0.0
 30
0.0
  0
VERTEX
  5
597
330
596
100
AcDbEntity
  8
Ebene 1
 62
   179
420
  1709851
370
    18
100
AcDbVertex
100
AcDb2dVertex
 10
63.00614554631444
 20
-171.0999782558361
 30
0.0
  0
VERTEX
  5
598
330
596
100
AcDbEntity
  8
Ebene 1
 62
   179
420
  1709851
370
    18
100
AcDbVertex
100
AcDb2dVertex
 10
62.62529024042007
 20
-171.0999782558361
 30
0.0
  0
SEQEND
  5
599
330
596
100
AcDbEntity
  8
Ebene 1
370
    18
  0
POLYLINE
  5
59A
330
1F
100
AcDbEntity
  8
Ebene 1
 62
   179
420
  1709851
370
    18
100
AcDb2dPolyline
 66
     1
 10
0.0
 20
0.0
 30
0.0
  0
VERTEX
  5
59B
330
59A
100
AcDbEntity
  8
Ebene 1
 62
   179
420
  1709851
370
    18
100
AcDbVertex
100
AcDb2dVertex
 10
51.40685355702676
 20
-171.0999782558361
 30
0.0
  0
VERTEX
  5
59C
330
59A
100
AcDbEntity
  8
Ebene 1
 62
   179
420
  1709851
370
    18
100
AcDbVertex
100
AcDb2dVertex
 10
51.44922823149533
 20
-171.1420084207562
 30
0.0
  0
SEQEND
  5
59D
330
59A
100
AcDbEntity
  8
Ebene 1
370
    18
  0
POLYLINE
  5
59E
330
1F
100
AcDbEntity
  8
Ebene 1
 62
   179
420
  1709851
370
    18
100
AcDb2dPolyline
 66
     1
 10
0.0
 20
0.0
 30
0.0
  0
VERTEX
  5
59F
330
59E
100
AcDbEntity
  8
Ebene 1
 62
   179
420
  1709851
370
    18
100
AcDbVertex
100
AcDb2dVertex
 10
54.62422823070158
 20
-171.0999782558361
 30
0.0
  0
VERTEX
  5
5A0
330
59E
100
AcDbEntity
  8
Ebene 1
 62
   179
420
  1709851
370
    18
100
AcDbVertex
100
AcDb2dVertex
 10
54.58185355623301
 20
-171.1420084207562
 30
0.0
  0
SEQEND
  5
5A1
330
59E
100
AcDbEntity
  8
Ebene 1
370
    18
  0
POLYLINE
  5
5A2
330
1F
100
AcDbEntity
  8
Ebene 1
 62
   179
420
  1709851
370
    18
100
AcDb2dPolyline
 66
     1
 10
0.0
 20
0.0
 30
0.0
  0
VERTEX
  5
5A3
330
5A2
100
AcDbEntity
  8
Ebene 1
 62
   179
420
  1709851
370
    18
100
AcDbVertex
100
AcDb2dVertex
 10
54.3279500189701
 20
-171.2901475266219
 30
0.0
  0
VERTEX
  5
5A4
330
5A2
100
AcDbEntity
  8
Ebene 1
 62
   179
420
  1709851
370
    18
100
AcDbVertex
100
AcDb2dVertex
 10
54.47608912483584
 20
-171.2481173617019
 30
0.0
  0
VERTEX
  5
5A5
330
5A2
100
AcDbEntity
  8
Ebene 1
 62
   179
420
  1709851
370
    18
100
AcDbVertex
100
AcDb2dVertex
 10
54.58185355623301
 20
-171.1420084207562
 30
0.0
  0
SEQEND
  5
5A6
330
5A2
100
AcDbEntity
  8
Ebene 1
370
    18
  0
POLYLINE
  5
5A7
330
1F
100
AcDbEntity
  8
Ebene 1
 62
   179
420
  1709851
370
    18
100
AcDb2dPolyline
 66
     1
 10
0.0
 20
0.0
 30
0.0
  0
VERTEX
  5
5A8
330
5A7
100
AcDbEntity
  8
Ebene 1
 62
   179
420
  1709851
370
    18
100
AcDbVertex
100
AcDb2dVertex
 10
51.44922823149533
 20
-171.1420084207562
 30
0.0
  0
VERTEX
  5
5A9
330
5A7
100
AcDbEntity
  8
Ebene 1
 62
   179
420
  1709851
370
    18
100
AcDbVertex
100
AcDb2dVertex
 10
51.5549926628925
 20
-171.2481173617019
 30
0.0
  0
VERTEX
  5
5AA
330
5A7
100
AcDbEntity
  8
Ebene 1
 62
   179
420
  1709851
370
    18
100
AcDbVertex
100
AcDb2dVertex
 10
51.70330402353251
 20
-171.2901475266219
 30
0.0
  0
SEQEND
  5
5AB
330
5A7
100
AcDbEntity
  8
Ebene 1
370
    18
  0
POLYLINE
  5
5AC
330
1F
100
AcDbEntity
  8
Ebene 1
 62
   179
420
  1709851
370
    18
100
AcDb2dPolyline
 66
     1
 10
0.0
 20
0.0
 30
0.0
  0
VERTEX
  5
5AD
330
5AC
100
AcDbEntity
  8
Ebene 1
 62
   179
420
  1709851
370
    18
100
AcDbVertex
100
AcDb2dVertex
 10
54.3279500189701
 20
-171.2901475266219
 30
0.0
  0
VERTEX
  5
5AE
330
5AC
100
AcDbEntity
  8
Ebene 1
 62
   179
420
  1709851
370
    18
100
AcDbVertex
100
AcDb2dVertex
 10
53.71403400349858
 20
-171.2901475266219
 30
0.0
  0
SEQEND
  5
5AF
330
5AC
100
AcDbEntity
  8
Ebene 1
370
    18
  0
POLYLINE
  5
5B0
330
1F
100
AcDbEntity
  8
Ebene 1
 62
   179
420
  1709851
370
    18
100
AcDb2dPolyline
 66
     1
 10
0.0
 20
0.0
 30
0.0
  0
VERTEX
  5
5B1
330
5B0
100
AcDbEntity
  8
Ebene 1
 62
   179
420
  1709851
370
    18
100
AcDbVertex
100
AcDb2dVertex
 10
52.31704778422977
 20
-171.2901475266219
 30
0.0
  0
VERTEX
  5
5B2
330
5B0
100
AcDbEntity
  8
Ebene 1
 62
   179
420
  1709851
370
    18
100
AcDbVertex
100
AcDb2dVertex
 10
51.70330402353251
 20
-171.2901475266219
 30
0.0
  0
SEQEND
  5
5B3
330
5B0
100
AcDbEntity
  8
Ebene 1
370
    18
  0
POLYLINE
  5
5B4
330
1F
100
AcDbEntity
  8
Ebene 1
 62
   179
420
  1709851
370
    18
100
AcDb2dPolyline
 66
     1
 10
0.0
 20
0.0
 30
0.0
  0
VERTEX
  5
5B5
330
5B4
100
AcDbEntity
  8
Ebene 1
 62
   179
420
  1709851
370
    18
100
AcDbVertex
100
AcDb2dVertex
 10
54.3279500189701
 20
-171.2901475266219
 30
0.0
  0
VERTEX
  5
5B6
330
5B4
100
AcDbEntity
  8
Ebene 1
 62
   179
420
  1709851
370
    18
100
AcDbVertex
100
AcDb2dVertex
 10
55.21695690893882
 20
-171.2901475266219
 30
0.0
  0
SEQEND
  5
5B7
330
5B4
100
AcDbEntity
  8
Ebene 1
370
    18
  0
POLYLINE
  5
5B8
330
1F
100
AcDbEntity
  8
Ebene 1
 62
   179
420
  1709851
370
    18
100
AcDb2dPolyline
 66
     1
 10
0.0
 20
0.0
 30
0.0
  0
VERTEX
  5
5B9
330
5B8
100
AcDbEntity
  8
Ebene 1
 62
   179
420
  1709851
370
    18
100
AcDbVertex
100
AcDb2dVertex
 10
50.81429713356379
 20
-171.2901475266219
 30
0.0
  0
VERTEX
  5
5BA
330
5B8
100
AcDbEntity
  8
Ebene 1
 62
   179
420
  1709851
370
    18
100
AcDbVertex
100
AcDb2dVertex
 10
51.70330402353251
 20
-171.2901475266219
 30
0.0
  0
SEQEND
  5
5BB
330
5B8
100
AcDbEntity
  8
Ebene 1
370
    18
  0
POLYLINE
  5
5BC
330
1F
100
AcDbEntity
  8
Ebene 1
 62
   179
420
  1709851
370
    18
100
AcDb2dPolyline
 66
     1
 10
0.0
 20
0.0
 30
0.0
  0
VERTEX
  5
5BD
330
5BC
100
AcDbEntity
  8
Ebene 1
 62
   179
420
  1709851
370
    18
100
AcDbVertex
100
AcDb2dVertex
 10
62.62529024042007
 20
-170.5074218323732
 30
0.0
  0
VERTEX
  5
5BE
330
5BC
100
AcDbEntity
  8
Ebene 1
 62
   179
420
  1709851
370
    18
100
AcDbVertex
100
AcDb2dVertex
 10
55.02644312860451
 20
-170.5074218323732
 30
0.0
  0
SEQEND
  5
5BF
330
5BC
100
AcDbEntity
  8
Ebene 1
370
    18
  0
POLYLINE
  5
5C0
330
1F
100
AcDbEntity
  8
Ebene 1
 62
   179
420
  1709851
370
    18
100
AcDb2dPolyline
 66
     1
 10
0.0
 20
0.0
 30
0.0
  0
VERTEX
  5
5C1
330
5C0
100
AcDbEntity
  8
Ebene 1
 62
   179
420
  1709851
370
    18
100
AcDbVertex
100
AcDb2dVertex
 10
62.62529024042007
 20
-170.5074218323732
 30
0.0
  0
VERTEX
  5
5C2
330
5C0
100
AcDbEntity
  8
Ebene 1
 62
   179
420
  1709851
370
    18
100
AcDbVertex
100
AcDb2dVertex
 10
63.00614554631444
 20
-170.5074218323732
 30
0.0
  0
SEQEND
  5
5C3
330
5C0
100
AcDbEntity
  8
Ebene 1
370
    18
  0
POLYLINE
  5
5C4
330
1F
100
AcDbEntity
  8
Ebene 1
 62
   179
420
  1709851
370
    13
100
AcDb2dPolyline
 66
     1
 10
0.0
 20
0.0
 30
0.0
  0
VERTEX
  5
5C5
330
5C4
100
AcDbEntity
  8
Ebene 1
 62
   179
420
  1709851
370
    13
100
AcDbVertex
100
AcDb2dVertex
 10
54.72999266209875
 20
-173.2373154948851
 30
0.0
  0
VERTEX
  5
5C6
330
5C4
100
AcDbEntity
  8
Ebene 1
 62
   179
420
  1709851
370
    13
100
AcDbVertex
100
AcDb2dVertex
 10
54.77236733656733
 20
-173.2373154948851
 30
0.0
  0
SEQEND
  5
5C7
330
5C4
100
AcDbEntity
  8
Ebene 1
370
    13
  0
POLYLINE
  5
5C8
330
1F
100
AcDbEntity
  8
Ebene 1
 62
   179
420
  1709851
370
    13
100
AcDb2dPolyline
 66
     1
 10
0.0
 20
0.0
 30
0.0
  0
VERTEX
  5
5C9
330
5C8
100
AcDbEntity
  8
Ebene 1
 62
   179
420
  1709851
370
    13
100
AcDbVertex
100
AcDb2dVertex
 10
55.28034666586741
 20
-173.0471462240993
 30
0.0
  0
VERTEX
  5
5CA
330
5C8
100
AcDbEntity
  8
Ebene 1
 62
   179
420
  1709851
370
    13
100
AcDbVertex
100
AcDb2dVertex
 10
55.25915932863313
 20
-173.0471462240993
 30
0.0
  0
SEQEND
  5
5CB
330
5C8
100
AcDbEntity
  8
Ebene 1
370
    13
  0
POLYLINE
  5
5CC
330
1F
100
AcDbEntity
  8
Ebene 1
 62
   179
420
  1709851
370
    13
100
AcDb2dPolyline
 66
     1
 10
0.0
 20
0.0
 30
0.0
  0
VERTEX
  5
5CD
330
5CC
100
AcDbEntity
  8
Ebene 1
 62
   179
420
  1709851
370
    13
100
AcDbVertex
100
AcDb2dVertex
 10
54.77236733656733
 20
-173.2373154948851
 30
0.0
  0
VERTEX
  5
5CE
330
5CC
100
AcDbEntity
  8
Ebene 1
 62
   179
420
  1709851
370
    13
100
AcDbVertex
100
AcDb2dVertex
 10
54.77236733656733
 20
-173.2373154948851
 30
0.0
  0
VERTEX
  5
5CF
330
5CC
100
AcDbEntity
  8
Ebene 1
 62
   179
420
  1709851
370
    13
100
AcDbVertex
100
AcDb2dVertex
 10
55.25915932863313
 20
-173.0471462240993
 30
0.0
  0
SEQEND
  5
5D0
330
5CC
100
AcDbEntity
  8
Ebene 1
370
    13
  0
POLYLINE
  5
5D1
330
1F
100
AcDbEntity
  8
Ebene 1
 62
   179
420
  1709851
370
    13
100
AcDb2dPolyline
 66
     1
 10
0.0
 20
0.0
 30
0.0
  0
VERTEX
  5
5D2
330
5D1
100
AcDbEntity
  8
Ebene 1
 62
   179
420
  1709851
370
    13
100
AcDbVertex
100
AcDb2dVertex
 10
55.5766248775989
 20
-173.2373154948851
 30
0.0
  0
VERTEX
  5
5D3
330
5D1
100
AcDbEntity
  8
Ebene 1
 62
   179
420
  1709851
370
    13
100
AcDbVertex
100
AcDb2dVertex
 10
55.53442245790459
 20
-173.1318955730365
 30
0.0
  0
VERTEX
  5
5D4
330
5D1
100
AcDbEntity
  8
Ebene 1
 62
   179
420
  1709851
370
    13
100
AcDbVertex
100
AcDb2dVertex
 10
55.42848577173316
 20
-173.0471462240993
 30
0.0
  0
VERTEX
  5
5D5
330
5D1
100
AcDbEntity
  8
Ebene 1
 62
   179
420
  1709851
370
    13
100
AcDbVertex
100
AcDb2dVertex
 10
55.36509601480456
 20
-173.0471462240993
 30
0.0
  0
SEQEND
  5
5D6
330
5D1
100
AcDbEntity
  8
Ebene 1
370
    13
  0
POLYLINE
  5
5D7
330
1F
100
AcDbEntity
  8
Ebene 1
 62
   179
420
  1709851
370
    13
100
AcDb2dPolyline
 66
     1
 10
0.0
 20
0.0
 30
0.0
  0
VERTEX
  5
5D8
330
5D7
100
AcDbEntity
  8
Ebene 1
 62
   179
420
  1709851
370
    13
100
AcDbVertex
100
AcDb2dVertex
 10
55.5766248775989
 20
-174.1475097220881
 30
0.0
  0
VERTEX
  5
5D9
330
5D7
100
AcDbEntity
  8
Ebene 1
 62
   179
420
  1709851
370
    13
100
AcDbVertex
100
AcDb2dVertex
 10
55.5766248775989
 20
-173.3854546007509
 30
0.0
  0
SEQEND
  5
5DA
330
5D7
100
AcDbEntity
  8
Ebene 1
370
    13
  0
POLYLINE
  5
5DB
330
1F
100
AcDbEntity
  8
Ebene 1
 62
   179
420
  1709851
370
    13
100
AcDb2dPolyline
 66
     1
 10
0.0
 20
0.0
 30
0.0
  0
VERTEX
  5
5DC
330
5DB
100
AcDbEntity
  8
Ebene 1
 62
   179
420
  1709851
370
    13
100
AcDbVertex
100
AcDb2dVertex
 10
55.17458223447024
 20
-174.5498968747653
 30
0.0
  0
VERTEX
  5
5DD
330
5DB
100
AcDbEntity
  8
Ebene 1
 62
   179
420
  1709851
370
    13
100
AcDbVertex
100
AcDb2dVertex
 10
55.34390867757028
 20
-174.5078667098453
 30
0.0
  0
VERTEX
  5
5DE
330
5DB
100
AcDbEntity
  8
Ebene 1
 62
   179
420
  1709851
370
    13
100
AcDbVertex
100
AcDb2dVertex
 10
55.49204778343602
 20
-174.380398176891
 30
0.0
  0
VERTEX
  5
5DF
330
5DB
100
AcDbEntity
  8
Ebene 1
 62
   179
420
  1709851
370
    13
100
AcDbVertex
100
AcDb2dVertex
 10
55.55543754036461
 20
-174.2115884981138
 30
0.0
  0
VERTEX
  5
5E0
330
5DB
100
AcDbEntity
  8
Ebene 1
 62
   179
420
  1709851
370
    13
100
AcDbVertex
100
AcDb2dVertex
 10
55.5766248775989
 20
-174.1475097220881
 30
0.0
  0
SEQEND
  5
5E1
330
5DB
100
AcDbEntity
  8
Ebene 1
370
    13
  0
POLYLINE
  5
5E2
330
1F
100
AcDbEntity
  8
Ebene 1
 62
   179
420
  1709851
370
    13
100
AcDb2dPolyline
 66
     1
 10
0.0
 20
0.0
 30
0.0
  0
VERTEX
  5
5E3
330
5E2
100
AcDbEntity
  8
Ebene 1
 62
   179
420
  1709851
370
    13
100
AcDbVertex
100
AcDb2dVertex
 10
51.25871445116102
 20
-173.2373154948851
 30
0.0
  0
VERTEX
  5
5E4
330
5E2
100
AcDbEntity
  8
Ebene 1
 62
   179
420
  1709851
370
    13
100
AcDbVertex
100
AcDb2dVertex
 10
51.30108912562959
 20
-173.2373154948851
 30
0.0
  0
SEQEND
  5
5E5
330
5E2
100
AcDbEntity
  8
Ebene 1
370
    13
  0
POLYLINE
  5
5E6
330
1F
100
AcDbEntity
  8
Ebene 1
 62
   179
420
  1709851
370
    13
100
AcDb2dPolyline
 66
     1
 10
0.0
 20
0.0
 30
0.0
  0
VERTEX
  5
5E7
330
5E6
100
AcDbEntity
  8
Ebene 1
 62
   179
420
  1709851
370
    13
100
AcDbVertex
100
AcDb2dVertex
 10
50.79293754155524
 20
-173.0471462240993
 30
0.0
  0
VERTEX
  5
5E8
330
5E6
100
AcDbEntity
  8
Ebene 1
 62
   179
420
  1709851
370
    13
100
AcDbVertex
100
AcDb2dVertex
 10
50.75073512186093
 20
-173.0471462240993
 30
0.0
  0
SEQEND
  5
5E9
330
5E6
100
AcDbEntity
  8
Ebene 1
370
    13
  0
POLYLINE
  5
5EA
330
1F
100
AcDbEntity
  8
Ebene 1
 62
   179
420
  1709851
370
    13
100
AcDb2dPolyline
 66
     1
 10
0.0
 20
0.0
 30
0.0
  0
VERTEX
  5
5EB
330
5EA
100
AcDbEntity
  8
Ebene 1
 62
   179
420
  1709851
370
    13
100
AcDbVertex
100
AcDb2dVertex
 10
50.66598577292378
 20
-173.0471462240993
 30
0.0
  0
VERTEX
  5
5EC
330
5EA
100
AcDbEntity
  8
Ebene 1
 62
   179
420
  1709851
370
    13
100
AcDbVertex
100
AcDb2dVertex
 10
50.66598577292378
 20
-173.0471462240993
 30
0.0
  0
VERTEX
  5
5ED
330
5EA
100
AcDbEntity
  8
Ebene 1
 62
   179
420
  1709851
370
    13
100
AcDbVertex
100
AcDb2dVertex
 10
50.75073512186093
 20
-173.0471462240993
 30
0.0
  0
SEQEND
  5
5EE
330
5EA
100
AcDbEntity
  8
Ebene 1
370
    13
  0
POLYLINE
  5
5EF
330
1F
100
AcDbEntity
  8
Ebene 1
 62
   179
420
  1709851
370
    13
100
AcDb2dPolyline
 66
     1
 10
0.0
 20
0.0
 30
0.0
  0
VERTEX
  5
5F0
330
5EF
100
AcDbEntity
  8
Ebene 1
 62
   179
420
  1709851
370
    13
100
AcDbVertex
100
AcDb2dVertex
 10
50.66598577292378
 20
-173.0471462240993
 30
0.0
  0
VERTEX
  5
5F1
330
5EF
100
AcDbEntity
  8
Ebene 1
 62
   179
420
  1709851
370
    13
100
AcDbVertex
100
AcDb2dVertex
 10
50.53903400429233
 20
-173.0891763890194
 30
0.0
  0
VERTEX
  5
5F2
330
5EF
100
AcDbEntity
  8
Ebene 1
 62
   179
420
  1709851
370
    13
100
AcDbVertex
100
AcDb2dVertex
 10
50.47547199258947
 20
-173.1952853299651
 30
0.0
  0
VERTEX
  5
5F3
330
5EF
100
AcDbEntity
  8
Ebene 1
 62
   179
420
  1709851
370
    13
100
AcDbVertex
100
AcDb2dVertex
 10
50.47547199258947
 20
-173.2373154948851
 30
0.0
  0
SEQEND
  5
5F4
330
5EF
100
AcDbEntity
  8
Ebene 1
370
    13
  0
POLYLINE
  5
5F5
330
1F
100
AcDbEntity
  8
Ebene 1
 62
   179
420
  1709851
370
    13
100
AcDb2dPolyline
 66
     1
 10
0.0
 20
0.0
 30
0.0
  0
VERTEX
  5
5F6
330
5F5
100
AcDbEntity
  8
Ebene 1
 62
   179
420
  1709851
370
    13
100
AcDbVertex
100
AcDb2dVertex
 10
50.47547199258947
 20
-174.1475097220881
 30
0.0
  0
VERTEX
  5
5F7
330
5F5
100
AcDbEntity
  8
Ebene 1
 62
   179
420
  1709851
370
    13
100
AcDbVertex
100
AcDb2dVertex
 10
50.47547199258947
 20
-174.1475097220881
 30
0.0
  0
VERTEX
  5
5F8
330
5F5
100
AcDbEntity
  8
Ebene 1
 62
   179
420
  1709851
370
    13
100
AcDbVertex
100
AcDb2dVertex
 10
50.47547199258947
 20
-173.3854546007509
 30
0.0
  0
SEQEND
  5
5F9
330
5F5
100
AcDbEntity
  8
Ebene 1
370
    13
  0
POLYLINE
  5
5FA
330
1F
100
AcDbEntity
  8
Ebene 1
 62
   179
420
  1709851
370
    13
100
AcDb2dPolyline
 66
     1
 10
0.0
 20
0.0
 30
0.0
  0
VERTEX
  5
5FB
330
5FA
100
AcDbEntity
  8
Ebene 1
 62
   179
420
  1709851
370
    13
100
AcDbVertex
100
AcDb2dVertex
 10
50.47547199258947
 20
-174.1475097220881
 30
0.0
  0
VERTEX
  5
5FC
330
5FA
100
AcDbEntity
  8
Ebene 1
 62
   179
420
  1709851
370
    13
100
AcDbVertex
100
AcDb2dVertex
 10
50.51784666705804
 20
-174.3176974390595
 30
0.0
  0
VERTEX
  5
5FD
330
5FA
100
AcDbEntity
  8
Ebene 1
 62
   179
420
  1709851
370
    13
100
AcDbVertex
100
AcDb2dVertex
 10
50.62361109845521
 20
-174.4651475258282
 30
0.0
  0
VERTEX
  5
5FE
330
5FA
100
AcDbEntity
  8
Ebene 1
 62
   179
420
  1709851
370
    13
100
AcDbVertex
100
AcDb2dVertex
 10
50.79293754155524
 20
-174.5498968747653
 30
0.0
  0
VERTEX
  5
5FF
330
5FA
100
AcDbEntity
  8
Ebene 1
 62
   179
420
  1709851
370
    13
100
AcDbVertex
100
AcDb2dVertex
 10
50.8564995532581
 20
-174.5498968747653
 30
0.0
  0
SEQEND
  5
600
330
5FA
100
AcDbEntity
  8
Ebene 1
370
    13
  0
POLYLINE
  5
601
330
1F
100
AcDbEntity
  8
Ebene 1
 62
   179
420
  1709851
370
    13
100
AcDb2dPolyline
 66
     1
 10
0.0
 20
0.0
 30
0.0
  0
VERTEX
  5
602
330
601
100
AcDbEntity
  8
Ebene 1
 62
   179
420
  1709851
370
    13
100
AcDbVertex
100
AcDb2dVertex
 10
53.81979843489574
 20
-173.2373154948851
 30
0.0
  0
VERTEX
  5
603
330
601
100
AcDbEntity
  8
Ebene 1
 62
   179
420
  1709851
370
    13
100
AcDbVertex
100
AcDb2dVertex
 10
53.81979843489574
 20
-173.2373154948851
 30
0.0
  0
VERTEX
  5
604
330
601
100
AcDbEntity
  8
Ebene 1
 62
   179
420
  1709851
370
    13
100
AcDbVertex
100
AcDb2dVertex
 10
54.43371445036727
 20
-173.2373154948851
 30
0.0
  0
SEQEND
  5
605
330
601
100
AcDbEntity
  8
Ebene 1
370
    13
  0
POLYLINE
  5
606
330
1F
100
AcDbEntity
  8
Ebene 1
 62
   179
420
  1709851
370
    13
100
AcDb2dPolyline
 66
     1
 10
0.0
 20
0.0
 30
0.0
  0
VERTEX
  5
607
330
606
100
AcDbEntity
  8
Ebene 1
 62
   179
420
  1709851
370
    13
100
AcDbVertex
100
AcDb2dVertex
 10
53.81979843489574
 20
-174.5498968747653
 30
0.0
  0
VERTEX
  5
608
330
606
100
AcDbEntity
  8
Ebene 1
 62
   179
420
  1709851
370
    13
100
AcDbVertex
100
AcDb2dVertex
 10
54.43371445036727
 20
-174.5498968747653
 30
0.0
  0
SEQEND
  5
609
330
606
100
AcDbEntity
  8
Ebene 1
370
    13
  0
POLYLINE
  5
60A
330
1F
100
AcDbEntity
  8
Ebene 1
 62
   179
420
  1709851
370
    13
100
AcDb2dPolyline
 66
     1
 10
0.0
 20
0.0
 30
0.0
  0
VERTEX
  5
60B
330
60A
100
AcDbEntity
  8
Ebene 1
 62
   179
420
  1709851
370
    13
100
AcDbVertex
100
AcDb2dVertex
 10
50.8564995532581
 20
-174.5498968747653
 30
0.0
  0
VERTEX
  5
60C
330
60A
100
AcDbEntity
  8
Ebene 1
 62
   179
420
  1709851
370
    13
100
AcDbVertex
100
AcDb2dVertex
 10
51.42804089426104
 20
-174.5498968747653
 30
0.0
  0
SEQEND
  5
60D
330
60A
100
AcDbEntity
  8
Ebene 1
370
    13
  0
POLYLINE
  5
60E
330
1F
100
AcDbEntity
  8
Ebene 1
 62
   179
420
  1709851
370
    13
100
AcDb2dPolyline
 66
     1
 10
0.0
 20
0.0
 30
0.0
  0
VERTEX
  5
60F
330
60E
100
AcDbEntity
  8
Ebene 1
 62
   179
420
  1709851
370
    13
100
AcDbVertex
100
AcDb2dVertex
 10
51.30108912562959
 20
-173.2373154948851
 30
0.0
  0
VERTEX
  5
610
330
60E
100
AcDbEntity
  8
Ebene 1
 62
   179
420
  1709851
370
    13
100
AcDbVertex
100
AcDb2dVertex
 10
51.42804089426104
 20
-173.2373154948851
 30
0.0
  0
SEQEND
  5
611
330
60E
100
AcDbEntity
  8
Ebene 1
370
    13
  0
POLYLINE
  5
612
330
1F
100
AcDbEntity
  8
Ebene 1
 62
   179
420
  1709851
370
    18
100
AcDb2dPolyline
 66
     1
 10
0.0
 20
0.0
 30
0.0
  0
VERTEX
  5
613
330
612
100
AcDbEntity
  8
Ebene 1
 62
   179
420
  1709851
370
    18
100
AcDbVertex
100
AcDb2dVertex
 10
149.048611073849
 20
-171.2901475266219
 30
0.0
  0
VERTEX
  5
614
330
612
100
AcDbEntity
  8
Ebene 1
 62
   179
420
  1709851
370
    18
100
AcDbVertex
100
AcDb2dVertex
 10
150.8056097713264
 20
-171.2901475266219
 30
0.0
  0
SEQEND
  5
615
330
612
100
AcDbEntity
  8
Ebene 1
370
    18
  0
POLYLINE
  5
616
330
1F
100
AcDbEntity
  8
Ebene 1
 62
   179
420
  1709851
370
    18
100
AcDb2dPolyline
 66
     1
 10
0.0
 20
0.0
 30
0.0
  0
VERTEX
  5
617
330
616
100
AcDbEntity
  8
Ebene 1
 62
   179
420
  1709851
370
    18
100
AcDbVertex
100
AcDb2dVertex
 10
149.3448892855805
 20
-171.0999782558361
 30
0.0
  0
VERTEX
  5
618
330
616
100
AcDbEntity
  8
Ebene 1
 62
   179
420
  1709851
370
    18
100
AcDbVertex
100
AcDb2dVertex
 10
149.0909857483175
 20
-171.2687879346134
 30
0.0
  0
VERTEX
  5
619
330
616
100
AcDbEntity
  8
Ebene 1
 62
   179
420
  1709851
370
    18
100
AcDbVertex
100
AcDb2dVertex
 10
148.4984293248546
 20
-171.649815495282
 30
0.0
  0
SEQEND
  5
61A
330
616
100
AcDbEntity
  8
Ebene 1
370
    18
  0
POLYLINE
  5
61B
330
1F
100
AcDbEntity
  8
Ebene 1
 62
   179
420
  1709851
370
    18
100
AcDb2dPolyline
 66
     1
 10
0.0
 20
0.0
 30
0.0
  0
VERTEX
  5
61C
330
61B
100
AcDbEntity
  8
Ebene 1
 62
   179
420
  1709851
370
    18
100
AcDbVertex
100
AcDb2dVertex
 10
148.1597764386545
 20
-171.1420084207562
 30
0.0
  0
VERTEX
  5
61D
330
61B
100
AcDbEntity
  8
Ebene 1
 62
   179
420
  1709851
370
    18
100
AcDbVertex
100
AcDb2dVertex
 10
148.2441812780431
 20
-171.0999782558361
 30
0.0
  0
SEQEND
  5
61E
330
61B
100
AcDbEntity
  8
Ebene 1
370
    18
  0
POLYLINE
  5
61F
330
1F
100
AcDbEntity
  8
Ebene 1
 62
   179
420
  1709851
370
    18
100
AcDb2dPolyline
 66
     1
 10
0.0
 20
0.0
 30
0.0
  0
VERTEX
  5
620
330
61F
100
AcDbEntity
  8
Ebene 1
 62
   179
420
  1709851
370
    18
100
AcDbVertex
100
AcDb2dVertex
 10
147.0804280231257
 20
-171.0999782558361
 30
0.0
  0
VERTEX
  5
621
330
61F
100
AcDbEntity
  8
Ebene 1
 62
   179
420
  1709851
370
    18
100
AcDbVertex
100
AcDb2dVertex
 10
147.7150146115088
 20
-171.2267577696933
 30
0.0
  0
SEQEND
  5
622
330
61F
100
AcDbEntity
  8
Ebene 1
370
    18
  0
POLYLINE
  5
623
330
1F
100
AcDbEntity
  8
Ebene 1
 62
   179
420
  1709851
370
    18
100
AcDb2dPolyline
 66
     1
 10
0.0
 20
0.0
 30
0.0
  0
VERTEX
  5
624
330
623
100
AcDbEntity
  8
Ebene 1
 62
   179
420
  1709851
370
    18
100
AcDbVertex
100
AcDb2dVertex
 10
147.5882350976516
 20
-171.8193141931563
 30
0.0
  0
VERTEX
  5
625
330
623
100
AcDbEntity
  8
Ebene 1
 62
   179
420
  1709851
370
    18
100
AcDbVertex
100
AcDb2dVertex
 10
144.2861110750396
 20
-171.0999782558361
 30
0.0
  0
VERTEX
  5
626
330
623
100
AcDbEntity
  8
Ebene 1
 62
   179
420
  1709851
370
    18
100
AcDbVertex
100
AcDb2dVertex
 10
144.1169568867138
 20
-171.0999782558361
 30
0.0
  0
SEQEND
  5
627
330
623
100
AcDbEntity
  8
Ebene 1
370
    18
  0
POLYLINE
  5
628
330
1F
100
AcDbEntity
  8
Ebene 1
 62
   179
420
  1709851
370
    18
100
AcDb2dPolyline
 66
     1
 10
0.0
 20
0.0
 30
0.0
  0
VERTEX
  5
629
330
628
100
AcDbEntity
  8
Ebene 1
 62
   179
420
  1709851
370
    18
100
AcDbVertex
100
AcDb2dVertex
 10
147.7150146115088
 20
-171.2267577696933
 30
0.0
  0
VERTEX
  5
62A
330
628
100
AcDbEntity
  8
Ebene 1
 62
   179
420
  1709851
370
    18
100
AcDbVertex
100
AcDb2dVertex
 10
147.884513309383
 20
-171.2481173617019
 30
0.0
  0
VERTEX
  5
62B
330
628
100
AcDbEntity
  8
Ebene 1
 62
   179
420
  1709851
370
    18
100
AcDbVertex
100
AcDb2dVertex
 10
148.0960421721774
 20
-171.1847276047733
 30
0.0
  0
VERTEX
  5
62C
330
628
100
AcDbEntity
  8
Ebene 1
 62
   179
420
  1709851
370
    18
100
AcDbVertex
100
AcDb2dVertex
 10
148.1597764386545
 20
-171.1420084207562
 30
0.0
  0
SEQEND
  5
62D
330
628
100
AcDbEntity
  8
Ebene 1
370
    18
  0
POLYLINE
  5
62E
330
1F
100
AcDbEntity
  8
Ebene 1
 62
   179
420
  1709851
370
    18
100
AcDb2dPolyline
 66
     1
 10
0.0
 20
0.0
 30
0.0
  0
VERTEX
  5
62F
330
62E
100
AcDbEntity
  8
Ebene 1
 62
   179
420
  1709851
370
    18
100
AcDbVertex
100
AcDb2dVertex
 10
147.5882350976516
 20
-171.8193141931563
 30
0.0
  0
VERTEX
  5
630
330
62E
100
AcDbEntity
  8
Ebene 1
 62
   179
420
  1709851
370
    18
100
AcDbVertex
100
AcDb2dVertex
 10
147.9055283918431
 20
-171.8406737851649
 30
0.0
  0
VERTEX
  5
631
330
62E
100
AcDbEntity
  8
Ebene 1
 62
   179
420
  1709851
370
    18
100
AcDbVertex
100
AcDb2dVertex
 10
147.9268879838516
 20
-171.8406737851649
 30
0.0
  0
SEQEND
  5
632
330
62E
100
AcDbEntity
  8
Ebene 1
370
    18
  0
POLYLINE
  5
633
330
1F
100
AcDbEntity
  8
Ebene 1
 62
   179
420
  1709851
370
    18
100
AcDb2dPolyline
 66
     1
 10
0.0
 20
0.0
 30
0.0
  0
VERTEX
  5
634
330
633
100
AcDbEntity
  8
Ebene 1
 62
   179
420
  1709851
370
    18
100
AcDbVertex
100
AcDb2dVertex
 10
147.9268879838516
 20
-171.8406737851649
 30
0.0
  0
VERTEX
  5
635
330
633
100
AcDbEntity
  8
Ebene 1
 62
   179
420
  1709851
370
    18
100
AcDbVertex
100
AcDb2dVertex
 10
148.2231661955831
 20
-171.7772840282362
 30
0.0
  0
VERTEX
  5
636
330
633
100
AcDbEntity
  8
Ebene 1
 62
   179
420
  1709851
370
    18
100
AcDbVertex
100
AcDb2dVertex
 10
148.4984293248546
 20
-171.649815495282
 30
0.0
  0
SEQEND
  5
637
330
633
100
AcDbEntity
  8
Ebene 1
370
    18
  0
POLYLINE
  5
638
330
1F
100
AcDbEntity
  8
Ebene 1
 62
   179
420
  1709851
370
    18
100
AcDb2dPolyline
 66
     1
 10
0.0
 20
0.0
 30
0.0
  0
VERTEX
  5
639
330
638
100
AcDbEntity
  8
Ebene 1
 62
   179
420
  1709851
370
    18
100
AcDbVertex
100
AcDb2dVertex
 10
152.3083604219923
 20
-171.6925346792991
 30
0.0
  0
VERTEX
  5
63A
330
638
100
AcDbEntity
  8
Ebene 1
 62
   179
420
  1709851
370
    18
100
AcDbVertex
100
AcDb2dVertex
 10
152.3083604219923
 20
-173.153255165045
 30
0.0
  0
SEQEND
  5
63B
330
638
100
AcDbEntity
  8
Ebene 1
370
    18
  0
POLYLINE
  5
63C
330
1F
100
AcDbEntity
  8
Ebene 1
 62
   179
420
  1709851
370
    18
100
AcDb2dPolyline
 66
     1
 10
0.0
 20
0.0
 30
0.0
  0
VERTEX
  5
63D
330
63C
100
AcDbEntity
  8
Ebene 1
 62
   179
420
  1709851
370
    18
100
AcDbVertex
100
AcDb2dVertex
 10
152.2025959905952
 20
-173.2373154948851
 30
0.0
  0
VERTEX
  5
63E
330
63C
100
AcDbEntity
  8
Ebene 1
 62
   179
420
  1709851
370
    18
100
AcDbVertex
100
AcDb2dVertex
 10
152.2870008299838
 20
-173.2166449219736
 30
0.0
  0
VERTEX
  5
63F
330
63C
100
AcDbEntity
  8
Ebene 1
 62
   179
420
  1709851
370
    18
100
AcDbVertex
100
AcDb2dVertex
 10
152.3083604219923
 20
-173.153255165045
 30
0.0
  0
SEQEND
  5
640
330
63C
100
AcDbEntity
  8
Ebene 1
370
    18
  0
POLYLINE
  5
641
330
1F
100
AcDbEntity
  8
Ebene 1
 62
   179
420
  1709851
370
    18
100
AcDb2dPolyline
 66
     1
 10
0.0
 20
0.0
 30
0.0
  0
VERTEX
  5
642
330
641
100
AcDbEntity
  8
Ebene 1
 62
   179
420
  1709851
370
    18
100
AcDbVertex
100
AcDb2dVertex
 10
153.0066812768525
 20
-172.4545898006364
 30
0.0
  0
VERTEX
  5
643
330
641
100
AcDbEntity
  8
Ebene 1
 62
   179
420
  1709851
370
    18
100
AcDbVertex
100
AcDb2dVertex
 10
153.0066812768525
 20
-173.6183430555538
 30
0.0
  0
SEQEND
  5
644
330
641
100
AcDbEntity
  8
Ebene 1
370
    18
  0
POLYLINE
  5
645
330
1F
100
AcDbEntity
  8
Ebene 1
 62
   179
420
  1709851
370
    18
100
AcDb2dPolyline
 66
     1
 10
0.0
 20
0.0
 30
0.0
  0
VERTEX
  5
646
330
645
100
AcDbEntity
  8
Ebene 1
 62
   179
420
  1709851
370
    18
100
AcDbVertex
100
AcDb2dVertex
 10
153.7053466412612
 20
-173.153255165045
 30
0.0
  0
VERTEX
  5
647
330
645
100
AcDbEntity
  8
Ebene 1
 62
   179
420
  1709851
370
    18
100
AcDbVertex
100
AcDb2dVertex
 10
153.7477213157297
 20
-173.2166449219736
 30
0.0
  0
VERTEX
  5
648
330
645
100
AcDbEntity
  8
Ebene 1
 62
   179
420
  1709851
370
    18
100
AcDbVertex
100
AcDb2dVertex
 10
153.8111110726583
 20
-173.2373154948851
 30
0.0
  0
SEQEND
  5
649
330
645
100
AcDbEntity
  8
Ebene 1
370
    18
  0
POLYLINE
  5
64A
330
1F
100
AcDbEntity
  8
Ebene 1
 62
   179
420
  1709851
370
    18
100
AcDb2dPolyline
 66
     1
 10
0.0
 20
0.0
 30
0.0
  0
VERTEX
  5
64B
330
64A
100
AcDbEntity
  8
Ebene 1
 62
   179
420
  1709851
370
    18
100
AcDbVertex
100
AcDb2dVertex
 10
153.7053466412612
 20
-173.153255165045
 30
0.0
  0
VERTEX
  5
64C
330
64A
100
AcDbEntity
  8
Ebene 1
 62
   179
420
  1709851
370
    18
100
AcDbVertex
100
AcDb2dVertex
 10
153.7053466412612
 20
-171.6925346792991
 30
0.0
  0
SEQEND
  5
64D
330
64A
100
AcDbEntity
  8
Ebene 1
370
    18
  0
POLYLINE
  5
64E
330
1F
100
AcDbEntity
  8
Ebene 1
 62
   179
420
  1709851
370
    18
100
AcDb2dPolyline
 66
     1
 10
0.0
 20
0.0
 30
0.0
  0
VERTEX
  5
64F
330
64E
100
AcDbEntity
  8
Ebene 1
 62
   179
420
  1709851
370
    18
100
AcDbVertex
100
AcDb2dVertex
 10
152.710403065121
 20
-173.6397026475623
 30
0.0
  0
VERTEX
  5
650
330
64E
100
AcDbEntity
  8
Ebene 1
 62
   179
420
  1709851
370
    18
100
AcDbVertex
100
AcDb2dVertex
 10
152.7527777395896
 20
-173.8092013454366
 30
0.0
  0
VERTEX
  5
651
330
64E
100
AcDbEntity
  8
Ebene 1
 62
   179
420
  1709851
370
    18
100
AcDbVertex
100
AcDb2dVertex
 10
152.8585421709868
 20
-173.9146212672852
 30
0.0
  0
VERTEX
  5
652
330
64E
100
AcDbEntity
  8
Ebene 1
 62
   179
420
  1709851
370
    18
100
AcDbVertex
100
AcDb2dVertex
 10
153.0066812768525
 20
-173.9359808592938
 30
0.0
  0
VERTEX
  5
653
330
64E
100
AcDbEntity
  8
Ebene 1
 62
   179
420
  1709851
370
    18
100
AcDbVertex
100
AcDb2dVertex
 10
153.1761799747268
 20
-173.8939506943737
 30
0.0
  0
VERTEX
  5
654
330
64E
100
AcDbEntity
  8
Ebene 1
 62
   179
420
  1709851
370
    18
100
AcDbVertex
100
AcDb2dVertex
 10
153.281944406124
 20
-173.787841753428
 30
0.0
  0
VERTEX
  5
655
330
64E
100
AcDbEntity
  8
Ebene 1
 62
   179
420
  1709851
370
    18
100
AcDbVertex
100
AcDb2dVertex
 10
153.3033039981325
 20
-173.6397026475623
 30
0.0
  0
SEQEND
  5
656
330
64E
100
AcDbEntity
  8
Ebene 1
370
    18
  0
POLYLINE
  5
657
330
1F
100
AcDbEntity
  8
Ebene 1
 62
   179
420
  1709851
370
    18
100
AcDb2dPolyline
 66
     1
 10
0.0
 20
0.0
 30
0.0
  0
VERTEX
  5
658
330
657
100
AcDbEntity
  8
Ebene 1
 62
   179
420
  1709851
370
    18
100
AcDbVertex
100
AcDb2dVertex
 10
152.710403065121
 20
-173.6397026475623
 30
0.0
  0
VERTEX
  5
659
330
657
100
AcDbEntity
  8
Ebene 1
 62
   179
420
  1709851
370
    18
100
AcDbVertex
100
AcDb2dVertex
 10
152.710403065121
 20
-172.4545898006364
 30
0.0
  0
SEQEND
  5
65A
330
657
100
AcDbEntity
  8
Ebene 1
370
    18
  0
POLYLINE
  5
65B
330
1F
100
AcDbEntity
  8
Ebene 1
 62
   179
420
  1709851
370
    18
100
AcDb2dPolyline
 66
     1
 10
0.0
 20
0.0
 30
0.0
  0
VERTEX
  5
65C
330
65B
100
AcDbEntity
  8
Ebene 1
 62
   179
420
  1709851
370
    18
100
AcDbVertex
100
AcDb2dVertex
 10
153.3033039981325
 20
-172.4545898006364
 30
0.0
  0
VERTEX
  5
65D
330
65B
100
AcDbEntity
  8
Ebene 1
 62
   179
420
  1709851
370
    18
100
AcDbVertex
100
AcDb2dVertex
 10
153.3033039981325
 20
-173.6397026475623
 30
0.0
  0
SEQEND
  5
65E
330
65B
100
AcDbEntity
  8
Ebene 1
370
    18
  0
POLYLINE
  5
65F
330
1F
100
AcDbEntity
  8
Ebene 1
 62
   179
420
  1709851
370
    18
100
AcDb2dPolyline
 66
     1
 10
0.0
 20
0.0
 30
0.0
  0
VERTEX
  5
660
330
65F
100
AcDbEntity
  8
Ebene 1
 62
   179
420
  1709851
370
    18
100
AcDbVertex
100
AcDb2dVertex
 10
153.3033039981325
 20
-172.4545898006364
 30
0.0
  0
VERTEX
  5
661
330
65F
100
AcDbEntity
  8
Ebene 1
 62
   179
420
  1709851
370
    18
100
AcDbVertex
100
AcDb2dVertex
 10
153.2609293236639
 20
-172.2850911027621
 30
0.0
  0
VERTEX
  5
662
330
65F
100
AcDbEntity
  8
Ebene 1
 62
   179
420
  1709851
370
    18
100
AcDbVertex
100
AcDb2dVertex
 10
153.1551648922668
 20
-172.1789821618164
 30
0.0
  0
VERTEX
  5
663
330
65F
100
AcDbEntity
  8
Ebene 1
 62
   179
420
  1709851
370
    18
100
AcDbVertex
100
AcDb2dVertex
 10
153.0066812768525
 20
-172.1369519968963
 30
0.0
  0
VERTEX
  5
664
330
65F
100
AcDbEntity
  8
Ebene 1
 62
   179
420
  1709851
370
    18
100
AcDbVertex
100
AcDb2dVertex
 10
152.8585421709868
 20
-172.2003417538249
 30
0.0
  0
VERTEX
  5
665
330
65F
100
AcDbEntity
  8
Ebene 1
 62
   179
420
  1709851
370
    18
100
AcDbVertex
100
AcDb2dVertex
 10
152.7317626571296
 20
-172.3064506947706
 30
0.0
  0
VERTEX
  5
666
330
65F
100
AcDbEntity
  8
Ebene 1
 62
   179
420
  1709851
370
    18
100
AcDbVertex
100
AcDb2dVertex
 10
152.710403065121
 20
-172.4545898006364
 30
0.0
  0
SEQEND
  5
667
330
65F
100
AcDbEntity
  8
Ebene 1
370
    18
  0
POLYLINE
  5
668
330
1F
100
AcDbEntity
  8
Ebene 1
 62
   179
420
  1709851
370
    18
100
AcDb2dPolyline
 66
     1
 10
0.0
 20
0.0
 30
0.0
  0
VERTEX
  5
669
330
668
100
AcDbEntity
  8
Ebene 1
 62
   179
420
  1709851
370
    18
100
AcDbVertex
100
AcDb2dVertex
 10
153.7053466412612
 20
-170.5074218323732
 30
0.0
  0
VERTEX
  5
66A
330
668
100
AcDbEntity
  8
Ebene 1
 62
   179
420
  1709851
370
    18
100
AcDbVertex
100
AcDb2dVertex
 10
153.7053466412612
 20
-171.6925346792991
 30
0.0
  0
SEQEND
  5
66B
330
668
100
AcDbEntity
  8
Ebene 1
370
    18
  0
POLYLINE
  5
66C
330
1F
100
AcDbEntity
  8
Ebene 1
 62
   179
420
  1709851
370
    18
100
AcDb2dPolyline
 66
     1
 10
0.0
 20
0.0
 30
0.0
  0
VERTEX
  5
66D
330
66C
100
AcDbEntity
  8
Ebene 1
 62
   179
420
  1709851
370
    18
100
AcDbVertex
100
AcDb2dVertex
 10
152.3083604219923
 20
-170.5074218323732
 30
0.0
  0
VERTEX
  5
66E
330
66C
100
AcDbEntity
  8
Ebene 1
 62
   179
420
  1709851
370
    18
100
AcDbVertex
100
AcDb2dVertex
 10
152.3083604219923
 20
-171.6925346792991
 30
0.0
  0
SEQEND
  5
66F
330
66C
100
AcDbEntity
  8
Ebene 1
370
    18
  0
POLYLINE
  5
670
330
1F
100
AcDbEntity
  8
Ebene 1
 62
   179
420
  1709851
370
    18
100
AcDb2dPolyline
 66
     1
 10
0.0
 20
0.0
 30
0.0
  0
VERTEX
  5
671
330
670
100
AcDbEntity
  8
Ebene 1
 62
   179
420
  1709851
370
    18
100
AcDbVertex
100
AcDb2dVertex
 10
151.3981661947894
 20
-171.0999782558361
 30
0.0
  0
VERTEX
  5
672
330
670
100
AcDbEntity
  8
Ebene 1
 62
   179
420
  1709851
370
    18
100
AcDbVertex
100
AcDb2dVertex
 10
151.6096950575837
 20
-171.0999782558361
 30
0.0
  0
SEQEND
  5
673
330
670
100
AcDbEntity
  8
Ebene 1
370
    18
  0
POLYLINE
  5
674
330
1F
100
AcDbEntity
  8
Ebene 1
 62
   179
420
  1709851
370
    18
100
AcDb2dPolyline
 66
     1
 10
0.0
 20
0.0
 30
0.0
  0
VERTEX
  5
675
330
674
100
AcDbEntity
  8
Ebene 1
 62
   179
420
  1709851
370
    18
100
AcDbVertex
100
AcDb2dVertex
 10
154.4036674961213
 20
-171.0999782558361
 30
0.0
  0
VERTEX
  5
676
330
674
100
AcDbEntity
  8
Ebene 1
 62
   179
420
  1709851
370
    18
100
AcDbVertex
100
AcDb2dVertex
 10
154.6155408684642
 20
-171.0999782558361
 30
0.0
  0
SEQEND
  5
677
330
674
100
AcDbEntity
  8
Ebene 1
370
    18
  0
POLYLINE
  5
678
330
1F
100
AcDbEntity
  8
Ebene 1
 62
   179
420
  1709851
370
    18
100
AcDb2dPolyline
 66
     1
 10
0.0
 20
0.0
 30
0.0
  0
VERTEX
  5
679
330
678
100
AcDbEntity
  8
Ebene 1
 62
   179
420
  1709851
370
    18
100
AcDbVertex
100
AcDb2dVertex
 10
143.4182915223052
 20
-171.0999782558361
 30
0.0
  0
VERTEX
  5
67A
330
678
100
AcDbEntity
  8
Ebene 1
 62
   179
420
  1709851
370
    18
100
AcDbVertex
100
AcDb2dVertex
 10
151.0171386341207
 20
-171.0999782558361
 30
0.0
  0
SEQEND
  5
67B
330
678
100
AcDbEntity
  8
Ebene 1
370
    18
  0
POLYLINE
  5
67C
330
1F
100
AcDbEntity
  8
Ebene 1
 62
   179
420
  1709851
370
    18
100
AcDb2dPolyline
 66
     1
 10
0.0
 20
0.0
 30
0.0
  0
VERTEX
  5
67D
330
67C
100
AcDbEntity
  8
Ebene 1
 62
   179
420
  1709851
370
    18
100
AcDbVertex
100
AcDb2dVertex
 10
151.6096950575837
 20
-171.0999782558361
 30
0.0
  0
VERTEX
  5
67E
330
67C
100
AcDbEntity
  8
Ebene 1
 62
   179
420
  1709851
370
    18
100
AcDbVertex
100
AcDb2dVertex
 10
152.3083604219923
 20
-171.0999782558361
 30
0.0
  0
SEQEND
  5
67F
330
67C
100
AcDbEntity
  8
Ebene 1
370
    18
  0
POLYLINE
  5
680
330
1F
100
AcDbEntity
  8
Ebene 1
 62
   179
420
  1709851
370
    18
100
AcDb2dPolyline
 66
     1
 10
0.0
 20
0.0
 30
0.0
  0
VERTEX
  5
681
330
680
100
AcDbEntity
  8
Ebene 1
 62
   179
420
  1709851
370
    18
100
AcDbVertex
100
AcDb2dVertex
 10
153.7053466412612
 20
-171.0999782558361
 30
0.0
  0
VERTEX
  5
682
330
680
100
AcDbEntity
  8
Ebene 1
 62
   179
420
  1709851
370
    18
100
AcDbVertex
100
AcDb2dVertex
 10
154.4036674961213
 20
-171.0999782558361
 30
0.0
  0
SEQEND
  5
683
330
680
100
AcDbEntity
  8
Ebene 1
370
    18
  0
POLYLINE
  5
684
330
1F
100
AcDbEntity
  8
Ebene 1
 62
   179
420
  1709851
370
    18
100
AcDb2dPolyline
 66
     1
 10
0.0
 20
0.0
 30
0.0
  0
VERTEX
  5
685
330
684
100
AcDbEntity
  8
Ebene 1
 62
   179
420
  1709851
370
    18
100
AcDbVertex
100
AcDb2dVertex
 10
155.0179280211414
 20
-171.0999782558361
 30
0.0
  0
VERTEX
  5
686
330
684
100
AcDbEntity
  8
Ebene 1
 62
   179
420
  1709851
370
    18
100
AcDbVertex
100
AcDb2dVertex
 10
162.6164306234084
 20
-171.0999782558361
 30
0.0
  0
SEQEND
  5
687
330
684
100
AcDbEntity
  8
Ebene 1
370
    18
  0
POLYLINE
  5
688
330
1F
100
AcDbEntity
  8
Ebene 1
 62
   179
420
  1709851
370
    18
100
AcDb2dPolyline
 66
     1
 10
0.0
 20
0.0
 30
0.0
  0
VERTEX
  5
689
330
688
100
AcDbEntity
  8
Ebene 1
 62
   179
420
  1709851
370
    18
100
AcDbVertex
100
AcDb2dVertex
 10
151.3981661947894
 20
-171.0999782558361
 30
0.0
  0
VERTEX
  5
68A
330
688
100
AcDbEntity
  8
Ebene 1
 62
   179
420
  1709851
370
    18
100
AcDbVertex
100
AcDb2dVertex
 10
151.3981661947894
 20
-170.5074218323732
 30
0.0
  0
SEQEND
  5
68B
330
688
100
AcDbEntity
  8
Ebene 1
370
    18
  0
POLYLINE
  5
68C
330
1F
100
AcDbEntity
  8
Ebene 1
 62
   179
420
  1709851
370
    18
100
AcDb2dPolyline
 66
     1
 10
0.0
 20
0.0
 30
0.0
  0
VERTEX
  5
68D
330
68C
100
AcDbEntity
  8
Ebene 1
 62
   179
420
  1709851
370
    18
100
AcDbVertex
100
AcDb2dVertex
 10
154.6155408684642
 20
-170.5074218323732
 30
0.0
  0
VERTEX
  5
68E
330
68C
100
AcDbEntity
  8
Ebene 1
 62
   179
420
  1709851
370
    18
100
AcDbVertex
100
AcDb2dVertex
 10
154.6155408684642
 20
-171.0999782558361
 30
0.0
  0
SEQEND
  5
68F
330
68C
100
AcDbEntity
  8
Ebene 1
370
    18
  0
POLYLINE
  5
690
330
1F
100
AcDbEntity
  8
Ebene 1
 62
   179
420
  1709851
370
    18
100
AcDb2dPolyline
 66
     1
 10
0.0
 20
0.0
 30
0.0
  0
VERTEX
  5
691
330
690
100
AcDbEntity
  8
Ebene 1
 62
   179
420
  1709851
370
    18
100
AcDbVertex
100
AcDb2dVertex
 10
143.0162488791765
 20
-170.5074218323732
 30
0.0
  0
VERTEX
  5
692
330
690
100
AcDbEntity
  8
Ebene 1
 62
   179
420
  1709851
370
    18
100
AcDbVertex
100
AcDb2dVertex
 10
143.0162488791765
 20
-171.0999782558361
 30
0.0
  0
SEQEND
  5
693
330
690
100
AcDbEntity
  8
Ebene 1
370
    18
  0
POLYLINE
  5
694
330
1F
100
AcDbEntity
  8
Ebene 1
 62
   179
420
  1709851
370
    18
100
AcDb2dPolyline
 66
     1
 10
0.0
 20
0.0
 30
0.0
  0
VERTEX
  5
695
330
694
100
AcDbEntity
  8
Ebene 1
 62
   179
420
  1709851
370
    18
100
AcDbVertex
100
AcDb2dVertex
 10
162.997458184077
 20
-171.0999782558361
 30
0.0
  0
VERTEX
  5
696
330
694
100
AcDbEntity
  8
Ebene 1
 62
   179
420
  1709851
370
    18
100
AcDbVertex
100
AcDb2dVertex
 10
162.997458184077
 20
-170.5074218323732
 30
0.0
  0
SEQEND
  5
697
330
694
100
AcDbEntity
  8
Ebene 1
370
    18
  0
POLYLINE
  5
698
330
1F
100
AcDbEntity
  8
Ebene 1
 62
   179
420
  1709851
370
    18
100
AcDb2dPolyline
 66
     1
 10
0.0
 20
0.0
 30
0.0
  0
VERTEX
  5
699
330
698
100
AcDbEntity
  8
Ebene 1
 62
   179
420
  1709851
370
    18
100
AcDbVertex
100
AcDb2dVertex
 10
143.4182915223052
 20
-171.0999782558361
 30
0.0
  0
VERTEX
  5
69A
330
698
100
AcDbEntity
  8
Ebene 1
 62
   179
420
  1709851
370
    18
100
AcDbVertex
100
AcDb2dVertex
 10
143.0162488791765
 20
-171.0999782558361
 30
0.0
  0
SEQEND
  5
69B
330
698
100
AcDbEntity
  8
Ebene 1
370
    18
  0
POLYLINE
  5
69C
330
1F
100
AcDbEntity
  8
Ebene 1
 62
   179
420
  1709851
370
    18
100
AcDb2dPolyline
 66
     1
 10
0.0
 20
0.0
 30
0.0
  0
VERTEX
  5
69D
330
69C
100
AcDbEntity
  8
Ebene 1
 62
   179
420
  1709851
370
    18
100
AcDbVertex
100
AcDb2dVertex
 10
151.3981661947894
 20
-171.0999782558361
 30
0.0
  0
VERTEX
  5
69E
330
69C
100
AcDbEntity
  8
Ebene 1
 62
   179
420
  1709851
370
    18
100
AcDbVertex
100
AcDb2dVertex
 10
151.0171386341207
 20
-171.0999782558361
 30
0.0
  0
SEQEND
  5
69F
330
69C
100
AcDbEntity
  8
Ebene 1
370
    18
  0
POLYLINE
  5
6A0
330
1F
100
AcDbEntity
  8
Ebene 1
 62
   179
420
  1709851
370
    18
100
AcDb2dPolyline
 66
     1
 10
0.0
 20
0.0
 30
0.0
  0
VERTEX
  5
6A1
330
6A0
100
AcDbEntity
  8
Ebene 1
 62
   179
420
  1709851
370
    18
100
AcDbVertex
100
AcDb2dVertex
 10
155.0179280211414
 20
-171.0999782558361
 30
0.0
  0
VERTEX
  5
6A2
330
6A0
100
AcDbEntity
  8
Ebene 1
 62
   179
420
  1709851
370
    18
100
AcDbVertex
100
AcDb2dVertex
 10
154.6155408684642
 20
-171.0999782558361
 30
0.0
  0
SEQEND
  5
6A3
330
6A0
100
AcDbEntity
  8
Ebene 1
370
    18
  0
POLYLINE
  5
6A4
330
1F
100
AcDbEntity
  8
Ebene 1
 62
   179
420
  1709851
370
    18
100
AcDb2dPolyline
 66
     1
 10
0.0
 20
0.0
 30
0.0
  0
VERTEX
  5
6A5
330
6A4
100
AcDbEntity
  8
Ebene 1
 62
   179
420
  1709851
370
    18
100
AcDbVertex
100
AcDb2dVertex
 10
162.997458184077
 20
-171.0999782558361
 30
0.0
  0
VERTEX
  5
6A6
330
6A4
100
AcDbEntity
  8
Ebene 1
 62
   179
420
  1709851
370
    18
100
AcDbVertex
100
AcDb2dVertex
 10
162.6164306234084
 20
-171.0999782558361
 30
0.0
  0
SEQEND
  5
6A7
330
6A4
100
AcDbEntity
  8
Ebene 1
370
    18
  0
POLYLINE
  5
6A8
330
1F
100
AcDbEntity
  8
Ebene 1
 62
   179
420
  1709851
370
    18
100
AcDb2dPolyline
 66
     1
 10
0.0
 20
0.0
 30
0.0
  0
VERTEX
  5
6A9
330
6A8
100
AcDbEntity
  8
Ebene 1
 62
   179
420
  1709851
370
    18
100
AcDbVertex
100
AcDb2dVertex
 10
151.3981661947894
 20
-171.0999782558361
 30
0.0
  0
VERTEX
  5
6AA
330
6A8
100
AcDbEntity
  8
Ebene 1
 62
   179
420
  1709851
370
    18
100
AcDbVertex
100
AcDb2dVertex
 10
151.4405408692579
 20
-171.1420084207562
 30
0.0
  0
SEQEND
  5
6AB
330
6A8
100
AcDbEntity
  8
Ebene 1
370
    18
  0
POLYLINE
  5
6AC
330
1F
100
AcDbEntity
  8
Ebene 1
 62
   179
420
  1709851
370
    18
100
AcDb2dPolyline
 66
     1
 10
0.0
 20
0.0
 30
0.0
  0
VERTEX
  5
6AD
330
6AC
100
AcDbEntity
  8
Ebene 1
 62
   179
420
  1709851
370
    18
100
AcDbVertex
100
AcDb2dVertex
 10
154.6155408684642
 20
-171.0999782558361
 30
0.0
  0
VERTEX
  5
6AE
330
6AC
100
AcDbEntity
  8
Ebene 1
 62
   179
420
  1709851
370
    18
100
AcDbVertex
100
AcDb2dVertex
 10
154.5731661939956
 20
-171.1420084207562
 30
0.0
  0
SEQEND
  5
6AF
330
6AC
100
AcDbEntity
  8
Ebene 1
370
    18
  0
POLYLINE
  5
6B0
330
1F
100
AcDbEntity
  8
Ebene 1
 62
   179
420
  1709851
370
    18
100
AcDb2dPolyline
 66
     1
 10
0.0
 20
0.0
 30
0.0
  0
VERTEX
  5
6B1
330
6B0
100
AcDbEntity
  8
Ebene 1
 62
   179
420
  1709851
370
    18
100
AcDbVertex
100
AcDb2dVertex
 10
154.3192626567327
 20
-171.2901475266219
 30
0.0
  0
VERTEX
  5
6B2
330
6B0
100
AcDbEntity
  8
Ebene 1
 62
   179
420
  1709851
370
    18
100
AcDbVertex
100
AcDb2dVertex
 10
154.4674017625984
 20
-171.2481173617019
 30
0.0
  0
VERTEX
  5
6B3
330
6B0
100
AcDbEntity
  8
Ebene 1
 62
   179
420
  1709851
370
    18
100
AcDbVertex
100
AcDb2dVertex
 10
154.5731661939956
 20
-171.1420084207562
 30
0.0
  0
SEQEND
  5
6B4
330
6B0
100
AcDbEntity
  8
Ebene 1
370
    18
  0
POLYLINE
  5
6B5
330
1F
100
AcDbEntity
  8
Ebene 1
 62
   179
420
  1709851
370
    18
100
AcDb2dPolyline
 66
     1
 10
0.0
 20
0.0
 30
0.0
  0
VERTEX
  5
6B6
330
6B5
100
AcDbEntity
  8
Ebene 1
 62
   179
420
  1709851
370
    18
100
AcDbVertex
100
AcDb2dVertex
 10
151.4405408692579
 20
-171.1420084207562
 30
0.0
  0
VERTEX
  5
6B7
330
6B5
100
AcDbEntity
  8
Ebene 1
 62
   179
420
  1709851
370
    18
100
AcDbVertex
100
AcDb2dVertex
 10
151.5463053006551
 20
-171.2481173617019
 30
0.0
  0
VERTEX
  5
6B8
330
6B5
100
AcDbEntity
  8
Ebene 1
 62
   179
420
  1709851
370
    18
100
AcDbVertex
100
AcDb2dVertex
 10
151.6944444065208
 20
-171.2901475266219
 30
0.0
  0
SEQEND
  5
6B9
330
6B5
100
AcDbEntity
  8
Ebene 1
370
    18
  0
POLYLINE
  5
6BA
330
1F
100
AcDbEntity
  8
Ebene 1
 62
   179
420
  1709851
370
    18
100
AcDb2dPolyline
 66
     1
 10
0.0
 20
0.0
 30
0.0
  0
VERTEX
  5
6BB
330
6BA
100
AcDbEntity
  8
Ebene 1
 62
   179
420
  1709851
370
    18
100
AcDbVertex
100
AcDb2dVertex
 10
154.3192626567327
 20
-171.2901475266219
 30
0.0
  0
VERTEX
  5
6BC
330
6BA
100
AcDbEntity
  8
Ebene 1
 62
   179
420
  1709851
370
    18
100
AcDbVertex
100
AcDb2dVertex
 10
153.7053466412612
 20
-171.2901475266219
 30
0.0
  0
SEQEND
  5
6BD
330
6BA
100
AcDbEntity
  8
Ebene 1
370
    18
  0
POLYLINE
  5
6BE
330
1F
100
AcDbEntity
  8
Ebene 1
 62
   179
420
  1709851
370
    18
100
AcDb2dPolyline
 66
     1
 10
0.0
 20
0.0
 30
0.0
  0
VERTEX
  5
6BF
330
6BE
100
AcDbEntity
  8
Ebene 1
 62
   179
420
  1709851
370
    18
100
AcDbVertex
100
AcDb2dVertex
 10
152.3083604219923
 20
-171.2901475266219
 30
0.0
  0
VERTEX
  5
6C0
330
6BE
100
AcDbEntity
  8
Ebene 1
 62
   179
420
  1709851
370
    18
100
AcDbVertex
100
AcDb2dVertex
 10
151.6944444065208
 20
-171.2901475266219
 30
0.0
  0
SEQEND
  5
6C1
330
6BE
100
AcDbEntity
  8
Ebene 1
370
    18
  0
POLYLINE
  5
6C2
330
1F
100
AcDbEntity
  8
Ebene 1
 62
   179
420
  1709851
370
    18
100
AcDb2dPolyline
 66
     1
 10
0.0
 20
0.0
 30
0.0
  0
VERTEX
  5
6C3
330
6C2
100
AcDbEntity
  8
Ebene 1
 62
   179
420
  1709851
370
    18
100
AcDbVertex
100
AcDb2dVertex
 10
154.3192626567327
 20
-171.2901475266219
 30
0.0
  0
VERTEX
  5
6C4
330
6C2
100
AcDbEntity
  8
Ebene 1
 62
   179
420
  1709851
370
    18
100
AcDbVertex
100
AcDb2dVertex
 10
155.2080972919271
 20
-171.2901475266219
 30
0.0
  0
SEQEND
  5
6C5
330
6C2
100
AcDbEntity
  8
Ebene 1
370
    18
  0
POLYLINE
  5
6C6
330
1F
100
AcDbEntity
  8
Ebene 1
 62
   179
420
  1709851
370
    18
100
AcDb2dPolyline
 66
     1
 10
0.0
 20
0.0
 30
0.0
  0
VERTEX
  5
6C7
330
6C6
100
AcDbEntity
  8
Ebene 1
 62
   179
420
  1709851
370
    18
100
AcDbVertex
100
AcDb2dVertex
 10
150.8056097713264
 20
-171.2901475266219
 30
0.0
  0
VERTEX
  5
6C8
330
6C6
100
AcDbEntity
  8
Ebene 1
 62
   179
420
  1709851
370
    18
100
AcDbVertex
100
AcDb2dVertex
 10
151.6944444065208
 20
-171.2901475266219
 30
0.0
  0
SEQEND
  5
6C9
330
6C6
100
AcDbEntity
  8
Ebene 1
370
    18
  0
POLYLINE
  5
6CA
330
1F
100
AcDbEntity
  8
Ebene 1
 62
   179
420
  1709851
370
    18
100
AcDb2dPolyline
 66
     1
 10
0.0
 20
0.0
 30
0.0
  0
VERTEX
  5
6CB
330
6CA
100
AcDbEntity
  8
Ebene 1
 62
   179
420
  1709851
370
    18
100
AcDbVertex
100
AcDb2dVertex
 10
43.02476398663964
 20
-170.5074218323732
 30
0.0
  0
VERTEX
  5
6CC
330
6CA
100
AcDbEntity
  8
Ebene 1
 62
   179
420
  1709851
370
    18
100
AcDbVertex
100
AcDb2dVertex
 10
63.00614554631444
 20
-170.5074218323732
 30
0.0
  0
SEQEND
  5
6CD
330
6CA
100
AcDbEntity
  8
Ebene 1
370
    18
  0
POLYLINE
  5
6CE
330
1F
100
AcDbEntity
  8
Ebene 1
 62
   179
420
  1709851
370
    13
100
AcDb2dPolyline
 66
     1
 10
0.0
 20
0.0
 30
0.0
  0
VERTEX
  5
6CF
330
6CE
100
AcDbEntity
  8
Ebene 1
 62
   179
420
  1709851
370
    13
100
AcDbVertex
100
AcDb2dVertex
 10
153.007025786401
 20
-170.5074218323732
 30
0.0
  0
VERTEX
  5
6D0
330
6CE
100
AcDbEntity
  8
Ebene 1
 62
   179
420
  1709851
370
    13
100
AcDbVertex
100
AcDb2dVertex
 10
153.007025786401
 20
-168.3907551662357
 30
0.0
  0
SEQEND
  5
6D1
330
6CE
100
AcDbEntity
  8
Ebene 1
370
    13
  0
POLYLINE
  5
6D2
330
1F
100
AcDbEntity
  8
Ebene 1
 62
   179
420
  1709851
370
    18
100
AcDb2dPolyline
 66
     1
 10
0.0
 20
0.0
 30
0.0
  0
VERTEX
  5
6D3
330
6D2
100
AcDbEntity
  8
Ebene 1
 62
   179
420
  1709851
370
    18
100
AcDbVertex
100
AcDb2dVertex
 10
152.2025959905952
 20
-174.5498968747653
 30
0.0
  0
VERTEX
  5
6D4
330
6D2
100
AcDbEntity
  8
Ebene 1
 62
   179
420
  1709851
370
    18
100
AcDbVertex
100
AcDb2dVertex
 10
153.8111110726583
 20
-174.5498968747653
 30
0.0
  0
SEQEND
  5
6D5
330
6D2
100
AcDbEntity
  8
Ebene 1
370
    18
  0
POLYLINE
  5
6D6
330
1F
100
AcDbEntity
  8
Ebene 1
 62
   179
420
  1709851
370
    18
100
AcDb2dPolyline
 66
     1
 10
0.0
 20
0.0
 30
0.0
  0
VERTEX
  5
6D7
330
6D6
100
AcDbEntity
  8
Ebene 1
 62
   179
420
  1709851
370
    18
100
AcDbVertex
100
AcDb2dVertex
 10
155.2077527823786
 20
-171.2901475266219
 30
0.0
  0
VERTEX
  5
6D8
330
6D6
100
AcDbEntity
  8
Ebene 1
 62
   179
420
  1709851
370
    18
100
AcDbVertex
100
AcDb2dVertex
 10
156.9650959894046
 20
-171.2901475266219
 30
0.0
  0
SEQEND
  5
6D9
330
6D6
100
AcDbEntity
  8
Ebene 1
370
    18
  0
POLYLINE
  5
6DA
330
1F
100
AcDbEntity
  8
Ebene 1
 62
   179
420
  1709851
370
    18
100
AcDb2dPolyline
 66
     1
 10
0.0
 20
0.0
 30
0.0
  0
VERTEX
  5
6DB
330
6DA
100
AcDbEntity
  8
Ebene 1
 62
   179
420
  1709851
370
    18
100
AcDbVertex
100
AcDb2dVertex
 10
156.6688177776731
 20
-171.0999782558361
 30
0.0
  0
VERTEX
  5
6DC
330
6DA
100
AcDbEntity
  8
Ebene 1
 62
   179
420
  1709851
370
    18
100
AcDbVertex
100
AcDb2dVertex
 10
156.943736397396
 20
-171.2687879346134
 30
0.0
  0
VERTEX
  5
6DD
330
6DA
100
AcDbEntity
  8
Ebene 1
 62
   179
420
  1709851
370
    18
100
AcDbVertex
100
AcDb2dVertex
 10
157.5366373304075
 20
-171.649815495282
 30
0.0
  0
SEQEND
  5
6DE
330
6DA
100
AcDbEntity
  8
Ebene 1
370
    18
  0
POLYLINE
  5
6DF
330
1F
100
AcDbEntity
  8
Ebene 1
 62
   179
420
  1709851
370
    18
100
AcDb2dPolyline
 66
     1
 10
0.0
 20
0.0
 30
0.0
  0
VERTEX
  5
6E0
330
6DF
100
AcDbEntity
  8
Ebene 1
 62
   179
420
  1709851
370
    18
100
AcDbVertex
100
AcDb2dVertex
 10
157.8535861150505
 20
-171.1426974398532
 30
0.0
  0
VERTEX
  5
6E1
330
6DF
100
AcDbEntity
  8
Ebene 1
 62
   179
420
  1709851
370
    18
100
AcDbVertex
100
AcDb2dVertex
 10
157.7695257852104
 20
-171.0999782558361
 30
0.0
  0
SEQEND
  5
6E2
330
6DF
100
AcDbEntity
  8
Ebene 1
370
    18
  0
POLYLINE
  5
6E3
330
1F
100
AcDbEntity
  8
Ebene 1
 62
   179
420
  1709851
370
    18
100
AcDb2dPolyline
 66
     1
 10
0.0
 20
0.0
 30
0.0
  0
VERTEX
  5
6E4
330
6E3
100
AcDbEntity
  8
Ebene 1
 62
   179
420
  1709851
370
    18
100
AcDbVertex
100
AcDb2dVertex
 10
158.9336235496763
 20
-171.0999782558361
 30
0.0
  0
VERTEX
  5
6E5
330
6E3
100
AcDbEntity
  8
Ebene 1
 62
   179
420
  1709851
370
    18
100
AcDbVertex
100
AcDb2dVertex
 10
158.2986924517448
 20
-171.2267577696933
 30
0.0
  0
SEQEND
  5
6E6
330
6E3
100
AcDbEntity
  8
Ebene 1
370
    18
  0
POLYLINE
  5
6E7
330
1F
100
AcDbEntity
  8
Ebene 1
 62
   179
420
  1709851
370
    18
100
AcDb2dPolyline
 66
     1
 10
0.0
 20
0.0
 30
0.0
  0
VERTEX
  5
6E8
330
6E7
100
AcDbEntity
  8
Ebene 1
 62
   179
420
  1709851
370
    18
100
AcDbVertex
100
AcDb2dVertex
 10
161.8967501765397
 20
-171.0999782558361
 30
0.0
  0
VERTEX
  5
6E9
330
6E7
100
AcDbEntity
  8
Ebene 1
 62
   179
420
  1709851
370
    18
100
AcDbVertex
100
AcDb2dVertex
 10
161.7275959882139
 20
-171.0999782558361
 30
0.0
  0
SEQEND
  5
6EA
330
6E7
100
AcDbEntity
  8
Ebene 1
370
    18
  0
POLYLINE
  5
6EB
330
1F
100
AcDbEntity
  8
Ebene 1
 62
   179
420
  1709851
370
    18
100
AcDb2dPolyline
 66
     1
 10
0.0
 20
0.0
 30
0.0
  0
VERTEX
  5
6EC
330
6EB
100
AcDbEntity
  8
Ebene 1
 62
   179
420
  1709851
370
    18
100
AcDbVertex
100
AcDb2dVertex
 10
158.4251274560534
 20
-171.8193141931563
 30
0.0
  0
VERTEX
  5
6ED
330
6EB
100
AcDbEntity
  8
Ebene 1
 62
   179
420
  1709851
370
    18
100
AcDbVertex
100
AcDb2dVertex
 10
161.7275959882139
 20
-171.0999782558361
 30
0.0
  0
SEQEND
  5
6EE
330
6EB
100
AcDbEntity
  8
Ebene 1
370
    18
  0
POLYLINE
  5
6EF
330
1F
100
AcDbEntity
  8
Ebene 1
 62
   179
420
  1709851
370
    18
100
AcDb2dPolyline
 66
     1
 10
0.0
 20
0.0
 30
0.0
  0
VERTEX
  5
6F0
330
6EF
100
AcDbEntity
  8
Ebene 1
 62
   179
420
  1709851
370
    18
100
AcDbVertex
100
AcDb2dVertex
 10
157.8535861150505
 20
-171.1426974398532
 30
0.0
  0
VERTEX
  5
6F1
330
6EF
100
AcDbEntity
  8
Ebene 1
 62
   179
420
  1709851
370
    18
100
AcDbVertex
100
AcDb2dVertex
 10
158.0658039969419
 20
-171.2267577696933
 30
0.0
  0
VERTEX
  5
6F2
330
6EF
100
AcDbEntity
  8
Ebene 1
 62
   179
420
  1709851
370
    18
100
AcDbVertex
100
AcDb2dVertex
 10
158.1291937538705
 20
-171.2481173617019
 30
0.0
  0
SEQEND
  5
6F3
330
6EF
100
AcDbEntity
  8
Ebene 1
370
    18
  0
POLYLINE
  5
6F4
330
1F
100
AcDbEntity
  8
Ebene 1
 62
   179
420
  1709851
370
    18
100
AcDb2dPolyline
 66
     1
 10
0.0
 20
0.0
 30
0.0
  0
VERTEX
  5
6F5
330
6F4
100
AcDbEntity
  8
Ebene 1
 62
   179
420
  1709851
370
    18
100
AcDbVertex
100
AcDb2dVertex
 10
158.1291937538705
 20
-171.2481173617019
 30
0.0
  0
VERTEX
  5
6F6
330
6F4
100
AcDbEntity
  8
Ebene 1
 62
   179
420
  1709851
370
    18
100
AcDbVertex
100
AcDb2dVertex
 10
158.2986924517448
 20
-171.2267577696933
 30
0.0
  0
SEQEND
  5
6F7
330
6F4
100
AcDbEntity
  8
Ebene 1
370
    18
  0
POLYLINE
  5
6F8
330
1F
100
AcDbEntity
  8
Ebene 1
 62
   179
420
  1709851
370
    18
100
AcDb2dPolyline
 66
     1
 10
0.0
 20
0.0
 30
0.0
  0
VERTEX
  5
6F9
330
6F8
100
AcDbEntity
  8
Ebene 1
 62
   179
420
  1709851
370
    18
100
AcDbVertex
100
AcDb2dVertex
 10
157.5366373304075
 20
-171.649815495282
 30
0.0
  0
VERTEX
  5
6FA
330
6F8
100
AcDbEntity
  8
Ebene 1
 62
   179
420
  1709851
370
    18
100
AcDbVertex
100
AcDb2dVertex
 10
157.8115559501304
 20
-171.7979546011478
 30
0.0
  0
VERTEX
  5
6FB
330
6F8
100
AcDbEntity
  8
Ebene 1
 62
   179
420
  1709851
370
    18
100
AcDbVertex
100
AcDb2dVertex
 10
158.1081786714105
 20
-171.8406737851649
 30
0.0
  0
VERTEX
  5
6FC
330
6F8
100
AcDbEntity
  8
Ebene 1
 62
   179
420
  1709851
370
    18
100
AcDbVertex
100
AcDb2dVertex
 10
158.404456883142
 20
-171.8193141931563
 30
0.0
  0
VERTEX
  5
6FD
330
6F8
100
AcDbEntity
  8
Ebene 1
 62
   179
420
  1709851
370
    18
100
AcDbVertex
100
AcDb2dVertex
 10
158.4251274560534
 20
-171.8193141931563
 30
0.0
  0
SEQEND
  5
6FE
330
6F8
100
AcDbEntity
  8
Ebene 1
370
    18
  0
POLYLINE
  5
6FF
330
1F
100
AcDbEntity
  8
Ebene 1
 62
   179
420
  1709851
370
    13
100
AcDb2dPolyline
 66
     1
 10
0.0
 20
0.0
 30
0.0
  0
VERTEX
  5
700
330
6FF
100
AcDbEntity
  8
Ebene 1
 62
   179
420
  1709851
370
    13
100
AcDbVertex
100
AcDb2dVertex
 10
154.7213052998613
 20
-173.2373154948851
 30
0.0
  0
VERTEX
  5
701
330
6FF
100
AcDbEntity
  8
Ebene 1
 62
   179
420
  1709851
370
    13
100
AcDbVertex
100
AcDb2dVertex
 10
154.7636799743299
 20
-173.2373154948851
 30
0.0
  0
SEQEND
  5
702
330
6FF
100
AcDbEntity
  8
Ebene 1
370
    13
  0
POLYLINE
  5
703
330
1F
100
AcDbEntity
  8
Ebene 1
 62
   179
420
  1709851
370
    13
100
AcDb2dPolyline
 66
     1
 10
0.0
 20
0.0
 30
0.0
  0
VERTEX
  5
704
330
703
100
AcDbEntity
  8
Ebene 1
 62
   179
420
  1709851
370
    13
100
AcDbVertex
100
AcDb2dVertex
 10
155.2714870488557
 20
-173.0471462240993
 30
0.0
  0
VERTEX
  5
705
330
703
100
AcDbEntity
  8
Ebene 1
 62
   179
420
  1709851
370
    13
100
AcDbVertex
100
AcDb2dVertex
 10
155.2504719663957
 20
-173.0471462240993
 30
0.0
  0
SEQEND
  5
706
330
703
100
AcDbEntity
  8
Ebene 1
370
    13
  0
POLYLINE
  5
707
330
1F
100
AcDbEntity
  8
Ebene 1
 62
   179
420
  1709851
370
    13
100
AcDb2dPolyline
 66
     1
 10
0.0
 20
0.0
 30
0.0
  0
VERTEX
  5
708
330
707
100
AcDbEntity
  8
Ebene 1
 62
   179
420
  1709851
370
    13
100
AcDbVertex
100
AcDb2dVertex
 10
154.7636799743299
 20
-173.2373154948851
 30
0.0
  0
VERTEX
  5
709
330
707
100
AcDbEntity
  8
Ebene 1
 62
   179
420
  1709851
370
    13
100
AcDbVertex
100
AcDb2dVertex
 10
154.7636799743299
 20
-173.2373154948851
 30
0.0
  0
VERTEX
  5
70A
330
707
100
AcDbEntity
  8
Ebene 1
 62
   179
420
  1709851
370
    13
100
AcDbVertex
100
AcDb2dVertex
 10
155.2504719663957
 20
-173.0471462240993
 30
0.0
  0
SEQEND
  5
70B
330
707
100
AcDbEntity
  8
Ebene 1
370
    13
  0
POLYLINE
  5
70C
330
1F
100
AcDbEntity
  8
Ebene 1
 62
   179
420
  1709851
370
    13
100
AcDb2dPolyline
 66
     1
 10
0.0
 20
0.0
 30
0.0
  0
VERTEX
  5
70D
330
70C
100
AcDbEntity
  8
Ebene 1
 62
   179
420
  1709851
370
    13
100
AcDbVertex
100
AcDb2dVertex
 10
155.2714870488557
 20
-173.0471462240993
 30
0.0
  0
VERTEX
  5
70E
330
70C
100
AcDbEntity
  8
Ebene 1
 62
   179
420
  1709851
370
    13
100
AcDbVertex
100
AcDb2dVertex
 10
155.2714870488557
 20
-173.0471462240993
 30
0.0
  0
VERTEX
  5
70F
330
70C
100
AcDbEntity
  8
Ebene 1
 62
   179
420
  1709851
370
    13
100
AcDbVertex
100
AcDb2dVertex
 10
155.3565809073414
 20
-173.0471462240993
 30
0.0
  0
SEQEND
  5
710
330
70C
100
AcDbEntity
  8
Ebene 1
370
    13
  0
POLYLINE
  5
711
330
1F
100
AcDbEntity
  8
Ebene 1
 62
   179
420
  1709851
370
    13
100
AcDb2dPolyline
 66
     1
 10
0.0
 20
0.0
 30
0.0
  0
VERTEX
  5
712
330
711
100
AcDbEntity
  8
Ebene 1
 62
   179
420
  1709851
370
    13
100
AcDbVertex
100
AcDb2dVertex
 10
155.5681097701357
 20
-173.2373154948851
 30
0.0
  0
VERTEX
  5
713
330
711
100
AcDbEntity
  8
Ebene 1
 62
   179
420
  1709851
370
    13
100
AcDbVertex
100
AcDb2dVertex
 10
155.5257350956672
 20
-173.1318955730365
 30
0.0
  0
VERTEX
  5
714
330
711
100
AcDbEntity
  8
Ebene 1
 62
   179
420
  1709851
370
    13
100
AcDbVertex
100
AcDb2dVertex
 10
155.41997066427
 20
-173.0471462240993
 30
0.0
  0
VERTEX
  5
715
330
711
100
AcDbEntity
  8
Ebene 1
 62
   179
420
  1709851
370
    13
100
AcDbVertex
100
AcDb2dVertex
 10
155.3565809073414
 20
-173.0471462240993
 30
0.0
  0
SEQEND
  5
716
330
711
100
AcDbEntity
  8
Ebene 1
370
    13
  0
POLYLINE
  5
717
330
1F
100
AcDbEntity
  8
Ebene 1
 62
   179
420
  1709851
370
    13
100
AcDb2dPolyline
 66
     1
 10
0.0
 20
0.0
 30
0.0
  0
VERTEX
  5
718
330
717
100
AcDbEntity
  8
Ebene 1
 62
   179
420
  1709851
370
    13
100
AcDbVertex
100
AcDb2dVertex
 10
155.5681097701357
 20
-174.1475097220881
 30
0.0
  0
VERTEX
  5
719
330
717
100
AcDbEntity
  8
Ebene 1
 62
   179
420
  1709851
370
    13
100
AcDbVertex
100
AcDb2dVertex
 10
155.5681097701357
 20
-173.3854546007509
 30
0.0
  0
SEQEND
  5
71A
330
717
100
AcDbEntity
  8
Ebene 1
370
    13
  0
POLYLINE
  5
71B
330
1F
100
AcDbEntity
  8
Ebene 1
 62
   179
420
  1709851
370
    13
100
AcDb2dPolyline
 66
     1
 10
0.0
 20
0.0
 30
0.0
  0
VERTEX
  5
71C
330
71B
100
AcDbEntity
  8
Ebene 1
 62
   179
420
  1709851
370
    13
100
AcDbVertex
100
AcDb2dVertex
 10
155.1657226174586
 20
-174.5498968747653
 30
0.0
  0
VERTEX
  5
71D
330
71B
100
AcDbEntity
  8
Ebene 1
 62
   179
420
  1709851
370
    13
100
AcDbVertex
100
AcDb2dVertex
 10
155.3352213153329
 20
-174.5078667098453
 30
0.0
  0
VERTEX
  5
71E
330
71B
100
AcDbEntity
  8
Ebene 1
 62
   179
420
  1709851
370
    13
100
AcDbVertex
100
AcDb2dVertex
 10
155.4833604211986
 20
-174.380398176891
 30
0.0
  0
VERTEX
  5
71F
330
71B
100
AcDbEntity
  8
Ebene 1
 62
   179
420
  1709851
370
    13
100
AcDbVertex
100
AcDb2dVertex
 10
155.5470946876757
 20
-174.2115884981138
 30
0.0
  0
VERTEX
  5
720
330
71B
100
AcDbEntity
  8
Ebene 1
 62
   179
420
  1709851
370
    13
100
AcDbVertex
100
AcDb2dVertex
 10
155.5681097701357
 20
-174.1475097220881
 30
0.0
  0
SEQEND
  5
721
330
71B
100
AcDbEntity
  8
Ebene 1
370
    13
  0
POLYLINE
  5
722
330
1F
100
AcDbEntity
  8
Ebene 1
 62
   179
420
  1709851
370
    13
100
AcDb2dPolyline
 66
     1
 10
0.0
 20
0.0
 30
0.0
  0
VERTEX
  5
723
330
722
100
AcDbEntity
  8
Ebene 1
 62
   179
420
  1709851
370
    13
100
AcDbVertex
100
AcDb2dVertex
 10
151.2500270889236
 20
-173.2373154948851
 30
0.0
  0
VERTEX
  5
724
330
722
100
AcDbEntity
  8
Ebene 1
 62
   179
420
  1709851
370
    13
100
AcDbVertex
100
AcDb2dVertex
 10
151.2924017633922
 20
-173.2373154948851
 30
0.0
  0
SEQEND
  5
725
330
722
100
AcDbEntity
  8
Ebene 1
370
    13
  0
POLYLINE
  5
726
330
1F
100
AcDbEntity
  8
Ebene 1
 62
   179
420
  1709851
370
    13
100
AcDb2dPolyline
 66
     1
 10
0.0
 20
0.0
 30
0.0
  0
VERTEX
  5
727
330
726
100
AcDbEntity
  8
Ebene 1
 62
   179
420
  1709851
370
    13
100
AcDbVertex
100
AcDb2dVertex
 10
150.7845946888663
 20
-173.0471462240993
 30
0.0
  0
VERTEX
  5
728
330
726
100
AcDbEntity
  8
Ebene 1
 62
   179
420
  1709851
370
    13
100
AcDbVertex
100
AcDb2dVertex
 10
150.7418755048492
 20
-173.0471462240993
 30
0.0
  0
SEQEND
  5
729
330
726
100
AcDbEntity
  8
Ebene 1
370
    13
  0
POLYLINE
  5
72A
330
1F
100
AcDbEntity
  8
Ebene 1
 62
   179
420
  1709851
370
    13
100
AcDb2dPolyline
 66
     1
 10
0.0
 20
0.0
 30
0.0
  0
VERTEX
  5
72B
330
72A
100
AcDbEntity
  8
Ebene 1
 62
   179
420
  1709851
370
    13
100
AcDbVertex
100
AcDb2dVertex
 10
151.2286674969151
 20
-173.2373154948851
 30
0.0
  0
VERTEX
  5
72C
330
72A
100
AcDbEntity
  8
Ebene 1
 62
   179
420
  1709851
370
    13
100
AcDbVertex
100
AcDb2dVertex
 10
151.2500270889236
 20
-173.2373154948851
 30
0.0
  0
SEQEND
  5
72D
330
72A
100
AcDbEntity
  8
Ebene 1
370
    13
  0
POLYLINE
  5
72E
330
1F
100
AcDbEntity
  8
Ebene 1
 62
   179
420
  1709851
370
    13
100
AcDb2dPolyline
 66
     1
 10
0.0
 20
0.0
 30
0.0
  0
VERTEX
  5
72F
330
72E
100
AcDbEntity
  8
Ebene 1
 62
   179
420
  1709851
370
    13
100
AcDbVertex
100
AcDb2dVertex
 10
150.6574706654606
 20
-173.0471462240993
 30
0.0
  0
VERTEX
  5
730
330
72E
100
AcDbEntity
  8
Ebene 1
 62
   179
420
  1709851
370
    13
100
AcDbVertex
100
AcDb2dVertex
 10
150.5303466420549
 20
-173.0891763890194
 30
0.0
  0
VERTEX
  5
731
330
72E
100
AcDbEntity
  8
Ebene 1
 62
   179
420
  1709851
370
    13
100
AcDbVertex
100
AcDb2dVertex
 10
150.4669568851263
 20
-173.1952853299651
 30
0.0
  0
VERTEX
  5
732
330
72E
100
AcDbEntity
  8
Ebene 1
 62
   179
420
  1709851
370
    13
100
AcDbVertex
100
AcDb2dVertex
 10
150.4669568851263
 20
-173.2373154948851
 30
0.0
  0
SEQEND
  5
733
330
72E
100
AcDbEntity
  8
Ebene 1
370
    13
  0
POLYLINE
  5
734
330
1F
100
AcDbEntity
  8
Ebene 1
 62
   179
420
  1709851
370
    13
100
AcDb2dPolyline
 66
     1
 10
0.0
 20
0.0
 30
0.0
  0
VERTEX
  5
735
330
734
100
AcDbEntity
  8
Ebene 1
 62
   179
420
  1709851
370
    13
100
AcDbVertex
100
AcDb2dVertex
 10
150.4669568851263
 20
-174.1475097220881
 30
0.0
  0
VERTEX
  5
736
330
734
100
AcDbEntity
  8
Ebene 1
 62
   179
420
  1709851
370
    13
100
AcDbVertex
100
AcDb2dVertex
 10
150.4669568851263
 20
-174.1475097220881
 30
0.0
  0
VERTEX
  5
737
330
734
100
AcDbEntity
  8
Ebene 1
 62
   179
420
  1709851
370
    13
100
AcDbVertex
100
AcDb2dVertex
 10
150.4669568851263
 20
-173.3854546007509
 30
0.0
  0
SEQEND
  5
738
330
734
100
AcDbEntity
  8
Ebene 1
370
    13
  0
POLYLINE
  5
739
330
1F
100
AcDbEntity
  8
Ebene 1
 62
   179
420
  1709851
370
    13
100
AcDb2dPolyline
 66
     1
 10
0.0
 20
0.0
 30
0.0
  0
VERTEX
  5
73A
330
739
100
AcDbEntity
  8
Ebene 1
 62
   179
420
  1709851
370
    13
100
AcDbVertex
100
AcDb2dVertex
 10
150.4669568851263
 20
-174.1475097220881
 30
0.0
  0
VERTEX
  5
73B
330
739
100
AcDbEntity
  8
Ebene 1
 62
   179
420
  1709851
370
    13
100
AcDbVertex
100
AcDb2dVertex
 10
150.5089870500464
 20
-174.3176974390595
 30
0.0
  0
VERTEX
  5
73C
330
739
100
AcDbEntity
  8
Ebene 1
 62
   179
420
  1709851
370
    13
100
AcDbVertex
100
AcDb2dVertex
 10
150.6150959909921
 20
-174.4651475258282
 30
0.0
  0
VERTEX
  5
73D
330
739
100
AcDbEntity
  8
Ebene 1
 62
   179
420
  1709851
370
    13
100
AcDbVertex
100
AcDb2dVertex
 10
150.7845946888663
 20
-174.5498968747653
 30
0.0
  0
VERTEX
  5
73E
330
739
100
AcDbEntity
  8
Ebene 1
 62
   179
420
  1709851
370
    13
100
AcDbVertex
100
AcDb2dVertex
 10
150.8476399362464
 20
-174.5498968747653
 30
0.0
  0
SEQEND
  5
73F
330
739
100
AcDbEntity
  8
Ebene 1
370
    13
  0
POLYLINE
  5
740
330
1F
100
AcDbEntity
  8
Ebene 1
 62
   179
420
  1709851
370
    13
100
AcDb2dPolyline
 66
     1
 10
0.0
 20
0.0
 30
0.0
  0
VERTEX
  5
741
330
740
100
AcDbEntity
  8
Ebene 1
 62
   179
420
  1709851
370
    13
100
AcDbVertex
100
AcDb2dVertex
 10
154.4250270881299
 20
-173.2373154948851
 30
0.0
  0
VERTEX
  5
742
330
740
100
AcDbEntity
  8
Ebene 1
 62
   179
420
  1709851
370
    13
100
AcDbVertex
100
AcDb2dVertex
 10
154.7213052998613
 20
-173.2373154948851
 30
0.0
  0
SEQEND
  5
743
330
740
100
AcDbEntity
  8
Ebene 1
370
    13
  0
POLYLINE
  5
744
330
1F
100
AcDbEntity
  8
Ebene 1
 62
   179
420
  1709851
370
    13
100
AcDb2dPolyline
 66
     1
 10
0.0
 20
0.0
 30
0.0
  0
VERTEX
  5
745
330
744
100
AcDbEntity
  8
Ebene 1
 62
   179
420
  1709851
370
    13
100
AcDbVertex
100
AcDb2dVertex
 10
154.4250270881299
 20
-174.5498968747653
 30
0.0
  0
VERTEX
  5
746
330
744
100
AcDbEntity
  8
Ebene 1
 62
   179
420
  1709851
370
    13
100
AcDbVertex
100
AcDb2dVertex
 10
155.1657226174586
 20
-174.5498968747653
 30
0.0
  0
SEQEND
  5
747
330
744
100
AcDbEntity
  8
Ebene 1
370
    13
  0
POLYLINE
  5
748
330
1F
100
AcDbEntity
  8
Ebene 1
 62
   179
420
  1709851
370
    13
100
AcDb2dPolyline
 66
     1
 10
0.0
 20
0.0
 30
0.0
  0
VERTEX
  5
749
330
748
100
AcDbEntity
  8
Ebene 1
 62
   179
420
  1709851
370
    13
100
AcDbVertex
100
AcDb2dVertex
 10
151.4191812772494
 20
-174.5498968747653
 30
0.0
  0
VERTEX
  5
74A
330
748
100
AcDbEntity
  8
Ebene 1
 62
   179
420
  1709851
370
    13
100
AcDbVertex
100
AcDb2dVertex
 10
152.2025959905952
 20
-174.5498968747653
 30
0.0
  0
SEQEND
  5
74B
330
748
100
AcDbEntity
  8
Ebene 1
370
    13
  0
POLYLINE
  5
74C
330
1F
100
AcDbEntity
  8
Ebene 1
 62
   179
420
  1709851
370
    13
100
AcDb2dPolyline
 66
     1
 10
0.0
 20
0.0
 30
0.0
  0
VERTEX
  5
74D
330
74C
100
AcDbEntity
  8
Ebene 1
 62
   179
420
  1709851
370
    13
100
AcDbVertex
100
AcDb2dVertex
 10
151.4191812772494
 20
-173.2373154948851
 30
0.0
  0
VERTEX
  5
74E
330
74C
100
AcDbEntity
  8
Ebene 1
 62
   179
420
  1709851
370
    13
100
AcDbVertex
100
AcDb2dVertex
 10
152.2025959905952
 20
-173.2373154948851
 30
0.0
  0
SEQEND
  5
74F
330
74C
100
AcDbEntity
  8
Ebene 1
370
    13
  0
POLYLINE
  5
750
330
1F
100
AcDbEntity
  8
Ebene 1
 62
   179
420
  1709851
370
    18
100
AcDb2dPolyline
 66
     1
 10
0.0
 20
0.0
 30
0.0
  0
VERTEX
  5
751
330
750
100
AcDbEntity
  8
Ebene 1
 62
   179
420
  1709851
370
    18
100
AcDbVertex
100
AcDb2dVertex
 10
143.0162488791765
 20
-170.5074218323732
 30
0.0
  0
VERTEX
  5
752
330
750
100
AcDbEntity
  8
Ebene 1
 62
   179
420
  1709851
370
    18
100
AcDbVertex
100
AcDb2dVertex
 10
162.997458184077
 20
-170.5074218323732
 30
0.0
  0
SEQEND
  5
753
330
750
100
AcDbEntity
  8
Ebene 1
370
    18
  0
POLYLINE
  5
754
330
1F
100
AcDbEntity
  8
Ebene 1
 62
   179
420
  1709851
370
    13
100
AcDb2dPolyline
 66
     1
 10
0.0
 20
0.0
 30
0.0
  0
VERTEX
  5
755
330
754
100
AcDbEntity
  8
Ebene 1
 62
   179
420
  1709851
370
    13
100
AcDbVertex
100
AcDb2dVertex
 10
53.12130532526135
 20
-170.5074218323732
 30
0.0
  0
VERTEX
  5
756
330
754
100
AcDbEntity
  8
Ebene 1
 62
   179
420
  1709851
370
    13
100
AcDbVertex
100
AcDb2dVertex
 10
53.12130532526135
 20
-168.3907551662357
 30
0.0
  0
SEQEND
  5
757
330
754
100
AcDbEntity
  8
Ebene 1
370
    13
  0
POLYLINE
  5
758
330
1F
100
AcDbEntity
  8
Ebene 1
 62
   179
420
  1709851
370
    18
100
AcDb2dPolyline
 66
     1
 10
0.0
 20
0.0
 30
0.0
  0
VERTEX
  5
759
330
758
100
AcDbEntity
  8
Ebene 1
 62
   179
420
  1709851
370
    18
100
AcDbVertex
100
AcDb2dVertex
 10
144.2013617261024
 20
-170.5074218323732
 30
0.0
  0
VERTEX
  5
75A
330
758
100
AcDbEntity
  8
Ebene 1
 62
   179
420
  1709851
370
    18
100
AcDbVertex
100
AcDb2dVertex
 10
164.0137613522257
 20
-170.5074218323732
 30
0.0
  0
SEQEND
  5
75B
330
758
100
AcDbEntity
  8
Ebene 1
370
    18
  0
POLYLINE
  5
75C
330
1F
100
AcDbEntity
  8
Ebene 1
 62
   179
420
  1709851
370
    18
100
AcDb2dPolyline
 66
     1
 10
0.0
 20
0.0
 30
0.0
  0
VERTEX
  5
75D
330
75C
100
AcDbEntity
  8
Ebene 1
 62
   179
420
  1709851
370
    18
100
AcDbVertex
100
AcDb2dVertex
 10
154.2982475742727
 20
-170.105034679696
 30
0.0
  0
VERTEX
  5
75E
330
75C
100
AcDbEntity
  8
Ebene 1
 62
   179
420
  1709851
370
    18
100
AcDbVertex
100
AcDb2dVertex
 10
164.0137613522257
 20
-170.105034679696
 30
0.0
  0
SEQEND
  5
75F
330
75C
100
AcDbEntity
  8
Ebene 1
370
    18
  0
POLYLINE
  5
760
330
1F
100
AcDbEntity
  8
Ebene 1
 62
   179
420
  1709851
370
    18
100
AcDb2dPolyline
 66
     1
 10
0.0
 20
0.0
 30
0.0
  0
VERTEX
  5
761
330
760
100
AcDbEntity
  8
Ebene 1
 62
   179
420
  1709851
370
    18
100
AcDbVertex
100
AcDb2dVertex
 10
164.0137613522257
 20
-170.5074218323732
 30
0.0
  0
VERTEX
  5
762
330
760
100
AcDbEntity
  8
Ebene 1
 62
   179
420
  1709851
370
    18
100
AcDbVertex
100
AcDb2dVertex
 10
164.0137613522257
 20
-170.105034679696
 30
0.0
  0
SEQEND
  5
763
330
760
100
AcDbEntity
  8
Ebene 1
370
    18
  0
POLYLINE
  5
764
330
1F
100
AcDbEntity
  8
Ebene 1
 62
   179
420
  1709851
370
    18
100
AcDb2dPolyline
 66
     1
 10
0.0
 20
0.0
 30
0.0
  0
VERTEX
  5
765
330
764
100
AcDbEntity
  8
Ebene 1
 62
   179
420
  1709851
370
    18
100
AcDbVertex
100
AcDb2dVertex
 10
144.2013617261024
 20
-170.5074218323732
 30
0.0
  0
VERTEX
  5
766
330
764
100
AcDbEntity
  8
Ebene 1
 62
   179
420
  1709851
370
    18
100
AcDbVertex
100
AcDb2dVertex
 10
144.2013617261024
 20
-170.105034679696
 30
0.0
  0
VERTEX
  5
767
330
764
100
AcDbEntity
  8
Ebene 1
 62
   179
420
  1709851
370
    18
100
AcDbVertex
100
AcDb2dVertex
 10
153.917220013604
 20
-170.105034679696
 30
0.0
  0
SEQEND
  5
768
330
764
100
AcDbEntity
  8
Ebene 1
370
    18
  0
POLYLINE
  5
769
330
1F
100
AcDbEntity
  8
Ebene 1
 62
   179
420
  1709851
370
    18
100
AcDb2dPolyline
 66
     1
 10
0.0
 20
0.0
 30
0.0
  0
VERTEX
  5
76A
330
769
100
AcDbEntity
  8
Ebene 1
 62
   179
420
  1709851
370
    18
100
AcDbVertex
100
AcDb2dVertex
 10
44.21022134311411
 20
-170.5074218323732
 30
0.0
  0
VERTEX
  5
76B
330
769
100
AcDbEntity
  8
Ebene 1
 62
   179
420
  1709851
370
    18
100
AcDbVertex
100
AcDb2dVertex
 10
64.02210420491461
 20
-170.5074218323732
 30
0.0
  0
SEQEND
  5
76C
330
769
100
AcDbEntity
  8
Ebene 1
370
    18
  0
POLYLINE
  5
76D
330
1F
100
AcDbEntity
  8
Ebene 1
 62
   179
420
  1709851
370
    18
100
AcDb2dPolyline
 66
     1
 10
0.0
 20
0.0
 30
0.0
  0
VERTEX
  5
76E
330
76D
100
AcDbEntity
  8
Ebene 1
 62
   179
420
  1709851
370
    18
100
AcDbVertex
100
AcDb2dVertex
 10
54.30659042696155
 20
-170.105034679696
 30
0.0
  0
VERTEX
  5
76F
330
76D
100
AcDbEntity
  8
Ebene 1
 62
   179
420
  1709851
370
    18
100
AcDbVertex
100
AcDb2dVertex
 10
64.02210420491461
 20
-170.105034679696
 30
0.0
  0
SEQEND
  5
770
330
76D
100
AcDbEntity
  8
Ebene 1
370
    18
  0
POLYLINE
  5
771
330
1F
100
AcDbEntity
  8
Ebene 1
 62
   179
420
  1709851
370
    18
100
AcDb2dPolyline
 66
     1
 10
0.0
 20
0.0
 30
0.0
  0
VERTEX
  5
772
330
771
100
AcDbEntity
  8
Ebene 1
 62
   179
420
  1709851
370
    18
100
AcDbVertex
100
AcDb2dVertex
 10
64.02210420491461
 20
-170.5074218323732
 30
0.0
  0
VERTEX
  5
773
330
771
100
AcDbEntity
  8
Ebene 1
 62
   179
420
  1709851
370
    18
100
AcDbVertex
100
AcDb2dVertex
 10
64.02210420491461
 20
-170.105034679696
 30
0.0
  0
SEQEND
  5
774
330
771
100
AcDbEntity
  8
Ebene 1
370
    18
  0
POLYLINE
  5
775
330
1F
100
AcDbEntity
  8
Ebene 1
 62
   179
420
  1709851
370
    18
100
AcDb2dPolyline
 66
     1
 10
0.0
 20
0.0
 30
0.0
  0
VERTEX
  5
776
330
775
100
AcDbEntity
  8
Ebene 1
 62
   179
420
  1709851
370
    18
100
AcDbVertex
100
AcDb2dVertex
 10
44.21022134311411
 20
-170.5074218323732
 30
0.0
  0
VERTEX
  5
777
330
775
100
AcDbEntity
  8
Ebene 1
 62
   179
420
  1709851
370
    18
100
AcDbVertex
100
AcDb2dVertex
 10
44.21022134311411
 20
-170.105034679696
 30
0.0
  0
VERTEX
  5
778
330
775
100
AcDbEntity
  8
Ebene 1
 62
   179
420
  1709851
370
    18
100
AcDbVertex
100
AcDb2dVertex
 10
53.92556286629291
 20
-170.105034679696
 30
0.0
  0
SEQEND
  5
779
330
775
100
AcDbEntity
  8
Ebene 1
370
    18
  0
POLYLINE
  5
77A
330
1F
100
AcDbEntity
  8
Ebene 1
 62
   179
420
  1709851
370
    13
100
AcDb2dPolyline
 66
     1
 10
0.0
 20
0.0
 30
0.0
  0
VERTEX
  5
77B
330
77A
100
AcDbEntity
  8
Ebene 1
 62
   179
420
  1709851
370
    13
100
AcDbVertex
100
AcDb2dVertex
 10
24.71563177550512
 20
-165.7022026495467
 30
0.0
  0
VERTEX
  5
77C
330
77A
100
AcDbEntity
  8
Ebene 1
 62
   179
420
  1709851
370
    13
100
AcDbVertex
100
AcDb2dVertex
 10
53.92573512106718
 20
-165.7022026495467
 30
0.0
  0
SEQEND
  5
77D
330
77A
100
AcDbEntity
  8
Ebene 1
370
    13
  0
POLYLINE
  5
77E
330
1F
100
AcDbEntity
  8
Ebene 1
 62
   179
420
  1709851
370
    18
100
AcDb2dPolyline
 66
     1
 10
0.0
 20
0.0
 30
0.0
  0
VERTEX
  5
77F
330
77E
100
AcDbEntity
  8
Ebene 1
 62
   179
420
  1709851
370
    18
100
AcDbVertex
100
AcDb2dVertex
 10
153.9168755040555
 20
-170.105034679696
 30
0.0
  0
VERTEX
  5
780
330
77E
100
AcDbEntity
  8
Ebene 1
 62
   179
420
  1709851
370
    18
100
AcDbVertex
100
AcDb2dVertex
 10
153.9168755040555
 20
-160.0928981804629
 30
0.0
  0
SEQEND
  5
781
330
77E
100
AcDbEntity
  8
Ebene 1
370
    18
  0
POLYLINE
  5
782
330
1F
100
AcDbEntity
  8
Ebene 1
 62
   179
420
  1709851
370
    18
100
AcDb2dPolyline
 66
     1
 10
0.0
 20
0.0
 30
0.0
  0
VERTEX
  5
783
330
782
100
AcDbEntity
  8
Ebene 1
 62
   179
420
  1709851
370
    18
100
AcDbVertex
100
AcDb2dVertex
 10
153.9168755040555
 20
-160.0928981804629
 30
0.0
  0
VERTEX
  5
784
330
782
100
AcDbEntity
  8
Ebene 1
 62
   179
420
  1709851
370
    18
100
AcDbVertex
100
AcDb2dVertex
 10
154.2979030647242
 20
-160.0928981804629
 30
0.0
  0
SEQEND
  5
785
330
782
100
AcDbEntity
  8
Ebene 1
370
    18
  0
POLYLINE
  5
786
330
1F
100
AcDbEntity
  8
Ebene 1
 62
   179
420
  1709851
370
    18
100
AcDb2dPolyline
 66
     1
 10
0.0
 20
0.0
 30
0.0
  0
VERTEX
  5
787
330
786
100
AcDbEntity
  8
Ebene 1
 62
   179
420
  1709851
370
    18
100
AcDbVertex
100
AcDb2dVertex
 10
154.2979030647242
 20
-170.105034679696
 30
0.0
  0
VERTEX
  5
788
330
786
100
AcDbEntity
  8
Ebene 1
 62
   179
420
  1709851
370
    18
100
AcDbVertex
100
AcDb2dVertex
 10
154.2979030647242
 20
-160.0928981804629
 30
0.0
  0
SEQEND
  5
789
330
786
100
AcDbEntity
  8
Ebene 1
370
    18
  0
POLYLINE
  5
78A
330
1F
100
AcDbEntity
  8
Ebene 1
 62
   179
420
  1709851
370
    18
100
AcDb2dPolyline
 66
     1
 10
0.0
 20
0.0
 30
0.0
  0
VERTEX
  5
78B
330
78A
100
AcDbEntity
  8
Ebene 1
 62
   179
420
  1709851
370
    18
100
AcDbVertex
100
AcDb2dVertex
 10
53.92573512106718
 20
-170.105034679696
 30
0.0
  0
VERTEX
  5
78C
330
78A
100
AcDbEntity
  8
Ebene 1
 62
   179
420
  1709851
370
    18
100
AcDbVertex
100
AcDb2dVertex
 10
53.92573512106718
 20
-160.0928981804629
 30
0.0
  0
SEQEND
  5
78D
330
78A
100
AcDbEntity
  8
Ebene 1
370
    18
  0
POLYLINE
  5
78E
330
1F
100
AcDbEntity
  8
Ebene 1
 62
   179
420
  1709851
370
    18
100
AcDb2dPolyline
 66
     1
 10
0.0
 20
0.0
 30
0.0
  0
VERTEX
  5
78F
330
78E
100
AcDbEntity
  8
Ebene 1
 62
   179
420
  1709851
370
    18
100
AcDbVertex
100
AcDb2dVertex
 10
53.92573512106718
 20
-160.0928981804629
 30
0.0
  0
VERTEX
  5
790
330
78E
100
AcDbEntity
  8
Ebene 1
 62
   179
420
  1709851
370
    18
100
AcDbVertex
100
AcDb2dVertex
 10
54.30676268173581
 20
-160.0928981804629
 30
0.0
  0
SEQEND
  5
791
330
78E
100
AcDbEntity
  8
Ebene 1
370
    18
  0
POLYLINE
  5
792
330
1F
100
AcDbEntity
  8
Ebene 1
 62
   179
420
  1709851
370
    18
100
AcDb2dPolyline
 66
     1
 10
0.0
 20
0.0
 30
0.0
  0
VERTEX
  5
793
330
792
100
AcDbEntity
  8
Ebene 1
 62
   179
420
  1709851
370
    18
100
AcDbVertex
100
AcDb2dVertex
 10
54.30676268173581
 20
-170.105034679696
 30
0.0
  0
VERTEX
  5
794
330
792
100
AcDbEntity
  8
Ebene 1
 62
   179
420
  1709851
370
    18
100
AcDbVertex
100
AcDb2dVertex
 10
54.30676268173581
 20
-160.0928981804629
 30
0.0
  0
SEQEND
  5
795
330
792
100
AcDbEntity
  8
Ebene 1
370
    18
  0
POLYLINE
  5
796
330
1F
100
AcDbEntity
  8
Ebene 1
 62
   179
420
  1709851
370
    13
100
AcDb2dPolyline
 66
     1
 10
0.0
 20
0.0
 30
0.0
  0
VERTEX
  5
797
330
796
100
AcDbEntity
  8
Ebene 1
 62
   179
420
  1709851
370
    13
100
AcDbVertex
100
AcDb2dVertex
 10
54.81456975626164
 20
-165.7022026495467
 30
0.0
  0
VERTEX
  5
798
330
796
100
AcDbEntity
  8
Ebene 1
 62
   179
420
  1709851
370
    13
100
AcDbVertex
100
AcDb2dVertex
 10
153.917220013604
 20
-165.7022026495467
 30
0.0
  0
SEQEND
  5
799
330
796
100
AcDbEntity
  8
Ebene 1
370
    13
  0
ENDSEC
  0
SECTION
  2
OBJECTS
  0
DICTIONARY
  5
C
330
0
100
AcDbDictionary
281
     1
  3
ACAD_GROUP
350
D
  3
ACAD_LAYOUT
350
1A
  3
ACAD_MLINESTYLE
350
17
  3
ACAD_PLOTSETTINGS
350
19
  3
ACAD_PLOTSTYLENAME
350
E
  3
ACAD_TABLESTYLE
350
79A
  3
ACAD_VISUALSTYLE
350
2A
  0
DICTIONARY
  5
D
102
{ACAD_REACTORS
330
C
102
}
330
C
100
AcDbDictionary
281
     1
  0
DICTIONARY
  5
1A
102
{ACAD_REACTORS
330
C
102
}
330
C
100
AcDbDictionary
281
     1
  3
Layout1
350
1E
  3
Layout2
350
26
  3
Model
350
22
  0
DICTIONARY
  5
17
102
{ACAD_REACTORS
330
C
102
}
330
C
100
AcDbDictionary
281
     1
  3
Standard
350
18
  0
DICTIONARY
  5
19
102
{ACAD_REACTORS
330
C
102
}
330
C
100
AcDbDictionary
281
     1
  0
ACDBDICTIONARYWDFLT
  5
E
102
{ACAD_REACTORS
330
C
102
}
330
C
100
AcDbDictionary
281
     1
  3
Normal
350
F
100
AcDbDictionaryWithDefault
340
F
  0
DICTIONARY
  5
79A
102
{ACAD_REACTORS
330
C
102
}
330
C
100
AcDbDictionary
281
     1
  0
DICTIONARY
  5
2A
102
{ACAD_REACTORS
330
C
102
}
330
C
100
AcDbDictionary
281
     1
  3
2dWireframe
350
2F
  3
3D Hidden
350
31
  3
3dWireframe
350
30
  3
Basic
350
32
  3
Brighten
350
36
  3
ColorChange
350
3A
  3
Conceptual
350
34
  3
Dim
350
35
  3
Facepattern
350
39
  3
Flat
350
2B
  3
FlatWithEdges
350
2C
  3
Gouraud
350
2D
  3
GouraudWithEdges
350
2E
  3
Linepattern
350
38
  3
Realistic
350
33
  3
Thicken
350
37
  0
LAYOUT
  5
1E
102
{ACAD_REACTORS
330
1A
102
}
330
1A
100
AcDbPlotSettings
  1

  2
none_device
  4

  6

 40
0.0
 41
0.0
 42
0.0
 43
0.0
 44
0.0
 45
0.0
 46
0.0
 47
0.0
 48
0.0
 49
0.0
140
0.0
141
0.0
142
1.0
143
1.0
 70
   688
 72
     0
 73
     0
 74
     5
  7

 75
    16
 76
     0
 77
     2
 78
   300
147
1.0
148
0.0
149
0.0
100
AcDbLayout
  1
Layout1
 70
     1
 71
     1
 10
0.0
 20
0.0
 11
12.0
 21
9.0
 12
0.0
 22
0.0
 32
0.0
 14
1.000000000000000E+20
 24
1.000000000000000E+20
 34
1.000000000000000E+20
 15
-1.000000000000000E+20
 25
-1.000000000000000E+20
 35
-1.000000000000000E+20
146
0.0
 13
0.0
 23
0.0
 33
0.0
 16
1.0
 26
0.0
 36
0.0
 17
0.0
 27
1.0
 37
0.0
 76
     0
330
1B
  0
LAYOUT
  5
26
102
{ACAD_REACTORS
330
1A
102
}
330
1A
100
AcDbPlotSettings
  1

  2
none_device
  4

  6

 40
0.0
 41
0.0
 42
0.0
 43
0.0
 44
0.0
 45
0.0
 46
0.0
 47
0.0
 48
0.0
 49
0.0
140
0.0
141
0.0
142
1.0
143
1.0
 70
   688
 72
     0
 73
     0
 74
     5
  7

 75
    16
 76
     0
 77
     2
 78
   300
147
1.0
148
0.0
149
0.0
100
AcDbLayout
  1
Layout2
 70
     1
 71
     2
 10
0.0
 20
0.0
 11
0.0
 21
0.0
 12
0.0
 22
0.0
 32
0.0
 14
0.0
 24
0.0
 34
0.0
 15
0.0
 25
0.0
 35
0.0
146
0.0
 13
0.0
 23
0.0
 33
0.0
 16
1.0
 26
0.0
 36
0.0
 17
0.0
 27
1.0
 37
0.0
 76
     0
330
23
  0
LAYOUT
  5
22
102
{ACAD_REACTORS
330
1A
102
}
330
1A
100
AcDbPlotSettings
  1

  2
none_device
  4

  6

 40
0.0
 41
0.0
 42
0.0
 43
0.0
 44
0.0
 45
0.0
 46
0.0
 47
0.0
 48
0.0
 49
0.0
140
0.0
141
0.0
142
1.0
143
1.0
 70
  1712
 72
     0
 73
     0
 74
     0
  7

 75
     0
 76
     0
 77
     2
 78
   300
147
1.0
148
0.0
149
0.0
100
AcDbLayout
  1
Model
 70
     1
 71
     0
 10
0.0
 20
0.0
 11
12.0
 21
9.0
 12
0.0
 22
0.0
 32
0.0
 14
1.000000000000000E+20
 24
1.000000000000000E+20
 34
1.000000000000000E+20
 15
-1.000000000000000E+20
 25
-1.000000000000000E+20
 35
-1.000000000000000E+20
146
0.0
 13
0.0
 23
0.0
 33
0.0
 16
1.0
 26
0.0
 36
0.0
 17
0.0
 27
1.0
 37
0.0
 76
     0
330
1F
331
29
  0
MLINESTYLE
  5
18
102
{ACAD_REACTORS
330
17
102
}
330
17
100
AcDbMlineStyle
  2
Standard
 70
     0
  3

 62
   256
 51
90.0
 52
90.0
 71
     2
 49
0.5
 62
   256
  6
BYLAYER
 49
-0.5
 62
   256
  6
BYLAYER
  0
ACDBPLACEHOLDER
  5
F
102
{ACAD_REACTORS
330
E
102
}
330
E
  0
VISUALSTYLE
  5
2F
102
{ACAD_REACTORS
330
2A
102
}
330
2A
100
AcDbVisualStyle
  2
2dWireframe
 70
     4
 71
     0
 72
     2
 73
     0
 90
        0
 40
-0.6
 41
-30.0
 62
     5
 63
     7
421
 16777215
 74
     1
 91
        4
 64
     7
 65
   257
 75
     1
175
     1
 42
1.0
 92
        0
 66
   257
 43
1.0
 76
     1
 77
     6
 78
     2
 67
     7
 79
     5
170
     0
171
     0
290
     0
174
     0
 93
        1
 44
0.0
173
     0
291
     0
 45
0.0
1001
ACAD
1000
AcDbSavedByObjectVersion
1070
     0
  0
VISUALSTYLE
  5
31
102
{ACAD_REACTORS
330
2A
102
}
330
2A
100
AcDbVisualStyle
  2
3D Hidden
 70
     6
 71
     1
 72
     2
 73
     2
 90
        0
 40
-0.6
 41
-30.0
 62
     5
 63
     7
421
 16777215
 74
     2
 91
        2
 64
     7
 65
   257
 75
     2
175
     1
 42
40.0
 92
        0
 66
   257
 43
1.0
 76
     1
 77
     6
 78
     2
 67
     7
 79
     3
170
     0
171
     0
290
     0
174
     0
 93
        1
 44
0.0
173
     0
291
     0
 45
0.0
1001
ACAD
1000
AcDbSavedByObjectVersion
1070
     0
  0
VISUALSTYLE
  5
30
102
{ACAD_REACTORS
330
2A
102
}
330
2A
100
AcDbVisualStyle
  2
3dWireframe
 70
     5
 71
     0
 72
     2
 73
     0
 90
        0
 40
-0.6
 41
-30.0
 62
     5
 63
     7
421
 16777215
 74
     1
 91
        4
 64
     7
 65
   257
 75
     1
175
     1
 42
1.0
 92
        0
 66
   257
 43
1.0
 76
     1
 77
     6
 78
     2
 67
     7
 79
     5
170
     0
171
     0
290
     0
174
     0
 93
        1
 44
0.0
173
     0
291
     0
 45
0.0
1001
ACAD
1000
AcDbSavedByObjectVersion
1070
     0
  0
VISUALSTYLE
  5
32
102
{ACAD_REACTORS
330
2A
102
}
330
2A
100
AcDbVisualStyle
  2
Basic
 70
     7
 71
     1
 72
     0
 73
     1
 90
        0
 40
-0.6
 41
-30.0
 62
     5
 63
     7
421
 16777215
 74
     0
 91
        4
 64
     7
 65
   257
 75
     1
175
     1
 42
1.0
 92
        8
 66
     7
 43
1.0
 76
     1
 77
     6
 78
     2
 67
     7
 79
     5
170
     0
171
     0
290
     0
174
     0
 93
        1
 44
0.0
173
     0
291
     1
 45
0.0
1001
ACAD
1000
AcDbSavedByObjectVersion
1070
     0
  0
VISUALSTYLE
  5
36
102
{ACAD_REACTORS
330
2A
102
}
330
2A
100
AcDbVisualStyle
  2
Brighten
 70
    12
 71
     2
 72
     2
 73
     0
 90
        0
 40
-0.6
 41
-30.0
 62
     5
 63
     7
421
 16777215
 74
     1
 91
        4
 64
     7
 65
   257
 75
     1
175
     1
 42
1.0
 92
        8
 66
     7
 43
1.0
 76
     1
 77
     6
 78
     2
 67
     7
 79
     5
170
     0
171
     0
290
     0
174
     0
 93
        1
 44
50.0
173
     0
291
     1
 45
0.0
1001
ACAD
1000
AcDbSavedByObjectVersion
1070
     0
  0
VISUALSTYLE
  5
3A
102
{ACAD_REACTORS
330
2A
102
}
330
2A
100
AcDbVisualStyle
  2
ColorChange
 70
    16
 71
     2
 72
     2
 73
     3
 90
        0
 40
-0.6
 41
-30.0
 62
     5
 63
     8
421
  8421504
 74
     1
 91
        4
 64
     7
 65
   257
 75
     1
175
     1
 42
1.0
 92
        8
 66
     8
424
  8421504
 43
1.0
 76
     1
 77
     6
 78
     2
 67
     7
 79
     5
170
     0
171
     0
290
     0
174
     0
 93
        1
 44
0.0
173
     0
291
     1
 45
0.0
1001
ACAD
1000
AcDbSavedByObjectVersion
1070
     0
  0
VISUALSTYLE
  5
34
102
{ACAD_REACTORS
330
2A
102
}
330
2A
100
AcDbVisualStyle
  2
Conceptual
 70
     9
 71
     3
 72
     2
 73
     0
 90
        0
 40
-0.6
 41
-30.0
 62
     5
 63
     7
421
 16777215
 74
     2
 91
        2
 64
     7
 65
   257
 75
     1
175
     1
 42
40.0
 92
        8
 66
     7
 43
1.0
 76
     1
 77
     6
 78
     2
 67
     7
 79
     3
170
     0
171
     0
290
     0
174
     0
 93
        1
 44
0.0
173
     0
291
     0
 45
0.0
1001
ACAD
1000
AcDbSavedByObjectVersion
1070
     0
  0
VISUALSTYLE
  5
35
102
{ACAD_REACTORS
330
2A
102
}
330
2A
100
AcDbVisualStyle
  2
Dim
 70
    11
 71
     2
 72
     2
 73
     0
 90
        0
 40
-0.6
 41
-30.0
 62
     5
 63
     7
421
 16777215
 74
     1
 91
        4
 64
     7
 65
   257
 75
     1
175
     1
 42
1.0
 92
        8
 66
     7
 43
1.0
 76
     1
 77
     6
 78
     2
 67
     7
 79
     5
170
     0
171
     0
290
     0
174
     0
 93
        1
 44
-50.0
173
     0
291
     1
 45
0.0
1001
ACAD
1000
AcDbSavedByObjectVersion
1070
     0
  0
VISUALSTYLE
  5
39
102
{ACAD_REACTORS
330
2A
102
}
330
2A
100
AcDbVisualStyle
  2
Facepattern
 70
    15
 71
     2
 72
     2
 73
     0
 90
        0
 40
-0.6
 41
-30.0
 62
     5
 63
     7
421
 16777215
 74
     1
 91
        4
 64
     7
 65
   257
 75
     1
175
     1
 42
1.0
 92
        8
 66
     7
 43
1.0
 76
     1
 77
     6
 78
     2
 67
     7
 79
     5
170
     0
171
     0
290
     0
174
     0
 93
        1
 44
0.0
173
     0
291
     1
 45
0.0
1001
ACAD
1000
AcDbSavedByObjectVersion
1070
     0
  0
VISUALSTYLE
  5
2B
102
{ACAD_REACTORS
330
2A
102
}
330
2A
100
AcDbVisualStyle
  2
Flat
 70
     0
 71
     2
 72
     1
 73
     1
 90
        2
 40
-0.6
 41
30.0
 62
     5
 63
     7
421
 16777215
 74
     0
 91
        4
 64
     7
 65
   257
 75
     1
175
     1
 42
1.0
 92
        8
 66
     7
 43
1.0
 76
     1
 77
     6
 78
     2
 67
     7
 79
     5
170
     0
171
     0
290
     0
174
     0
 93
       13
 44
0.0
173
     0
291
     1
 45
0.0
1001
ACAD
1000
AcDbSavedByObjectVersion
1070
     0
  0
VISUALSTYLE
  5
2C
102
{ACAD_REACTORS
330
2A
102
}
330
2A
100
AcDbVisualStyle
  2
FlatWithEdges
 70
     1
 71
     2
 72
     1
 73
     1
 90
        2
 40
-0.6
 41
30.0
 62
     5
 63
     7
421
 16777215
 74
     1
 91
        4
 64
     7
 65
   257
 75
     1
175
     1
 42
1.0
 92
        0
 66
   257
 43
1.0
 76
     1
 77
     6
 78
     2
 67
     7
 79
     5
170
     0
171
     0
290
     0
174
     0
 93
       13
 44
0.0
173
     0
291
     1
 45
0.0
1001
ACAD
1000
AcDbSavedByObjectVersion
1070
     0
  0
VISUALSTYLE
  5
2D
102
{ACAD_REACTORS
330
2A
102
}
330
2A
100
AcDbVisualStyle
  2
Gouraud
 70
     2
 71
     2
 72
     2
 73
     1
 90
        2
 40
-0.6
 41
30.0
 62
     5
 63
     7
421
 16777215
 74
     0
 91
        4
 64
     7
 65
   257
 75
     1
175
     1
 42
1.0
 92
        0
 66
     7
 43
1.0
 76
     1
 77
     6
 78
     2
 67
     7
 79
     5
170
     0
171
     0
290
     0
174
     0
 93
       13
 44
0.0
173
     0
291
     1
 45
0.0
1001
ACAD
1000
AcDbSavedByObjectVersion
1070
     0
  0
VISUALSTYLE
  5
2E
102
{ACAD_REACTORS
330
2A
102
}
330
2A
100
AcDbVisualStyle
  2
GouraudWithEdges
 70
     3
 71
     2
 72
     2
 73
     1
 90
        2
 40
-0.6
 41
30.0
 62
     5
 63
     7
421
 16777215
 74
     1
 91
        4
 64
     7
 65
   257
 75
     1
175
     1
 42
1.0
 92
        0
 66
   257
 43
1.0
 76
     1
 77
     6
 78
     2
 67
     7
 79
     5
170
     0
171
     0
290
     0
174
     0
 93
       13
 44
0.0
173
     0
291
     1
 45
0.0
1001
ACAD
1000
AcDbSavedByObjectVersion
1070
     0
  0
VISUALSTYLE
  5
38
102
{ACAD_REACTORS
330
2A
102
}
330
2A
100
AcDbVisualStyle
  2
Linepattern
 70
    14
 71
     2
 72
     2
 73
     0
 90
        0
 40
-0.6
 41
-30.0
 62
     5
 63
     7
421
 16777215
 74
     1
 91
        4
 64
     7
 65
   257
 75
     7
175
     7
 42
1.0
 92
        8
 66
     7
 43
1.0
 76
     1
 77
     6
 78
     2
 67
     7
 79
     5
170
     0
171
     0
290
     0
174
     0
 93
        1
 44
0.0
173
     0
291
     1
 45
0.0
1001
ACAD
1000
AcDbSavedByObjectVersion
1070
     0
  0
VISUALSTYLE
  5
33
102
{ACAD_REACTORS
330
2A
102
}
330
2A
100
AcDbVisualStyle
  2
Realistic
 70
     8
 71
     2
 72
     2
 73
     0
 90
        0
 40
-0.6
 41
-30.0
 62
     5
 63
     7
421
 16777215
 74
     1
 91
        0
 64
     7
 65
   257
 75
     1
175
     1
 42
1.0
 92
        8
 66
     8
424
  7895160
 43
1.0
 76
     1
 77
     6
 78
     2
 67
     7
 79
     5
170
     0
171
     0
290
     0
174
     0
 93
       13
 44
0.0
173
     0
291
     0
 45
0.0
1001
ACAD
1000
AcDbSavedByObjectVersion
1070
     0
  0
VISUALSTYLE
  5
37
102
{ACAD_REACTORS
330
2A
102
}
330
2A
100
AcDbVisualStyle
  2
Thicken
 70
    13
 71
     2
 72
     2
 73
     0
 90
        0
 40
-0.6
 41
-30.0
 62
     5
 63
     7
421
 16777215
 74
     1
 91
        4
 64
     7
 65
   257
 75
     1
175
     1
 42
1.0
 92
       12
 66
     7
 43
1.0
 76
     1
 77
     6
 78
     2
 67
     7
 79
     5
170
     0
171
     0
290
     0
174
     0
 93
        1
 44
0.0
173
     0
291
     1
 45
0.0
1001
ACAD
1000
AcDbSavedByObjectVersion
1070
     0
  0
ENDSEC
  0
EOF
