  0
SECTION
  2
HEADER
  9
$ACADVER
  1
AC1018
  9
$ACADMAINTVER
 70
     0
  9
$DWGCODEPAGE
  3
ANSI_932
  9
$INSBASE
 10
0.0
 20
0.0
 30
0.0
  9
$EXTMIN
 10
1.000000000000000E+20
 20
1.000000000000000E+20
 30
1.000000000000000E+20
  9
$EXTMAX
 10
-1.000000000000000E+20
 20
-1.000000000000000E+20
 30
-1.000000000000000E+20
  9
$LIMMIN
 10
0.0
 20
0.0
  9
$LIMMAX
 10
12.0
 20
9.0
  9
$ORTHOMODE
 70
     0
  9
$REGENMODE
 70
     1
  9
$FILLMODE
 70
     1
  9
$QTEXTMODE
 70
     0
  9
$MIRRTEXT
 70
     1
  9
$LTSCALE
 40
1.0
  9
$ATTMODE
 70
     1
  9
$TEXTSIZE
 40
0.2
  9
$TRACEWID
 40
0.05
  9
$TEXTSTYLE
  7
Standard
  9
$CLAYER
  8
0
  9
$CELTYPE
  6
ByLayer
  9
$CECOLOR
 62
   256
  9
$CELTSCALE
 40
1.0
  9
$DISPSILH
 70
     0
  9
$DIMSCALE
 40
1.0
  9
$DIMASZ
 40
0.18
  9
$DIMEXO
 40
0.0625
  9
$DIMDLI
 40
0.38
  9
$DIMRND
 40
0.0
  9
$DIMDLE
 40
0.0
  9
$DIMEXE
 40
0.18
  9
$DIMTP
 40
0.0
  9
$DIMTM
 40
0.0
  9
$DIMTXT
 40
0.18
  9
$DIMCEN
 40
0.09
  9
$DIMTSZ
 40
0.0
  9
$DIMTOL
 70
     0
  9
$DIMLIM
 70
     0
  9
$DIMTIH
 70
     1
  9
$DIMTOH
 70
     1
  9
$DIMSE1
 70
     0
  9
$DIMSE2
 70
     0
  9
$DIMTAD
 70
     0
  9
$DIMZIN
 70
     0
  9
$DIMBLK
  1

  9
$DIMASO
 70
     1
  9
$DIMSHO
 70
     1
  9
$DIMPOST
  1

  9
$DIMAPOST
  1

  9
$DIMALT
 70
     0
  9
$DIMALTD
 70
     2
  9
$DIMALTF
 40
25.4
  9
$DIMLFAC
 40
1.0
  9
$DIMTOFL
 70
     0
  9
$DIMTVP
 40
0.0
  9
$DIMTIX
 70
     0
  9
$DIMSOXD
 70
     0
  9
$DIMSAH
 70
     0
  9
$DIMBLK1
  1

  9
$DIMBLK2
  1

  9
$DIMSTYLE
  2
Standard
  9
$DIMCLRD
 70
     0
  9
$DIMCLRE
 70
     0
  9
$DIMCLRT
 70
     0
  9
$DIMTFAC
 40
1.0
  9
$DIMGAP
 40
0.09
  9
$DIMJUST
 70
     0
  9
$DIMSD1
 70
     0
  9
$DIMSD2
 70
     0
  9
$DIMTOLJ
 70
     1
  9
$DIMTZIN
 70
     0
  9
$DIMALTZ
 70
     0
  9
$DIMALTTZ
 70
     0
  9
$DIMUPT
 70
     0
  9
$DIMDEC
 70
     4
  9
$DIMTDEC
 70
     4
  9
$DIMALTU
 70
     2
  9
$DIMALTTD
 70
     2
  9
$DIMTXSTY
  7
Standard
  9
$DIMAUNIT
 70
     0
  9
$DIMADEC
 70
     0
  9
$DIMALTRND
 40
0.0
  9
$DIMAZIN
 70
     0
  9
$DIMDSEP
 70
    46
  9
$DIMATFIT
 70
     3
  9
$DIMFRAC
 70
     0
  9
$DIMLDRBLK
  1

  9
$DIMLUNIT
 70
     2
  9
$DIMLWD
 70
    -2
  9
$DIMLWE
 70
    -2
  9
$DIMTMOVE
 70
     0
  9
$LUNITS
 70
     2
  9
$LUPREC
 70
     4
  9
$SKETCHINC
 40
0.1
  9
$FILLETRAD
 40
0.5
  9
$AUNITS
 70
     0
  9
$AUPREC
 70
     0
  9
$MENU
  1
.
  9
$ELEVATION
 40
0.0
  9
$PELEVATION
 40
0.0
  9
$THICKNESS
 40
0.0
  9
$LIMCHECK
 70
     0
  9
$CHAMFERA
 40
0.5
  9
$CHAMFERB
 40
0.5
  9
$CHAMFERC
 40
1.0
  9
$CHAMFERD
 40
0.0
  9
$SKPOLY
 70
     0
  9
$TDCREATE
 40
2456077.613726852
  9
$TDUCREATE
 40
2456077.572060185
  9
$TDUPDATE
 40
2456077.613726864
  9
$TDUUPDATE
 40
2456077.572060197
  9
$TDINDWG
 40
0.0000000116
  9
$TDUSRTIMER
 40
0.0000000116
  9
$USRTIMER
 70
     1
  9
$ANGBASE
 50
0.0
  9
$ANGDIR
 70
     0
  9
$PDMODE
 70
     0
  9
$PDSIZE
 40
0.0
  9
$PLINEWID
 40
0.0
  9
$SPLFRAME
 70
     0
  9
$SPLINETYPE
 70
     6
  9
$SPLINESEGS
 70
     8
  9
$HANDSEED
  5
5CD
  9
$SURFTAB1
 70
     6
  9
$SURFTAB2
 70
     6
  9
$SURFTYPE
 70
     6
  9
$SURFU
 70
     6
  9
$SURFV
 70
     6
  9
$UCSBASE
  2

  9
$UCSNAME
  2

  9
$UCSORG
 10
0.0
 20
0.0
 30
0.0
  9
$UCSXDIR
 10
1.0
 20
0.0
 30
0.0
  9
$UCSYDIR
 10
0.0
 20
1.0
 30
0.0
  9
$UCSORTHOREF
  2

  9
$UCSORTHOVIEW
 70
     0
  9
$UCSORGTOP
 10
0.0
 20
0.0
 30
0.0
  9
$UCSORGBOTTOM
 10
0.0
 20
0.0
 30
0.0
  9
$UCSORGLEFT
 10
0.0
 20
0.0
 30
0.0
  9
$UCSORGRIGHT
 10
0.0
 20
0.0
 30
0.0
  9
$UCSORGFRONT
 10
0.0
 20
0.0
 30
0.0
  9
$UCSORGBACK
 10
0.0
 20
0.0
 30
0.0
  9
$PUCSBASE
  2

  9
$PUCSNAME
  2

  9
$PUCSORG
 10
0.0
 20
0.0
 30
0.0
  9
$PUCSXDIR
 10
1.0
 20
0.0
 30
0.0
  9
$PUCSYDIR
 10
0.0
 20
1.0
 30
0.0
  9
$PUCSORTHOREF
  2

  9
$PUCSORTHOVIEW
 70
     0
  9
$PUCSORGTOP
 10
0.0
 20
0.0
 30
0.0
  9
$PUCSORGBOTTOM
 10
0.0
 20
0.0
 30
0.0
  9
$PUCSORGLEFT
 10
0.0
 20
0.0
 30
0.0
  9
$PUCSORGRIGHT
 10
0.0
 20
0.0
 30
0.0
  9
$PUCSORGFRONT
 10
0.0
 20
0.0
 30
0.0
  9
$PUCSORGBACK
 10
0.0
 20
0.0
 30
0.0
  9
$USERI1
 70
     0
  9
$USERI2
 70
     0
  9
$USERI3
 70
     0
  9
$USERI4
 70
     0
  9
$USERI5
 70
     0
  9
$USERR1
 40
0.0
  9
$USERR2
 40
0.0
  9
$USERR3
 40
0.0
  9
$USERR4
 40
0.0
  9
$USERR5
 40
0.0
  9
$WORLDVIEW
 70
     1
  9
$SHADEDGE
 70
     3
  9
$SHADEDIF
 70
    70
  9
$TILEMODE
 70
     1
  9
$MAXACTVP
 70
    64
  9
$PINSBASE
 10
0.0
 20
0.0
 30
0.0
  9
$PLIMCHECK
 70
     0
  9
$PEXTMIN
 10
1.000000000000000E+20
 20
1.000000000000000E+20
 30
1.000000000000000E+20
  9
$PEXTMAX
 10
-1.000000000000000E+20
 20
-1.000000000000000E+20
 30
-1.000000000000000E+20
  9
$PLIMMIN
 10
0.0
 20
0.0
  9
$PLIMMAX
 10
12.0
 20
9.0
  9
$UNITMODE
 70
     0
  9
$VISRETAIN
 70
     1
  9
$PLINEGEN
 70
     0
  9
$PSLTSCALE
 70
     1
  9
$TREEDEPTH
 70
  3020
  9
$CMLSTYLE
  2
Standard
  9
$CMLJUST
 70
     0
  9
$CMLSCALE
 40
1.0
  9
$PROXYGRAPHICS
 70
     1
  9
$MEASUREMENT
 70
     0
  9
$CELWEIGHT
370
    -1
  9
$ENDCAPS
280
     0
  9
$JOINSTYLE
280
     0
  9
$LWDISPLAY
290
     1
  9
$INSUNITS
 70
     1
  9
$HYPERLINKBASE
  1

  9
$STYLESHEET
  1

  9
$XEDIT
290
     1
  9
$CEPSNTYPE
380
     0
  9
$PSTYLEMODE
290
     1
  9
$FINGERPRINTGUID
  2
{FA4300B7-C7D6-0481-9D01-660F7EAF891F}
  9
$VERSIONGUID
  2
{FAEB1C32-E019-11D5-929B-00C0DF256EC4}
  9
$EXTNAMES
290
     1
  9
$PSVPSCALE
 40
0.0
  9
$OLESTARTUP
290
     0
  9
$SORTENTS
280
   127
  9
$INDEXCTL
280
     0
  9
$HIDETEXT
280
     1
  9
$XCLIPFRAME
290
     0
  9
$HALOGAP
280
     0
  9
$OBSCOLOR
 70
   257
  9
$OBSLTYPE
280
     0
  9
$INTERSECTIONDISPLAY
280
     0
  9
$INTERSECTIONCOLOR
 70
   257
  9
$DIMASSOC
280
     2
  9
$PROJECTNAME
  1

  0
ENDSEC
  0
SECTION
  2
CLASSES
  0
CLASS
  1
ACDBDICTIONARYWDFLT
  2
AcDbDictionaryWithDefault
  3
ObjectDBX Classes
 90
        0
 91
        3
280
     0
281
     0
  0
CLASS
  1
VISUALSTYLE
  2
AcDbVisualStyle
  3
ObjectDBX Classes
 90
     4095
 91
        3
280
     0
281
     0
  0
ENDSEC
  0
SECTION
  2
TABLES
  0
TABLE
  2
VPORT
  5
8
330
0
100
AcDbSymbolTable
 70
     1
  0
VPORT
  5
29
330
8
100
AcDbSymbolTableRecord
100
AcDbViewportTableRecord
  2
*Active
 70
     0
 10
0.0
 20
0.0
 11
1.0
 21
1.0
 12
0.0
 22
0.0
 13
0.0
 23
0.0
 14
0.5
 24
0.5
 15
0.5
 25
0.5
 16
0.0
 26
0.0
 36
1.0
 17
105.0008259828644
 27
-148.4999796178229
 37
0.0
 40
296.9999592356459
 41
0.7070763662937379
 42
50.0
 43
0.0
 44
0.0
 50
0.0
 51
0.0
 71
     0
 72
   100
 73
     1
 74
     3
 75
     0
 76
     0
 77
     0
 78
     0
281
     0
 65
     1
110
0.0
120
0.0
130
0.0
111
1.0
121
0.0
131
0.0
112
0.0
122
1.0
132
0.0
 79
     0
146
0.0
  0
ENDTAB
  0
TABLE
  2
LTYPE
  5
5
330
0
100
AcDbSymbolTable
 70
     1
  0
LTYPE
  5
14
330
5
100
AcDbSymbolTableRecord
100
AcDbLinetypeTableRecord
  2
ByBlock
 70
     0
  3

 72
    65
 73
     0
 40
0.0
  0
LTYPE
  5
15
330
5
100
AcDbSymbolTableRecord
100
AcDbLinetypeTableRecord
  2
ByLayer
 70
     0
  3

 72
    65
 73
     0
 40
0.0
  0
LTYPE
  5
16
330
5
100
AcDbSymbolTableRecord
100
AcDbLinetypeTableRecord
  2
Continuous
 70
     0
  3
Solid line
 72
    65
 73
     0
 40
0.0
  0
ENDTAB
  0
TABLE
  2
LAYER
  5
2
330
0
100
AcDbSymbolTable
 70
     2
  0
LAYER
  5
10
330
2
100
AcDbSymbolTableRecord
100
AcDbLayerTableRecord
  2
0
 70
     0
 62
     7
  6
Continuous
370
    -3
390
F
  0
LAYER
  5
3B
330
2
100
AcDbSymbolTableRecord
100
AcDbLayerTableRecord
  2
Ebene 1
 70
     0
 62
     7
  6
Continuous
370
    -3
390
F
  0
ENDTAB
  0
TABLE
  2
STYLE
  5
3
330
0
100
AcDbSymbolTable
 70
     1
  0
STYLE
  5
11
330
3
100
AcDbSymbolTableRecord
100
AcDbTextStyleTableRecord
  2
Standard
 70
     0
 40
0.0
 41
1.0
 50
0.0
 71
     0
 42
0.2
  3
txt
  4

  0
ENDTAB
  0
TABLE
  2
VIEW
  5
6
330
0
100
AcDbSymbolTable
 70
     0
  0
ENDTAB
  0
TABLE
  2
UCS
  5
7
330
0
100
AcDbSymbolTable
 70
     0
  0
ENDTAB
  0
TABLE
  2
APPID
  5
9
330
0
100
AcDbSymbolTable
 70
     1
  0
APPID
  5
12
330
9
100
AcDbSymbolTableRecord
100
AcDbRegAppTableRecord
  2
ACAD
 70
     0
  0
ENDTAB
  0
TABLE
  2
DIMSTYLE
  5
A
330
0
100
AcDbSymbolTable
 70
     1
100
AcDbDimStyleTable
  0
DIMSTYLE
105
27
330
A
100
AcDbSymbolTableRecord
100
AcDbDimStyleTableRecord
  2
Standard
 70
     0
340
11
  0
ENDTAB
  0
TABLE
  2
BLOCK_RECORD
  5
1
330
0
100
AcDbSymbolTable
 70
     4
  0
BLOCK_RECORD
  5
1F
330
1
100
AcDbSymbolTableRecord
100
AcDbBlockTableRecord
  2
*Model_Space
340
22
  0
BLOCK_RECORD
  5
1B
330
1
100
AcDbSymbolTableRecord
100
AcDbBlockTableRecord
  2
*Paper_Space
340
1E
  0
BLOCK_RECORD
  5
23
330
1
100
AcDbSymbolTableRecord
100
AcDbBlockTableRecord
  2
*Paper_Space0
340
26
  0
BLOCK_RECORD
  5
3C
330
1
100
AcDbSymbolTableRecord
100
AcDbBlockTableRecord
  2
block 2
340
0
102
{BLKREFS
331
3D
102
}
  0
BLOCK_RECORD
  5
FF
330
1
100
AcDbSymbolTableRecord
100
AcDbBlockTableRecord
  2
block 3
340
0
102
{BLKREFS
331
100
102
}
  0
BLOCK_RECORD
  5
174
330
1
100
AcDbSymbolTableRecord
100
AcDbBlockTableRecord
  2
block 4
340
0
102
{BLKREFS
331
175
102
}
  0
ENDTAB
  0
ENDSEC
  0
SECTION
  2
BLOCKS
  0
BLOCK
  5
20
330
1F
100
AcDbEntity
  8
0
100
AcDbBlockBegin
  2
*Model_Space
 70
     0
 71
     0
 10
0.0
 20
0.0
 30
0.0
  3
*Model_Space
  1

  0
ENDBLK
  5
21
330
1F
100
AcDbEntity
  8
0
100
AcDbBlockEnd
  0
BLOCK
  5
1C
330
1B
100
AcDbEntity
 67
     1
  8
0
100
AcDbBlockBegin
  2
*Paper_Space
 70
     0
 71
     0
 10
0.0
 20
0.0
 30
0.0
  3
*Paper_Space
  1

  0
ENDBLK
  5
1D
330
1B
100
AcDbEntity
 67
     1
  8
0
100
AcDbBlockEnd
  0
BLOCK
  5
24
330
23
100
AcDbEntity
  8
0
100
AcDbBlockBegin
  2
*Paper_Space0
 70
     0
 71
     0
 10
0.0
 20
0.0
 30
0.0
  3
*Paper_Space0
  1

  0
ENDBLK
  5
25
330
23
100
AcDbEntity
  8
0
100
AcDbBlockEnd
  0
BLOCK
  5
3E
330
3C
100
AcDbEntity
  8
0
100
AcDbBlockBegin
  2
block 2
 70
     0
 71
     0
 10
0.0
 20
0.0
 30
0.0
  3
block 2
  1

  0
POLYLINE
  5
40
330
3C
100
AcDbEntity
  8
Ebene 1
 62
   179
420
  1709851
370
    18
100
AcDb2dPolyline
 66
     1
 10
0.0
 20
0.0
 30
0.0
  0
VERTEX
  5
41
330
40
100
AcDbEntity
  8
Ebene 1
 62
   179
420
  1709851
370
    18
100
AcDbVertex
100
AcDb2dVertex
 10
87.49595131276143
 20
-75.52941214474612
 30
0.0
  0
VERTEX
  5
42
330
40
100
AcDbEntity
  8
Ebene 1
 62
   179
420
  1709851
370
    18
100
AcDbVertex
100
AcDb2dVertex
 10
100.5346041957865
 20
-62.46957192448678
 30
0.0
  0
SEQEND
  5
43
330
40
100
AcDbEntity
  8
Ebene 1
370
    18
  0
POLYLINE
  5
44
330
3C
100
AcDbEntity
  8
Ebene 1
 62
   179
420
  1709851
370
    18
100
AcDb2dPolyline
 66
     1
 10
0.0
 20
0.0
 30
0.0
  0
VERTEX
  5
45
330
44
100
AcDbEntity
  8
Ebene 1
 62
   179
420
  1709851
370
    18
100
AcDbVertex
100
AcDb2dVertex
 10
87.49595131276143
 20
-89.6687730353085
 30
0.0
  0
VERTEX
  5
46
330
44
100
AcDbEntity
  8
Ebene 1
 62
   179
420
  1709851
370
    18
100
AcDbVertex
100
AcDb2dVertex
 10
114.6741373411231
 20
-62.46957192448678
 30
0.0
  0
SEQEND
  5
47
330
44
100
AcDbEntity
  8
Ebene 1
370
    18
  0
POLYLINE
  5
48
330
3C
100
AcDbEntity
  8
Ebene 1
 62
   179
420
  1709851
370
    18
100
AcDb2dPolyline
 66
     1
 10
0.0
 20
0.0
 30
0.0
  0
VERTEX
  5
49
330
48
100
AcDbEntity
  8
Ebene 1
 62
   179
420
  1709851
370
    18
100
AcDbVertex
100
AcDb2dVertex
 10
87.49595131276143
 20
-103.8084784354194
 30
0.0
  0
VERTEX
  5
4A
330
48
100
AcDbEntity
  8
Ebene 1
 62
   179
420
  1709851
370
    18
100
AcDbVertex
100
AcDb2dVertex
 10
128.8345133141455
 20
-62.46957192448678
 30
0.0
  0
SEQEND
  5
4B
330
48
100
AcDbEntity
  8
Ebene 1
370
    18
  0
POLYLINE
  5
4C
330
3C
100
AcDbEntity
  8
Ebene 1
 62
   179
420
  1709851
370
    18
100
AcDb2dPolyline
 66
     1
 10
0.0
 20
0.0
 30
0.0
  0
VERTEX
  5
4D
330
4C
100
AcDbEntity
  8
Ebene 1
 62
   179
420
  1709851
370
    18
100
AcDbVertex
100
AcDb2dVertex
 10
87.49595131276143
 20
-117.9478393259818
 30
0.0
  0
VERTEX
  5
4E
330
4C
100
AcDbEntity
  8
Ebene 1
 62
   179
420
  1709851
370
    18
100
AcDbVertex
100
AcDb2dVertex
 10
142.9738742047079
 20
-62.46957192448678
 30
0.0
  0
SEQEND
  5
4F
330
4C
100
AcDbEntity
  8
Ebene 1
370
    18
  0
POLYLINE
  5
50
330
3C
100
AcDbEntity
  8
Ebene 1
 62
   179
420
  1709851
370
    18
100
AcDb2dPolyline
 66
     1
 10
0.0
 20
0.0
 30
0.0
  0
VERTEX
  5
51
330
50
100
AcDbEntity
  8
Ebene 1
 62
   179
420
  1709851
370
    18
100
AcDbVertex
100
AcDb2dVertex
 10
87.49595131276143
 20
-132.0872002165442
 30
0.0
  0
VERTEX
  5
52
330
50
100
AcDbEntity
  8
Ebene 1
 62
   179
420
  1709851
370
    18
100
AcDbVertex
100
AcDb2dVertex
 10
147.5031412391659
 20
-72.0796657805912
 30
0.0
  0
SEQEND
  5
53
330
50
100
AcDbEntity
  8
Ebene 1
370
    18
  0
POLYLINE
  5
54
330
3C
100
AcDbEntity
  8
Ebene 1
 62
   179
420
  1709851
370
    18
100
AcDb2dPolyline
 66
     1
 10
0.0
 20
0.0
 30
0.0
  0
VERTEX
  5
55
330
54
100
AcDbEntity
  8
Ebene 1
 62
   179
420
  1709851
370
    18
100
AcDbVertex
100
AcDb2dVertex
 10
87.49595131276143
 20
-146.226216597558
 30
0.0
  0
VERTEX
  5
56
330
54
100
AcDbEntity
  8
Ebene 1
 62
   179
420
  1709851
370
    18
100
AcDbVertex
100
AcDb2dVertex
 10
147.5031412391659
 20
-86.24021400838787
 30
0.0
  0
SEQEND
  5
57
330
54
100
AcDbEntity
  8
Ebene 1
370
    18
  0
POLYLINE
  5
58
330
3C
100
AcDbEntity
  8
Ebene 1
 62
   179
420
  1709851
370
    18
100
AcDb2dPolyline
 66
     1
 10
0.0
 20
0.0
 30
0.0
  0
VERTEX
  5
59
330
58
100
AcDbEntity
  8
Ebene 1
 62
   179
420
  1709851
370
    18
100
AcDbVertex
100
AcDb2dVertex
 10
87.49595131276143
 20
-160.3657497428947
 30
0.0
  0
VERTEX
  5
5A
330
58
100
AcDbEntity
  8
Ebene 1
 62
   179
420
  1709851
370
    18
100
AcDbVertex
100
AcDb2dVertex
 10
147.5031412391659
 20
-100.3792303894017
 30
0.0
  0
SEQEND
  5
5B
330
58
100
AcDbEntity
  8
Ebene 1
370
    18
  0
POLYLINE
  5
5C
330
3C
100
AcDbEntity
  8
Ebene 1
 62
   179
420
  1709851
370
    18
100
AcDb2dPolyline
 66
     1
 10
0.0
 20
0.0
 30
0.0
  0
VERTEX
  5
5D
330
5C
100
AcDbEntity
  8
Ebene 1
 62
   179
420
  1709851
370
    18
100
AcDbVertex
100
AcDb2dVertex
 10
87.49595131276143
 20
-174.5051106334571
 30
0.0
  0
VERTEX
  5
5E
330
5C
100
AcDbEntity
  8
Ebene 1
 62
   179
420
  1709851
370
    18
100
AcDbVertex
100
AcDb2dVertex
 10
147.5031412391659
 20
-114.5185912799641
 30
0.0
  0
SEQEND
  5
5F
330
5C
100
AcDbEntity
  8
Ebene 1
370
    18
  0
POLYLINE
  5
60
330
3C
100
AcDbEntity
  8
Ebene 1
 62
   179
420
  1709851
370
    18
100
AcDb2dPolyline
 66
     1
 10
0.0
 20
0.0
 30
0.0
  0
VERTEX
  5
61
330
60
100
AcDbEntity
  8
Ebene 1
 62
   179
420
  1709851
370
    18
100
AcDbVertex
100
AcDb2dVertex
 10
87.49595131276143
 20
-188.6437825049224
 30
0.0
  0
VERTEX
  5
62
330
60
100
AcDbEntity
  8
Ebene 1
 62
   179
420
  1709851
370
    18
100
AcDbVertex
100
AcDb2dVertex
 10
147.5031412391659
 20
-128.657607660978
 30
0.0
  0
SEQEND
  5
63
330
60
100
AcDbEntity
  8
Ebene 1
370
    18
  0
POLYLINE
  5
64
330
3C
100
AcDbEntity
  8
Ebene 1
 62
   179
420
  1709851
370
    18
100
AcDb2dPolyline
 66
     1
 10
0.0
 20
0.0
 30
0.0
  0
VERTEX
  5
65
330
64
100
AcDbEntity
  8
Ebene 1
 62
   179
420
  1709851
370
    18
100
AcDbVertex
100
AcDb2dVertex
 10
87.49595131276143
 20
-202.7831433954848
 30
0.0
  0
VERTEX
  5
66
330
64
100
AcDbEntity
  8
Ebene 1
 62
   179
420
  1709851
370
    18
100
AcDbVertex
100
AcDb2dVertex
 10
147.5031412391659
 20
-142.7973130610889
 30
0.0
  0
SEQEND
  5
67
330
64
100
AcDbEntity
  8
Ebene 1
370
    18
  0
POLYLINE
  5
68
330
3C
100
AcDbEntity
  8
Ebene 1
 62
   179
420
  1709851
370
    18
100
AcDb2dPolyline
 66
     1
 10
0.0
 20
0.0
 30
0.0
  0
VERTEX
  5
69
330
68
100
AcDbEntity
  8
Ebene 1
 62
   179
420
  1709851
370
    18
100
AcDbVertex
100
AcDb2dVertex
 10
87.49595131276143
 20
-216.9225042860472
 30
0.0
  0
VERTEX
  5
6A
330
68
100
AcDbEntity
  8
Ebene 1
 62
   179
420
  1709851
370
    18
100
AcDbVertex
100
AcDb2dVertex
 10
147.5031412391659
 20
-156.936501696877
 30
0.0
  0
SEQEND
  5
6B
330
68
100
AcDbEntity
  8
Ebene 1
370
    18
  0
POLYLINE
  5
6C
330
3C
100
AcDbEntity
  8
Ebene 1
 62
   179
420
  1709851
370
    18
100
AcDb2dPolyline
 66
     1
 10
0.0
 20
0.0
 30
0.0
  0
VERTEX
  5
6D
330
6C
100
AcDbEntity
  8
Ebene 1
 62
   179
420
  1709851
370
    18
100
AcDbVertex
100
AcDb2dVertex
 10
88.85073511233593
 20
-229.7286132238179
 30
0.0
  0
VERTEX
  5
6E
330
6C
100
AcDbEntity
  8
Ebene 1
 62
   179
420
  1709851
370
    18
100
AcDbVertex
100
AcDb2dVertex
 10
147.5031412391659
 20
-171.0758625874394
 30
0.0
  0
SEQEND
  5
6F
330
6C
100
AcDbEntity
  8
Ebene 1
370
    18
  0
POLYLINE
  5
70
330
3C
100
AcDbEntity
  8
Ebene 1
 62
   179
420
  1709851
370
    18
100
AcDb2dPolyline
 66
     1
 10
0.0
 20
0.0
 30
0.0
  0
VERTEX
  5
71
330
70
100
AcDbEntity
  8
Ebene 1
 62
   179
420
  1709851
370
    18
100
AcDbVertex
100
AcDb2dVertex
 10
102.9899237481241
 20
-229.7286132238179
 30
0.0
  0
VERTEX
  5
72
330
70
100
AcDbEntity
  8
Ebene 1
 62
   179
420
  1709851
370
    18
100
AcDbVertex
100
AcDb2dVertex
 10
147.5031412391659
 20
-185.2152234780017
 30
0.0
  0
SEQEND
  5
73
330
70
100
AcDbEntity
  8
Ebene 1
370
    18
  0
POLYLINE
  5
74
330
3C
100
AcDbEntity
  8
Ebene 1
 62
   179
420
  1709851
370
    18
100
AcDb2dPolyline
 66
     1
 10
0.0
 20
0.0
 30
0.0
  0
VERTEX
  5
75
330
74
100
AcDbEntity
  8
Ebene 1
 62
   179
420
  1709851
370
    18
100
AcDbVertex
100
AcDb2dVertex
 10
117.1291123839122
 20
-229.7286132238179
 30
0.0
  0
VERTEX
  5
76
330
74
100
AcDbEntity
  8
Ebene 1
 62
   179
420
  1709851
370
    18
100
AcDbVertex
100
AcDb2dVertex
 10
147.5031412391659
 20
-199.3545843685641
 30
0.0
  0
SEQEND
  5
77
330
74
100
AcDbEntity
  8
Ebene 1
370
    18
  0
POLYLINE
  5
78
330
3C
100
AcDbEntity
  8
Ebene 1
 62
   179
420
  1709851
370
    18
100
AcDb2dPolyline
 66
     1
 10
0.0
 20
0.0
 30
0.0
  0
VERTEX
  5
79
330
78
100
AcDbEntity
  8
Ebene 1
 62
   179
420
  1709851
370
    18
100
AcDbVertex
100
AcDb2dVertex
 10
131.2684732744746
 20
-229.7286132238179
 30
0.0
  0
VERTEX
  5
7A
330
78
100
AcDbEntity
  8
Ebene 1
 62
   179
420
  1709851
370
    18
100
AcDbVertex
100
AcDb2dVertex
 10
147.5031412391659
 20
-213.4939452591265
 30
0.0
  0
SEQEND
  5
7B
330
78
100
AcDbEntity
  8
Ebene 1
370
    18
  0
POLYLINE
  5
7C
330
3C
100
AcDbEntity
  8
Ebene 1
 62
   179
420
  1709851
370
    18
100
AcDb2dPolyline
 66
     1
 10
0.0
 20
0.0
 30
0.0
  0
VERTEX
  5
7D
330
7C
100
AcDbEntity
  8
Ebene 1
 62
   179
420
  1709851
370
    18
100
AcDbVertex
100
AcDb2dVertex
 10
145.4078341650369
 20
-229.7286132238179
 30
0.0
  0
VERTEX
  5
7E
330
7C
100
AcDbEntity
  8
Ebene 1
 62
   179
420
  1709851
370
    18
100
AcDbVertex
100
AcDb2dVertex
 10
147.5031412391659
 20
-227.6333061496889
 30
0.0
  0
SEQEND
  5
7F
330
7C
100
AcDbEntity
  8
Ebene 1
370
    18
  0
POLYLINE
  5
80
330
3C
100
AcDbEntity
  8
Ebene 1
 62
   179
420
  1709851
370
    18
100
AcDb2dPolyline
 66
     1
 10
0.0
 20
0.0
 30
0.0
  0
VERTEX
  5
81
330
80
100
AcDbEntity
  8
Ebene 1
 62
   179
420
  1709851
370
    18
100
AcDbVertex
100
AcDb2dVertex
 10
87.49595131276143
 20
-68.45973169946492
 30
0.0
  0
VERTEX
  5
82
330
80
100
AcDbEntity
  8
Ebene 1
 62
   179
420
  1709851
370
    18
100
AcDbVertex
100
AcDb2dVertex
 10
93.4649237505053
 20
-62.46957192448678
 30
0.0
  0
SEQEND
  5
83
330
80
100
AcDbEntity
  8
Ebene 1
370
    18
  0
POLYLINE
  5
84
330
3C
100
AcDbEntity
  8
Ebene 1
 62
   179
420
  1709851
370
    18
100
AcDb2dPolyline
 66
     1
 10
0.0
 20
0.0
 30
0.0
  0
VERTEX
  5
85
330
84
100
AcDbEntity
  8
Ebene 1
 62
   179
420
  1709851
370
    18
100
AcDbVertex
100
AcDb2dVertex
 10
87.49595131276143
 20
-82.59943709957584
 30
0.0
  0
VERTEX
  5
86
330
84
100
AcDbEntity
  8
Ebene 1
 62
   179
420
  1709851
370
    18
100
AcDbVertex
100
AcDb2dVertex
 10
107.6041123862934
 20
-62.46957192448678
 30
0.0
  0
SEQEND
  5
87
330
84
100
AcDbEntity
  8
Ebene 1
370
    18
  0
POLYLINE
  5
88
330
3C
100
AcDbEntity
  8
Ebene 1
 62
   179
420
  1709851
370
    18
100
AcDb2dPolyline
 66
     1
 10
0.0
 20
0.0
 30
0.0
  0
VERTEX
  5
89
330
88
100
AcDbEntity
  8
Ebene 1
 62
   179
420
  1709851
370
    18
100
AcDbVertex
100
AcDb2dVertex
 10
87.49595131276143
 20
-96.7384534805897
 30
0.0
  0
VERTEX
  5
8A
330
88
100
AcDbEntity
  8
Ebene 1
 62
   179
420
  1709851
370
    18
100
AcDbVertex
100
AcDb2dVertex
 10
121.7648328688643
 20
-62.46991643403531
 30
0.0
  0
SEQEND
  5
8B
330
88
100
AcDbEntity
  8
Ebene 1
370
    18
  0
POLYLINE
  5
8C
330
3C
100
AcDbEntity
  8
Ebene 1
 62
   179
420
  1709851
370
    18
100
AcDb2dPolyline
 66
     1
 10
0.0
 20
0.0
 30
0.0
  0
VERTEX
  5
8D
330
8C
100
AcDbEntity
  8
Ebene 1
 62
   179
420
  1709851
370
    18
100
AcDbVertex
100
AcDb2dVertex
 10
87.49595131276143
 20
-110.8781588807006
 30
0.0
  0
VERTEX
  5
8E
330
8C
100
AcDbEntity
  8
Ebene 1
 62
   179
420
  1709851
370
    18
100
AcDbVertex
100
AcDb2dVertex
 10
135.9041937594267
 20
-62.46991643403531
 30
0.0
  0
SEQEND
  5
8F
330
8C
100
AcDbEntity
  8
Ebene 1
370
    18
  0
POLYLINE
  5
90
330
3C
100
AcDbEntity
  8
Ebene 1
 62
   179
420
  1709851
370
    18
100
AcDb2dPolyline
 66
     1
 10
0.0
 20
0.0
 30
0.0
  0
VERTEX
  5
91
330
90
100
AcDbEntity
  8
Ebene 1
 62
   179
420
  1709851
370
    18
100
AcDbVertex
100
AcDb2dVertex
 10
87.49595131276143
 20
-125.017519771263
 30
0.0
  0
VERTEX
  5
92
330
90
100
AcDbEntity
  8
Ebene 1
 62
   179
420
  1709851
370
    18
100
AcDbVertex
100
AcDb2dVertex
 10
147.5031412391659
 20
-65.00998533531
 30
0.0
  0
SEQEND
  5
93
330
90
100
AcDbEntity
  8
Ebene 1
370
    18
  0
POLYLINE
  5
94
330
3C
100
AcDbEntity
  8
Ebene 1
 62
   179
420
  1709851
370
    18
100
AcDb2dPolyline
 66
     1
 10
0.0
 20
0.0
 30
0.0
  0
VERTEX
  5
95
330
94
100
AcDbEntity
  8
Ebene 1
 62
   179
420
  1709851
370
    18
100
AcDbVertex
100
AcDb2dVertex
 10
87.49595131276143
 20
-139.1568806618254
 30
0.0
  0
VERTEX
  5
96
330
94
100
AcDbEntity
  8
Ebene 1
 62
   179
420
  1709851
370
    18
100
AcDbVertex
100
AcDb2dVertex
 10
147.5031412391659
 20
-79.17053356310667
 30
0.0
  0
SEQEND
  5
97
330
94
100
AcDbEntity
  8
Ebene 1
370
    18
  0
POLYLINE
  5
98
330
3C
100
AcDbEntity
  8
Ebene 1
 62
   179
420
  1709851
370
    18
100
AcDb2dPolyline
 66
     1
 10
0.0
 20
0.0
 30
0.0
  0
VERTEX
  5
99
330
98
100
AcDbEntity
  8
Ebene 1
 62
   179
420
  1709851
370
    18
100
AcDbVertex
100
AcDb2dVertex
 10
87.49595131276143
 20
-153.296413807162
 30
0.0
  0
VERTEX
  5
9A
330
98
100
AcDbEntity
  8
Ebene 1
 62
   179
420
  1709851
370
    18
100
AcDbVertex
100
AcDb2dVertex
 10
147.5031412391659
 20
-93.30989445366906
 30
0.0
  0
SEQEND
  5
9B
330
98
100
AcDbEntity
  8
Ebene 1
370
    18
  0
POLYLINE
  5
9C
330
3C
100
AcDbEntity
  8
Ebene 1
 62
   179
420
  1709851
370
    18
100
AcDb2dPolyline
 66
     1
 10
0.0
 20
0.0
 30
0.0
  0
VERTEX
  5
9D
330
9C
100
AcDbEntity
  8
Ebene 1
 62
   179
420
  1709851
370
    18
100
AcDbVertex
100
AcDb2dVertex
 10
87.49595131276143
 20
-167.4357746977244
 30
0.0
  0
VERTEX
  5
9E
330
9C
100
AcDbEntity
  8
Ebene 1
 62
   179
420
  1709851
370
    18
100
AcDbVertex
100
AcDb2dVertex
 10
147.5031412391659
 20
-107.4492553442314
 30
0.0
  0
SEQEND
  5
9F
330
9C
100
AcDbEntity
  8
Ebene 1
370
    18
  0
POLYLINE
  5
A0
330
3C
100
AcDbEntity
  8
Ebene 1
 62
   179
420
  1709851
370
    18
100
AcDb2dPolyline
 66
     1
 10
0.0
 20
0.0
 30
0.0
  0
VERTEX
  5
A1
330
A0
100
AcDbEntity
  8
Ebene 1
 62
   179
420
  1709851
370
    18
100
AcDbVertex
100
AcDb2dVertex
 10
87.49595131276143
 20
-181.5744465691897
 30
0.0
  0
VERTEX
  5
A2
330
A0
100
AcDbEntity
  8
Ebene 1
 62
   179
420
  1709851
370
    18
100
AcDbVertex
100
AcDb2dVertex
 10
147.5031412391659
 20
-121.5882717252453
 30
0.0
  0
SEQEND
  5
A3
330
A0
100
AcDbEntity
  8
Ebene 1
370
    18
  0
POLYLINE
  5
A4
330
3C
100
AcDbEntity
  8
Ebene 1
 62
   179
420
  1709851
370
    18
100
AcDb2dPolyline
 66
     1
 10
0.0
 20
0.0
 30
0.0
  0
VERTEX
  5
A5
330
A4
100
AcDbEntity
  8
Ebene 1
 62
   179
420
  1709851
370
    18
100
AcDbVertex
100
AcDb2dVertex
 10
87.49595131276143
 20
-195.7138074597521
 30
0.0
  0
VERTEX
  5
A6
330
A4
100
AcDbEntity
  8
Ebene 1
 62
   179
420
  1709851
370
    18
100
AcDbVertex
100
AcDb2dVertex
 10
147.5031412391659
 20
-135.7276326158077
 30
0.0
  0
SEQEND
  5
A7
330
A4
100
AcDbEntity
  8
Ebene 1
370
    18
  0
POLYLINE
  5
A8
330
3C
100
AcDbEntity
  8
Ebene 1
 62
   179
420
  1709851
370
    18
100
AcDb2dPolyline
 66
     1
 10
0.0
 20
0.0
 30
0.0
  0
VERTEX
  5
A9
330
A8
100
AcDbEntity
  8
Ebene 1
 62
   179
420
  1709851
370
    18
100
AcDbVertex
100
AcDb2dVertex
 10
87.49595131276143
 20
-209.8531683503145
 30
0.0
  0
VERTEX
  5
AA
330
A8
100
AcDbEntity
  8
Ebene 1
 62
   179
420
  1709851
370
    18
100
AcDbVertex
100
AcDb2dVertex
 10
147.5031412391659
 20
-149.8671657611443
 30
0.0
  0
SEQEND
  5
AB
330
A8
100
AcDbEntity
  8
Ebene 1
370
    18
  0
POLYLINE
  5
AC
330
3C
100
AcDbEntity
  8
Ebene 1
 62
   179
420
  1709851
370
    18
100
AcDb2dPolyline
 66
     1
 10
0.0
 20
0.0
 30
0.0
  0
VERTEX
  5
AD
330
AC
100
AcDbEntity
  8
Ebene 1
 62
   179
420
  1709851
370
    18
100
AcDbVertex
100
AcDb2dVertex
 10
87.49595131276143
 20
-223.9925292408769
 30
0.0
  0
VERTEX
  5
AE
330
AC
100
AcDbEntity
  8
Ebene 1
 62
   179
420
  1709851
370
    18
100
AcDbVertex
100
AcDb2dVertex
 10
147.5031412391659
 20
-164.0058376326097
 30
0.0
  0
SEQEND
  5
AF
330
AC
100
AcDbEntity
  8
Ebene 1
370
    18
  0
POLYLINE
  5
B0
330
3C
100
AcDbEntity
  8
Ebene 1
 62
   179
420
  1709851
370
    18
100
AcDb2dPolyline
 66
     1
 10
0.0
 20
0.0
 30
0.0
  0
VERTEX
  5
B1
330
B0
100
AcDbEntity
  8
Ebene 1
 62
   179
420
  1709851
370
    18
100
AcDbVertex
100
AcDb2dVertex
 10
95.92024330284286
 20
-229.7286132238179
 30
0.0
  0
VERTEX
  5
B2
330
B0
100
AcDbEntity
  8
Ebene 1
 62
   179
420
  1709851
370
    18
100
AcDbVertex
100
AcDb2dVertex
 10
147.5031412391659
 20
-178.145198523172
 30
0.0
  0
SEQEND
  5
B3
330
B0
100
AcDbEntity
  8
Ebene 1
370
    18
  0
POLYLINE
  5
B4
330
3C
100
AcDbEntity
  8
Ebene 1
 62
   179
420
  1709851
370
    18
100
AcDb2dPolyline
 66
     1
 10
0.0
 20
0.0
 30
0.0
  0
VERTEX
  5
B5
330
B4
100
AcDbEntity
  8
Ebene 1
 62
   179
420
  1709851
370
    18
100
AcDbVertex
100
AcDb2dVertex
 10
110.0597764481795
 20
-229.7286132238179
 30
0.0
  0
VERTEX
  5
B6
330
B4
100
AcDbEntity
  8
Ebene 1
 62
   179
420
  1709851
370
    18
100
AcDbVertex
100
AcDb2dVertex
 10
147.5031412391659
 20
-192.2845594137344
 30
0.0
  0
SEQEND
  5
B7
330
B4
100
AcDbEntity
  8
Ebene 1
370
    18
  0
POLYLINE
  5
B8
330
3C
100
AcDbEntity
  8
Ebene 1
 62
   179
420
  1709851
370
    18
100
AcDb2dPolyline
 66
     1
 10
0.0
 20
0.0
 30
0.0
  0
VERTEX
  5
B9
330
B8
100
AcDbEntity
  8
Ebene 1
 62
   179
420
  1709851
370
    18
100
AcDbVertex
100
AcDb2dVertex
 10
124.1991373387419
 20
-229.7286132238179
 30
0.0
  0
VERTEX
  5
BA
330
B8
100
AcDbEntity
  8
Ebene 1
 62
   179
420
  1709851
370
    18
100
AcDbVertex
100
AcDb2dVertex
 10
147.5031412391659
 20
-206.4239203042968
 30
0.0
  0
SEQEND
  5
BB
330
B8
100
AcDbEntity
  8
Ebene 1
370
    18
  0
POLYLINE
  5
BC
330
3C
100
AcDbEntity
  8
Ebene 1
 62
   179
420
  1709851
370
    18
100
AcDb2dPolyline
 66
     1
 10
0.0
 20
0.0
 30
0.0
  0
VERTEX
  5
BD
330
BC
100
AcDbEntity
  8
Ebene 1
 62
   179
420
  1709851
370
    18
100
AcDbVertex
100
AcDb2dVertex
 10
138.3384982293043
 20
-229.7286132238179
 30
0.0
  0
VERTEX
  5
BE
330
BC
100
AcDbEntity
  8
Ebene 1
 62
   179
420
  1709851
370
    18
100
AcDbVertex
100
AcDb2dVertex
 10
147.5031412391659
 20
-220.5639702139563
 30
0.0
  0
SEQEND
  5
BF
330
BC
100
AcDbEntity
  8
Ebene 1
370
    18
  0
POLYLINE
  5
C0
330
3C
100
AcDbEntity
  8
Ebene 1
370
     0
100
AcDb2dPolyline
 66
     1
 10
0.0
 20
0.0
 30
0.0
  0
VERTEX
  5
C1
330
C0
100
AcDbEntity
  8
Ebene 1
370
     0
100
AcDbVertex
100
AcDb2dVertex
 10
57.50277776340209
 20
-229.9725259841736
 30
0.0
  0
VERTEX
  5
C2
330
C0
100
AcDbEntity
  8
Ebene 1
370
     0
100
AcDbVertex
100
AcDb2dVertex
 10
151.5886799751237
 20
-229.9725259841736
 30
0.0
  0
VERTEX
  5
C3
330
C0
100
AcDbEntity
  8
Ebene 1
370
     0
100
AcDbVertex
100
AcDb2dVertex
 10
151.5886799751237
 20
-62.2265204380024
 30
0.0
  0
VERTEX
  5
C4
330
C0
100
AcDbEntity
  8
Ebene 1
370
     0
100
AcDbVertex
100
AcDb2dVertex
 10
57.50277776340209
 20
-62.2265204380024
 30
0.0
  0
VERTEX
  5
C5
330
C0
100
AcDbEntity
  8
Ebene 1
370
     0
100
AcDbVertex
100
AcDb2dVertex
 10
57.50277776340209
 20
-229.9725259841736
 30
0.0
  0
SEQEND
  5
C6
330
C0
100
AcDbEntity
  8
Ebene 1
370
     0
  0
ENDBLK
  5
3F
330
3C
100
AcDbEntity
  8
0
100
AcDbBlockEnd
  0
BLOCK
  5
101
330
FF
100
AcDbEntity
  8
0
100
AcDbBlockBegin
  2
block 3
 70
     0
 71
     0
 10
0.0
 20
0.0
 30
0.0
  3
block 3
  1

  0
POLYLINE
  5
103
330
FF
100
AcDbEntity
  8
Ebene 1
 62
   179
420
  1709851
370
    50
100
AcDb2dPolyline
 66
     1
 10
0.0
 20
0.0
 30
0.0
  0
VERTEX
  5
104
330
103
100
AcDbEntity
  8
Ebene 1
 62
   179
420
  1709851
370
    50
100
AcDbVertex
100
AcDb2dVertex
 10
87.49577905798716
 20
-229.7286132238179
 30
0.0
  0
VERTEX
  5
105
330
103
100
AcDbEntity
  8
Ebene 1
 62
   179
420
  1709851
370
    50
100
AcDbVertex
100
AcDb2dVertex
 10
87.49577905798716
 20
-62.46991643403531
 30
0.0
  0
SEQEND
  5
106
330
103
100
AcDbEntity
  8
Ebene 1
370
    50
  0
POLYLINE
  5
107
330
FF
100
AcDbEntity
  8
Ebene 1
 62
   179
420
  1709851
370
    50
100
AcDb2dPolyline
 66
     1
 10
0.0
 20
0.0
 30
0.0
  0
VERTEX
  5
108
330
107
100
AcDbEntity
  8
Ebene 1
 62
   179
420
  1709851
370
    50
100
AcDbVertex
100
AcDb2dVertex
 10
147.5031412391659
 20
-229.7286132238179
 30
0.0
  0
VERTEX
  5
109
330
107
100
AcDbEntity
  8
Ebene 1
 62
   179
420
  1709851
370
    50
100
AcDbVertex
100
AcDb2dVertex
 10
147.5031412391659
 20
-62.46991643403531
 30
0.0
  0
SEQEND
  5
10A
330
107
100
AcDbEntity
  8
Ebene 1
370
    50
  0
POLYLINE
  5
10B
330
FF
100
AcDbEntity
  8
Ebene 1
 62
   179
420
  1709851
370
    25
100
AcDb2dPolyline
 66
     1
 10
0.0
 20
0.0
 30
0.0
  0
VERTEX
  5
10C
330
10B
100
AcDbEntity
  8
Ebene 1
 62
   179
420
  1709851
370
    25
100
AcDbVertex
100
AcDb2dVertex
 10
63.11190997771161
 20
-134.076742859276
 30
0.0
  0
VERTEX
  5
10D
330
10B
100
AcDbEntity
  8
Ebene 1
 62
   179
420
  1709851
370
    25
100
AcDbVertex
100
AcDb2dVertex
 10
63.11190997771161
 20
-62.46974417926104
 30
0.0
  0
SEQEND
  5
10E
330
10B
100
AcDbEntity
  8
Ebene 1
370
    25
  0
POLYLINE
  5
10F
330
FF
100
AcDbEntity
  8
Ebene 1
 62
   179
420
  1709851
370
    25
100
AcDb2dPolyline
 66
     1
 10
0.0
 20
0.0
 30
0.0
  0
VERTEX
  5
110
330
10F
100
AcDbEntity
  8
Ebene 1
 62
   179
420
  1709851
370
    25
100
AcDbVertex
100
AcDb2dVertex
 10
61.5032226408742
 20
-62.46974417926104
 30
0.0
  0
VERTEX
  5
111
330
10F
100
AcDbEntity
  8
Ebene 1
 62
   179
420
  1709851
370
    25
100
AcDbVertex
100
AcDb2dVertex
 10
61.5032226408742
 20
-134.076742859276
 30
0.0
  0
SEQEND
  5
112
330
10F
100
AcDbEntity
  8
Ebene 1
370
    25
  0
POLYLINE
  5
113
330
FF
100
AcDbEntity
  8
Ebene 1
 62
   179
420
  1709851
370
    25
100
AcDb2dPolyline
 66
     1
 10
0.0
 20
0.0
 30
0.0
  0
VERTEX
  5
114
330
113
100
AcDbEntity
  8
Ebene 1
 62
   179
420
  1709851
370
    25
100
AcDbVertex
100
AcDb2dVertex
 10
61.5032226408742
 20
-229.7293022429149
 30
0.0
  0
VERTEX
  5
115
330
113
100
AcDbEntity
  8
Ebene 1
 62
   179
420
  1709851
370
    25
100
AcDbVertex
100
AcDb2dVertex
 10
61.5032226408742
 20
-136.0662855020077
 30
0.0
  0
SEQEND
  5
116
330
113
100
AcDbEntity
  8
Ebene 1
370
    25
  0
POLYLINE
  5
117
330
FF
100
AcDbEntity
  8
Ebene 1
 62
   179
420
  1709851
370
    25
100
AcDb2dPolyline
 66
     1
 10
0.0
 20
0.0
 30
0.0
  0
VERTEX
  5
118
330
117
100
AcDbEntity
  8
Ebene 1
 62
   179
420
  1709851
370
    25
100
AcDbVertex
100
AcDb2dVertex
 10
63.11190997771161
 20
-229.7293022429149
 30
0.0
  0
VERTEX
  5
119
330
117
100
AcDbEntity
  8
Ebene 1
 62
   179
420
  1709851
370
    25
100
AcDbVertex
100
AcDb2dVertex
 10
63.11190997771161
 20
-136.0662855020077
 30
0.0
  0
SEQEND
  5
11A
330
117
100
AcDbEntity
  8
Ebene 1
370
    25
  0
POLYLINE
  5
11B
330
FF
100
AcDbEntity
  8
Ebene 1
 62
   179
420
  1709851
370
    25
100
AcDb2dPolyline
 66
     1
 10
0.0
 20
0.0
 30
0.0
  0
VERTEX
  5
11C
330
11B
100
AcDbEntity
  8
Ebene 1
 62
   179
420
  1709851
370
    25
100
AcDbVertex
100
AcDb2dVertex
 10
61.5032226408742
 20
-134.076742859276
 30
0.0
  0
VERTEX
  5
11D
330
11B
100
AcDbEntity
  8
Ebene 1
 62
   179
420
  1709851
370
    25
100
AcDbVertex
100
AcDb2dVertex
 10
63.11190997771161
 20
-134.076742859276
 30
0.0
  0
SEQEND
  5
11E
330
11B
100
AcDbEntity
  8
Ebene 1
370
    25
  0
POLYLINE
  5
11F
330
FF
100
AcDbEntity
  8
Ebene 1
 62
   179
420
  1709851
370
    25
100
AcDb2dPolyline
 66
     1
 10
0.0
 20
0.0
 30
0.0
  0
VERTEX
  5
120
330
11F
100
AcDbEntity
  8
Ebene 1
 62
   179
420
  1709851
370
    25
100
AcDbVertex
100
AcDb2dVertex
 10
63.11190997771161
 20
-136.0662855020077
 30
0.0
  0
VERTEX
  5
121
330
11F
100
AcDbEntity
  8
Ebene 1
 62
   179
420
  1709851
370
    25
100
AcDbVertex
100
AcDb2dVertex
 10
61.5032226408742
 20
-136.0662855020077
 30
0.0
  0
SEQEND
  5
122
330
11F
100
AcDbEntity
  8
Ebene 1
370
    25
  0
POLYLINE
  5
123
330
FF
100
AcDbEntity
  8
Ebene 1
370
     0
100
AcDb2dPolyline
 66
     1
 10
0.0
 20
0.0
 30
0.0
  0
VERTEX
  5
124
330
123
100
AcDbEntity
  8
Ebene 1
370
     0
100
AcDbVertex
100
AcDb2dVertex
 10
57.50277776340209
 20
-229.9725259841736
 30
0.0
  0
VERTEX
  5
125
330
123
100
AcDbEntity
  8
Ebene 1
370
     0
100
AcDbVertex
100
AcDb2dVertex
 10
151.5886799751237
 20
-229.9725259841736
 30
0.0
  0
VERTEX
  5
126
330
123
100
AcDbEntity
  8
Ebene 1
370
     0
100
AcDbVertex
100
AcDb2dVertex
 10
151.5886799751237
 20
-62.2265204380024
 30
0.0
  0
VERTEX
  5
127
330
123
100
AcDbEntity
  8
Ebene 1
370
     0
100
AcDbVertex
100
AcDb2dVertex
 10
57.50277776340209
 20
-62.2265204380024
 30
0.0
  0
VERTEX
  5
128
330
123
100
AcDbEntity
  8
Ebene 1
370
     0
100
AcDbVertex
100
AcDb2dVertex
 10
57.50277776340209
 20
-229.9725259841736
 30
0.0
  0
SEQEND
  5
129
330
123
100
AcDbEntity
  8
Ebene 1
370
     0
  0
ENDBLK
  5
102
330
FF
100
AcDbEntity
  8
0
100
AcDbBlockEnd
  0
BLOCK
  5
176
330
174
100
AcDbEntity
  8
0
100
AcDbBlockBegin
  2
block 4
 70
     0
 71
     0
 10
0.0
 20
0.0
 30
0.0
  3
block 4
  1

  0
POLYLINE
  5
178
330
174
100
AcDbEntity
  8
Ebene 1
 62
   179
420
  1709851
370
    18
100
AcDb2dPolyline
 66
     1
 10
0.0
 20
0.0
 30
0.0
  0
VERTEX
  5
179
330
178
100
AcDbEntity
  8
Ebene 1
 62
   179
420
  1709851
370
    18
100
AcDbVertex
100
AcDb2dVertex
 10
61.31270886053988
 20
-134.4787855024046
 30
0.0
  0
VERTEX
  5
17A
330
178
100
AcDbEntity
  8
Ebene 1
 62
   179
420
  1709851
370
    18
100
AcDbVertex
100
AcDb2dVertex
 10
62.22290308774289
 20
-134.4787855024046
 30
0.0
  0
SEQEND
  5
17B
330
178
100
AcDbEntity
  8
Ebene 1
370
    18
  0
POLYLINE
  5
17C
330
174
100
AcDbEntity
  8
Ebene 1
 62
   179
420
  1709851
370
    18
100
AcDb2dPolyline
 66
     1
 10
0.0
 20
0.0
 30
0.0
  0
VERTEX
  5
17D
330
17C
100
AcDbEntity
  8
Ebene 1
 62
   179
420
  1709851
370
    18
100
AcDbVertex
100
AcDb2dVertex
 10
61.24914684883702
 20
-134.0343681848074
 30
0.0
  0
VERTEX
  5
17E
330
17C
100
AcDbEntity
  8
Ebene 1
 62
   179
420
  1709851
370
    18
100
AcDbVertex
100
AcDb2dVertex
 10
61.27033418607131
 20
-132.0868557069957
 30
0.0
  0
SEQEND
  5
17F
330
17C
100
AcDbEntity
  8
Ebene 1
370
    18
  0
POLYLINE
  5
180
330
174
100
AcDbEntity
  8
Ebene 1
 62
   179
420
  1709851
370
    18
100
AcDb2dPolyline
 66
     1
 10
0.0
 20
0.0
 30
0.0
  0
VERTEX
  5
181
330
180
100
AcDbEntity
  8
Ebene 1
 62
   179
420
  1709851
370
    18
100
AcDbVertex
100
AcDb2dVertex
 10
61.01625839403413
 20
-132.0868557069957
 30
0.0
  0
VERTEX
  5
182
330
180
100
AcDbEntity
  8
Ebene 1
 62
   179
420
  1709851
370
    18
100
AcDbVertex
100
AcDb2dVertex
 10
61.01625839403413
 20
-134.1825072906731
 30
0.0
  0
SEQEND
  5
183
330
180
100
AcDbEntity
  8
Ebene 1
370
    18
  0
POLYLINE
  5
184
330
174
100
AcDbEntity
  8
Ebene 1
 62
   179
420
  1709851
370
    18
100
AcDb2dPolyline
 66
     1
 10
0.0
 20
0.0
 30
0.0
  0
VERTEX
  5
185
330
184
100
AcDbEntity
  8
Ebene 1
 62
   179
420
  1709851
370
    18
100
AcDbVertex
100
AcDb2dVertex
 10
61.24914684883702
 20
-134.0343681848074
 30
0.0
  0
VERTEX
  5
186
330
184
100
AcDbEntity
  8
Ebene 1
 62
   179
420
  1709851
370
    18
100
AcDbVertex
100
AcDb2dVertex
 10
61.2915215233056
 20
-134.1614922082131
 30
0.0
  0
VERTEX
  5
187
330
184
100
AcDbEntity
  8
Ebene 1
 62
   179
420
  1709851
370
    18
100
AcDbVertex
100
AcDb2dVertex
 10
61.39728595470277
 20
-134.2458970476017
 30
0.0
  0
VERTEX
  5
188
330
184
100
AcDbEntity
  8
Ebene 1
 62
   179
420
  1709851
370
    18
100
AcDbVertex
100
AcDb2dVertex
 10
61.46084796640562
 20
-134.2458970476017
 30
0.0
  0
SEQEND
  5
189
330
184
100
AcDbEntity
  8
Ebene 1
370
    18
  0
POLYLINE
  5
18A
330
174
100
AcDbEntity
  8
Ebene 1
 62
   179
420
  1709851
370
    18
100
AcDb2dPolyline
 66
     1
 10
0.0
 20
0.0
 30
0.0
  0
VERTEX
  5
18B
330
18A
100
AcDbEntity
  8
Ebene 1
 62
   179
420
  1709851
370
    18
100
AcDbVertex
100
AcDb2dVertex
 10
61.27033418607131
 20
-132.0868557069957
 30
0.0
  0
VERTEX
  5
18C
330
18A
100
AcDbEntity
  8
Ebene 1
 62
   179
420
  1709851
370
    18
100
AcDbVertex
100
AcDb2dVertex
 10
61.01625839403413
 20
-132.0868557069957
 30
0.0
  0
SEQEND
  5
18D
330
18A
100
AcDbEntity
  8
Ebene 1
370
    18
  0
POLYLINE
  5
18E
330
174
100
AcDbEntity
  8
Ebene 1
 62
   179
420
  1709851
370
    18
100
AcDb2dPolyline
 66
     1
 10
0.0
 20
0.0
 30
0.0
  0
VERTEX
  5
18F
330
18E
100
AcDbEntity
  8
Ebene 1
 62
   179
420
  1709851
370
    18
100
AcDbVertex
100
AcDb2dVertex
 10
63.49276528360598
 20
-134.4787855024046
 30
0.0
  0
VERTEX
  5
190
330
18E
100
AcDbEntity
  8
Ebene 1
 62
   179
420
  1709851
370
    18
100
AcDbVertex
100
AcDb2dVertex
 10
63.34462617774024
 20
-134.436410827936
 30
0.0
  0
VERTEX
  5
191
330
18E
100
AcDbEntity
  8
Ebene 1
 62
   179
420
  1709851
370
    18
100
AcDbVertex
100
AcDb2dVertex
 10
63.17529973464021
 20
-134.4577704199446
 30
0.0
  0
VERTEX
  5
192
330
18E
100
AcDbEntity
  8
Ebene 1
 62
   179
420
  1709851
370
    18
100
AcDbVertex
100
AcDb2dVertex
 10
63.13292506017163
 20
-134.4787855024046
 30
0.0
  0
SEQEND
  5
193
330
18E
100
AcDbEntity
  8
Ebene 1
370
    18
  0
POLYLINE
  5
194
330
174
100
AcDbEntity
  8
Ebene 1
 62
   179
420
  1709851
370
    18
100
AcDb2dPolyline
 66
     1
 10
0.0
 20
0.0
 30
0.0
  0
VERTEX
  5
195
330
194
100
AcDbEntity
  8
Ebene 1
 62
   179
420
  1709851
370
    18
100
AcDbVertex
100
AcDb2dVertex
 10
63.38700085220881
 20
-125.2924383909859
 30
0.0
  0
VERTEX
  5
196
330
194
100
AcDbEntity
  8
Ebene 1
 62
   179
420
  1709851
370
    18
100
AcDbVertex
100
AcDb2dVertex
 10
63.51395262084026
 20
-125.3348130654545
 30
0.0
  0
SEQEND
  5
197
330
194
100
AcDbEntity
  8
Ebene 1
370
    18
  0
POLYLINE
  5
198
330
174
100
AcDbEntity
  8
Ebene 1
 62
   179
420
  1709851
370
    18
100
AcDb2dPolyline
 66
     1
 10
0.0
 20
0.0
 30
0.0
  0
VERTEX
  5
199
330
198
100
AcDbEntity
  8
Ebene 1
 62
   179
420
  1709851
370
    18
100
AcDbVertex
100
AcDb2dVertex
 10
63.51395262084026
 20
-124.2130899754572
 30
0.0
  0
VERTEX
  5
19A
330
198
100
AcDbEntity
  8
Ebene 1
 62
   179
420
  1709851
370
    18
100
AcDbVertex
100
AcDb2dVertex
 10
63.30242375804593
 20
-124.3188544068543
 30
0.0
  0
VERTEX
  5
19B
330
198
100
AcDbEntity
  8
Ebene 1
 62
   179
420
  1709851
370
    18
100
AcDbVertex
100
AcDb2dVertex
 10
63.17529973464021
 20
-124.5093681871886
 30
0.0
  0
VERTEX
  5
19C
330
198
100
AcDbEntity
  8
Ebene 1
 62
   179
420
  1709851
370
    18
100
AcDbVertex
100
AcDb2dVertex
 10
63.11190997771161
 20
-124.720897049983
 30
0.0
  0
VERTEX
  5
19D
330
198
100
AcDbEntity
  8
Ebene 1
 62
   179
420
  1709851
370
    18
100
AcDbVertex
100
AcDb2dVertex
 10
63.13292506017163
 20
-124.9327704223258
 30
0.0
  0
VERTEX
  5
19E
330
198
100
AcDbEntity
  8
Ebene 1
 62
   179
420
  1709851
370
    18
100
AcDbVertex
100
AcDb2dVertex
 10
63.21767440910878
 20
-125.1442992851202
 30
0.0
  0
VERTEX
  5
19F
330
198
100
AcDbEntity
  8
Ebene 1
 62
   179
420
  1709851
370
    18
100
AcDbVertex
100
AcDb2dVertex
 10
63.38700085220881
 20
-125.2924383909859
 30
0.0
  0
SEQEND
  5
1A0
330
198
100
AcDbEntity
  8
Ebene 1
370
    18
  0
POLYLINE
  5
1A1
330
174
100
AcDbEntity
  8
Ebene 1
 62
   179
420
  1709851
370
    18
100
AcDb2dPolyline
 66
     1
 10
0.0
 20
0.0
 30
0.0
  0
VERTEX
  5
1A2
330
1A1
100
AcDbEntity
  8
Ebene 1
 62
   179
420
  1709851
370
    18
100
AcDbVertex
100
AcDb2dVertex
 10
63.51395262084026
 20
-128.3192992843264
 30
0.0
  0
VERTEX
  5
1A3
330
1A1
100
AcDbEntity
  8
Ebene 1
 62
   179
420
  1709851
370
    18
100
AcDbVertex
100
AcDb2dVertex
 10
63.36581351497452
 20
-128.382689041255
 30
0.0
  0
VERTEX
  5
1A4
330
1A1
100
AcDbEntity
  8
Ebene 1
 62
   179
420
  1709851
370
    18
100
AcDbVertex
100
AcDb2dVertex
 10
63.26004908357735
 20
-128.5098130646607
 30
0.0
  0
VERTEX
  5
1A5
330
1A1
100
AcDbEntity
  8
Ebene 1
 62
   179
420
  1709851
370
    18
100
AcDbVertex
100
AcDb2dVertex
 10
63.23886174634306
 20
-128.6155774960579
 30
0.0
  0
SEQEND
  5
1A6
330
1A1
100
AcDbEntity
  8
Ebene 1
370
    18
  0
POLYLINE
  5
1A7
330
174
100
AcDbEntity
  8
Ebene 1
 62
   179
420
  1709851
370
    18
100
AcDb2dPolyline
 66
     1
 10
0.0
 20
0.0
 30
0.0
  0
VERTEX
  5
1A8
330
1A7
100
AcDbEntity
  8
Ebene 1
 62
   179
420
  1709851
370
    18
100
AcDbVertex
100
AcDb2dVertex
 10
63.23886174634306
 20
-128.6155774960579
 30
0.0
  0
VERTEX
  5
1A9
330
1A7
100
AcDbEntity
  8
Ebene 1
 62
   179
420
  1709851
370
    18
100
AcDbVertex
100
AcDb2dVertex
 10
63.23886174634306
 20
-131.8543117617413
 30
0.0
  0
SEQEND
  5
1AA
330
1A7
100
AcDbEntity
  8
Ebene 1
370
    18
  0
POLYLINE
  5
1AB
330
174
100
AcDbEntity
  8
Ebene 1
 62
   179
420
  1709851
370
    18
100
AcDb2dPolyline
 66
     1
 10
0.0
 20
0.0
 30
0.0
  0
VERTEX
  5
1AC
330
1AB
100
AcDbEntity
  8
Ebene 1
 62
   179
420
  1709851
370
    18
100
AcDbVertex
100
AcDb2dVertex
 10
63.23886174634306
 20
-131.8543117617413
 30
0.0
  0
VERTEX
  5
1AD
330
1AB
100
AcDbEntity
  8
Ebene 1
 62
   179
420
  1709851
370
    18
100
AcDbVertex
100
AcDb2dVertex
 10
63.28123642081164
 20
-132.002450867607
 30
0.0
  0
VERTEX
  5
1AE
330
1AB
100
AcDbEntity
  8
Ebene 1
 62
   179
420
  1709851
370
    18
100
AcDbVertex
100
AcDb2dVertex
 10
63.40818818944309
 20
-132.1082152990042
 30
0.0
  0
VERTEX
  5
1AF
330
1AB
100
AcDbEntity
  8
Ebene 1
 62
   179
420
  1709851
370
    18
100
AcDbVertex
100
AcDb2dVertex
 10
63.51395262084026
 20
-132.1505899734728
 30
0.0
  0
SEQEND
  5
1B0
330
1AB
100
AcDbEntity
  8
Ebene 1
370
    18
  0
POLYLINE
  5
1B1
330
174
100
AcDbEntity
  8
Ebene 1
 62
   179
420
  1709851
370
    18
100
AcDb2dPolyline
 66
     1
 10
0.0
 20
0.0
 30
0.0
  0
VERTEX
  5
1B2
330
1B1
100
AcDbEntity
  8
Ebene 1
 62
   179
420
  1709851
370
    18
100
AcDbVertex
100
AcDb2dVertex
 10
64.04311928737464
 20
-132.2139797304014
 30
0.0
  0
VERTEX
  5
1B3
330
1B1
100
AcDbEntity
  8
Ebene 1
 62
   179
420
  1709851
370
    18
100
AcDbVertex
100
AcDb2dVertex
 10
64.00091686768033
 20
-132.0658406245356
 30
0.0
  0
VERTEX
  5
1B4
330
1B1
100
AcDbEntity
  8
Ebene 1
 62
   179
420
  1709851
370
    18
100
AcDbVertex
100
AcDb2dVertex
 10
63.97972953044604
 20
-132.023465950067
 30
0.0
  0
SEQEND
  5
1B5
330
1B1
100
AcDbEntity
  8
Ebene 1
370
    18
  0
POLYLINE
  5
1B6
330
174
100
AcDbEntity
  8
Ebene 1
 62
   179
420
  1709851
370
    18
100
AcDb2dPolyline
 66
     1
 10
0.0
 20
0.0
 30
0.0
  0
VERTEX
  5
1B7
330
1B6
100
AcDbEntity
  8
Ebene 1
 62
   179
420
  1709851
370
    18
100
AcDbVertex
100
AcDb2dVertex
 10
63.70446640117458
 20
-134.2458970476017
 30
0.0
  0
VERTEX
  5
1B8
330
1B6
100
AcDbEntity
  8
Ebene 1
 62
   179
420
  1709851
370
    18
100
AcDbVertex
100
AcDb2dVertex
 10
63.78921575011173
 20
-134.2035223731332
 30
0.0
  0
VERTEX
  5
1B9
330
1B6
100
AcDbEntity
  8
Ebene 1
 62
   179
420
  1709851
370
    18
100
AcDbVertex
100
AcDb2dVertex
 10
63.81040308734601
 20
-134.1401326162046
 30
0.0
  0
SEQEND
  5
1BA
330
1B6
100
AcDbEntity
  8
Ebene 1
370
    18
  0
POLYLINE
  5
1BB
330
174
100
AcDbEntity
  8
Ebene 1
 62
   179
420
  1709851
370
    18
100
AcDb2dPolyline
 66
     1
 10
0.0
 20
0.0
 30
0.0
  0
VERTEX
  5
1BC
330
1BB
100
AcDbEntity
  8
Ebene 1
 62
   179
420
  1709851
370
    18
100
AcDbVertex
100
AcDb2dVertex
 10
63.51395262084026
 20
-132.61602237353
 30
0.0
  0
VERTEX
  5
1BD
330
1BB
100
AcDbEntity
  8
Ebene 1
 62
   179
420
  1709851
370
    18
100
AcDbVertex
100
AcDb2dVertex
 10
63.30242375804593
 20
-132.7221313144757
 30
0.0
  0
VERTEX
  5
1BE
330
1BB
100
AcDbEntity
  8
Ebene 1
 62
   179
420
  1709851
370
    18
100
AcDbVertex
100
AcDb2dVertex
 10
63.17529973464021
 20
-132.91264509481
 30
0.0
  0
VERTEX
  5
1BF
330
1BB
100
AcDbEntity
  8
Ebene 1
 62
   179
420
  1709851
370
    18
100
AcDbVertex
100
AcDb2dVertex
 10
63.11190997771161
 20
-133.1241739576044
 30
0.0
  0
VERTEX
  5
1C0
330
1BB
100
AcDbEntity
  8
Ebene 1
 62
   179
420
  1709851
370
    18
100
AcDbVertex
100
AcDb2dVertex
 10
63.13292506017163
 20
-133.3357028203987
 30
0.0
  0
VERTEX
  5
1C1
330
1BB
100
AcDbEntity
  8
Ebene 1
 62
   179
420
  1709851
370
    18
100
AcDbVertex
100
AcDb2dVertex
 10
63.21767440910878
 20
-133.5475761927416
 30
0.0
  0
VERTEX
  5
1C2
330
1BB
100
AcDbEntity
  8
Ebene 1
 62
   179
420
  1709851
370
    18
100
AcDbVertex
100
AcDb2dVertex
 10
63.38700085220881
 20
-133.6957152986073
 30
0.0
  0
VERTEX
  5
1C3
330
1BB
100
AcDbEntity
  8
Ebene 1
 62
   179
420
  1709851
370
    18
100
AcDbVertex
100
AcDb2dVertex
 10
63.51395262084026
 20
-133.7380899730759
 30
0.0
  0
SEQEND
  5
1C4
330
1BB
100
AcDbEntity
  8
Ebene 1
370
    18
  0
POLYLINE
  5
1C5
330
174
100
AcDbEntity
  8
Ebene 1
 62
   179
420
  1709851
370
    18
100
AcDb2dPolyline
 66
     1
 10
0.0
 20
0.0
 30
0.0
  0
VERTEX
  5
1C6
330
1C5
100
AcDbEntity
  8
Ebene 1
 62
   179
420
  1709851
370
    18
100
AcDbVertex
100
AcDb2dVertex
 10
63.81040308734601
 20
-133.9709784278788
 30
0.0
  0
VERTEX
  5
1C7
330
1C5
100
AcDbEntity
  8
Ebene 1
 62
   179
420
  1709851
370
    18
100
AcDbVertex
100
AcDb2dVertex
 10
63.81040308734601
 20
-134.1401326162046
 30
0.0
  0
SEQEND
  5
1C8
330
1C5
100
AcDbEntity
  8
Ebene 1
370
    18
  0
POLYLINE
  5
1C9
330
174
100
AcDbEntity
  8
Ebene 1
 62
   179
420
  1709851
370
    18
100
AcDb2dPolyline
 66
     1
 10
0.0
 20
0.0
 30
0.0
  0
VERTEX
  5
1CA
330
1C9
100
AcDbEntity
  8
Ebene 1
 62
   179
420
  1709851
370
    18
100
AcDbVertex
100
AcDb2dVertex
 10
63.51395262084026
 20
-134.1401326162046
 30
0.0
  0
VERTEX
  5
1CB
330
1C9
100
AcDbEntity
  8
Ebene 1
 62
   179
420
  1709851
370
    18
100
AcDbVertex
100
AcDb2dVertex
 10
63.74684107564315
 20
-133.6109659496702
 30
0.0
  0
SEQEND
  5
1CC
330
1C9
100
AcDbEntity
  8
Ebene 1
370
    18
  0
POLYLINE
  5
1CD
330
174
100
AcDbEntity
  8
Ebene 1
 62
   179
420
  1709851
370
    18
100
AcDb2dPolyline
 66
     1
 10
0.0
 20
0.0
 30
0.0
  0
VERTEX
  5
1CE
330
1CD
100
AcDbEntity
  8
Ebene 1
 62
   179
420
  1709851
370
    18
100
AcDbVertex
100
AcDb2dVertex
 10
63.70446640117458
 20
-134.1825072906731
 30
0.0
  0
VERTEX
  5
1CF
330
1CD
100
AcDbEntity
  8
Ebene 1
 62
   179
420
  1709851
370
    18
100
AcDbVertex
100
AcDb2dVertex
 10
63.97972953044604
 20
-133.5685912752016
 30
0.0
  0
SEQEND
  5
1D0
330
1CD
100
AcDbEntity
  8
Ebene 1
370
    18
  0
POLYLINE
  5
1D1
330
174
100
AcDbEntity
  8
Ebene 1
 62
   179
420
  1709851
370
    18
100
AcDb2dPolyline
 66
     1
 10
0.0
 20
0.0
 30
0.0
  0
VERTEX
  5
1D2
330
1D1
100
AcDbEntity
  8
Ebene 1
 62
   179
420
  1709851
370
    18
100
AcDbVertex
100
AcDb2dVertex
 10
64.04311928737464
 20
-134.1825072906731
 30
0.0
  0
VERTEX
  5
1D3
330
1D1
100
AcDbEntity
  8
Ebene 1
 62
   179
420
  1709851
370
    18
100
AcDbVertex
100
AcDb2dVertex
 10
64.04311928737464
 20
-132.2139797304014
 30
0.0
  0
SEQEND
  5
1D4
330
1D1
100
AcDbEntity
  8
Ebene 1
370
    18
  0
POLYLINE
  5
1D5
330
174
100
AcDbEntity
  8
Ebene 1
 62
   179
420
  1709851
370
    18
100
AcDb2dPolyline
 66
     1
 10
0.0
 20
0.0
 30
0.0
  0
VERTEX
  5
1D6
330
1D5
100
AcDbEntity
  8
Ebene 1
 62
   179
420
  1709851
370
    18
100
AcDbVertex
100
AcDb2dVertex
 10
63.70446640117458
 20
-123.7896877403199
 30
0.0
  0
VERTEX
  5
1D7
330
1D5
100
AcDbEntity
  8
Ebene 1
 62
   179
420
  1709851
370
    18
100
AcDbVertex
100
AcDb2dVertex
 10
63.97972953044604
 20
-124.3822441637829
 30
0.0
  0
VERTEX
  5
1D8
330
1D5
100
AcDbEntity
  8
Ebene 1
 62
   179
420
  1709851
370
    18
100
AcDbVertex
100
AcDb2dVertex
 10
63.97972953044604
 20
-133.5685912752016
 30
0.0
  0
SEQEND
  5
1D9
330
1D5
100
AcDbEntity
  8
Ebene 1
370
    18
  0
POLYLINE
  5
1DA
330
174
100
AcDbEntity
  8
Ebene 1
 62
   179
420
  1709851
370
    18
100
AcDb2dPolyline
 66
     1
 10
0.0
 20
0.0
 30
0.0
  0
VERTEX
  5
1DB
330
1DA
100
AcDbEntity
  8
Ebene 1
 62
   179
420
  1709851
370
    18
100
AcDbVertex
100
AcDb2dVertex
 10
63.70446640117458
 20
-123.7896877403199
 30
0.0
  0
VERTEX
  5
1DC
330
1DA
100
AcDbEntity
  8
Ebene 1
 62
   179
420
  1709851
370
    18
100
AcDbVertex
100
AcDb2dVertex
 10
63.51395262084026
 20
-123.7896877403199
 30
0.0
  0
SEQEND
  5
1DD
330
1DA
100
AcDbEntity
  8
Ebene 1
370
    18
  0
POLYLINE
  5
1DE
330
174
100
AcDbEntity
  8
Ebene 1
 62
   179
420
  1709851
370
    18
100
AcDb2dPolyline
 66
     1
 10
0.0
 20
0.0
 30
0.0
  0
VERTEX
  5
1DF
330
1DE
100
AcDbEntity
  8
Ebene 1
 62
   179
420
  1709851
370
    18
100
AcDbVertex
100
AcDb2dVertex
 10
63.51395262084026
 20
-123.8320624147885
 30
0.0
  0
VERTEX
  5
1E0
330
1DE
100
AcDbEntity
  8
Ebene 1
 62
   179
420
  1709851
370
    18
100
AcDbVertex
100
AcDb2dVertex
 10
63.74684107564315
 20
-124.3398694893143
 30
0.0
  0
SEQEND
  5
1E1
330
1DE
100
AcDbEntity
  8
Ebene 1
370
    18
  0
POLYLINE
  5
1E2
330
174
100
AcDbEntity
  8
Ebene 1
 62
   179
420
  1709851
370
    18
100
AcDb2dPolyline
 66
     1
 10
0.0
 20
0.0
 30
0.0
  0
VERTEX
  5
1E3
330
1E2
100
AcDbEntity
  8
Ebene 1
 62
   179
420
  1709851
370
    18
100
AcDbVertex
100
AcDb2dVertex
 10
63.74684107564315
 20
-124.3398694893143
 30
0.0
  0
VERTEX
  5
1E4
330
1E2
100
AcDbEntity
  8
Ebene 1
 62
   179
420
  1709851
370
    18
100
AcDbVertex
100
AcDb2dVertex
 10
63.74684107564315
 20
-133.6109659496702
 30
0.0
  0
SEQEND
  5
1E5
330
1E2
100
AcDbEntity
  8
Ebene 1
370
    18
  0
POLYLINE
  5
1E6
330
174
100
AcDbEntity
  8
Ebene 1
 62
   179
420
  1709851
370
    18
100
AcDb2dPolyline
 66
     1
 10
0.0
 20
0.0
 30
0.0
  0
VERTEX
  5
1E7
330
1E6
100
AcDbEntity
  8
Ebene 1
 62
   179
420
  1709851
370
    18
100
AcDbVertex
100
AcDb2dVertex
 10
63.51395262084026
 20
-134.1825072906731
 30
0.0
  0
VERTEX
  5
1E8
330
1E6
100
AcDbEntity
  8
Ebene 1
 62
   179
420
  1709851
370
    18
100
AcDbVertex
100
AcDb2dVertex
 10
63.51395262084026
 20
-123.7896877403199
 30
0.0
  0
SEQEND
  5
1E9
330
1E6
100
AcDbEntity
  8
Ebene 1
370
    18
  0
POLYLINE
  5
1EA
330
174
100
AcDbEntity
  8
Ebene 1
 62
   179
420
  1709851
370
    18
100
AcDb2dPolyline
 66
     1
 10
0.0
 20
0.0
 30
0.0
  0
VERTEX
  5
1EB
330
1EA
100
AcDbEntity
  8
Ebene 1
 62
   179
420
  1709851
370
    18
100
AcDbVertex
100
AcDb2dVertex
 10
63.70446640117458
 20
-134.2458970476017
 30
0.0
  0
VERTEX
  5
1EC
330
1EA
100
AcDbEntity
  8
Ebene 1
 62
   179
420
  1709851
370
    18
100
AcDbVertex
100
AcDb2dVertex
 10
63.49276528360598
 20
-134.2458970476017
 30
0.0
  0
SEQEND
  5
1ED
330
1EA
100
AcDbEntity
  8
Ebene 1
370
    18
  0
POLYLINE
  5
1EE
330
174
100
AcDbEntity
  8
Ebene 1
 62
   179
420
  1709851
370
    18
100
AcDb2dPolyline
 66
     1
 10
0.0
 20
0.0
 30
0.0
  0
VERTEX
  5
1EF
330
1EE
100
AcDbEntity
  8
Ebene 1
 62
   179
420
  1709851
370
    18
100
AcDbVertex
100
AcDb2dVertex
 10
63.49276528360598
 20
-134.2458970476017
 30
0.0
  0
VERTEX
  5
1F0
330
1EE
100
AcDbEntity
  8
Ebene 1
 62
   179
420
  1709851
370
    18
100
AcDbVertex
100
AcDb2dVertex
 10
63.34462617774024
 20
-134.1825072906731
 30
0.0
  0
VERTEX
  5
1F1
330
1EE
100
AcDbEntity
  8
Ebene 1
 62
   179
420
  1709851
370
    18
100
AcDbVertex
100
AcDb2dVertex
 10
63.17529973464021
 20
-134.2248819651417
 30
0.0
  0
VERTEX
  5
1F2
330
1EE
100
AcDbEntity
  8
Ebene 1
 62
   179
420
  1709851
370
    18
100
AcDbVertex
100
AcDb2dVertex
 10
63.13292506017163
 20
-134.2458970476017
 30
0.0
  0
SEQEND
  5
1F3
330
1EE
100
AcDbEntity
  8
Ebene 1
370
    18
  0
POLYLINE
  5
1F4
330
174
100
AcDbEntity
  8
Ebene 1
 62
   179
420
  1709851
370
    18
100
AcDb2dPolyline
 66
     1
 10
0.0
 20
0.0
 30
0.0
  0
VERTEX
  5
1F5
330
1F4
100
AcDbEntity
  8
Ebene 1
 62
   179
420
  1709851
370
    18
100
AcDbVertex
100
AcDb2dVertex
 10
63.13292506017163
 20
-134.2458970476017
 30
0.0
  0
VERTEX
  5
1F6
330
1F4
100
AcDbEntity
  8
Ebene 1
 62
   179
420
  1709851
370
    18
100
AcDbVertex
100
AcDb2dVertex
 10
62.22290308774289
 20
-134.2458970476017
 30
0.0
  0
SEQEND
  5
1F7
330
1F4
100
AcDbEntity
  8
Ebene 1
370
    18
  0
POLYLINE
  5
1F8
330
174
100
AcDbEntity
  8
Ebene 1
 62
   179
420
  1709851
370
    18
100
AcDb2dPolyline
 66
     1
 10
0.0
 20
0.0
 30
0.0
  0
VERTEX
  5
1F9
330
1F8
100
AcDbEntity
  8
Ebene 1
 62
   179
420
  1709851
370
    18
100
AcDbVertex
100
AcDb2dVertex
 10
62.22290308774289
 20
-134.4787855024046
 30
0.0
  0
VERTEX
  5
1FA
330
1F8
100
AcDbEntity
  8
Ebene 1
 62
   179
420
  1709851
370
    18
100
AcDbVertex
100
AcDb2dVertex
 10
63.13292506017163
 20
-134.4787855024046
 30
0.0
  0
SEQEND
  5
1FB
330
1F8
100
AcDbEntity
  8
Ebene 1
370
    18
  0
POLYLINE
  5
1FC
330
174
100
AcDbEntity
  8
Ebene 1
 62
   179
420
  1709851
370
    18
100
AcDb2dPolyline
 66
     1
 10
0.0
 20
0.0
 30
0.0
  0
VERTEX
  5
1FD
330
1FC
100
AcDbEntity
  8
Ebene 1
 62
   179
420
  1709851
370
    18
100
AcDbVertex
100
AcDb2dVertex
 10
63.49276528360598
 20
-134.4787855024046
 30
0.0
  0
VERTEX
  5
1FE
330
1FC
100
AcDbEntity
  8
Ebene 1
 62
   179
420
  1709851
370
    18
100
AcDbVertex
100
AcDb2dVertex
 10
63.74684107564315
 20
-134.4787855024046
 30
0.0
  0
SEQEND
  5
1FF
330
1FC
100
AcDbEntity
  8
Ebene 1
370
    18
  0
POLYLINE
  5
200
330
174
100
AcDbEntity
  8
Ebene 1
 62
   179
420
  1709851
370
    18
100
AcDb2dPolyline
 66
     1
 10
0.0
 20
0.0
 30
0.0
  0
VERTEX
  5
201
330
200
100
AcDbEntity
  8
Ebene 1
 62
   179
420
  1709851
370
    18
100
AcDbVertex
100
AcDb2dVertex
 10
63.74684107564315
 20
-134.4787855024046
 30
0.0
  0
VERTEX
  5
202
330
200
100
AcDbEntity
  8
Ebene 1
 62
   179
420
  1709851
370
    18
100
AcDbVertex
100
AcDb2dVertex
 10
63.8949801815089
 20
-134.436410827936
 30
0.0
  0
VERTEX
  5
203
330
200
100
AcDbEntity
  8
Ebene 1
 62
   179
420
  1709851
370
    18
100
AcDbVertex
100
AcDb2dVertex
 10
64.00091686768033
 20
-134.3306463965389
 30
0.0
  0
VERTEX
  5
204
330
200
100
AcDbEntity
  8
Ebene 1
 62
   179
420
  1709851
370
    18
100
AcDbVertex
100
AcDb2dVertex
 10
64.04311928737464
 20
-134.1825072906731
 30
0.0
  0
SEQEND
  5
205
330
200
100
AcDbEntity
  8
Ebene 1
370
    18
  0
POLYLINE
  5
206
330
174
100
AcDbEntity
  8
Ebene 1
 62
   179
420
  1709851
370
    18
100
AcDb2dPolyline
 66
     1
 10
0.0
 20
0.0
 30
0.0
  0
VERTEX
  5
207
330
206
100
AcDbEntity
  8
Ebene 1
 62
   179
420
  1709851
370
    18
100
AcDbVertex
100
AcDb2dVertex
 10
63.70446640117458
 20
-134.1825072906731
 30
0.0
  0
VERTEX
  5
208
330
206
100
AcDbEntity
  8
Ebene 1
 62
   179
420
  1709851
370
    18
100
AcDbVertex
100
AcDb2dVertex
 10
63.51395262084026
 20
-134.1825072906731
 30
0.0
  0
SEQEND
  5
209
330
206
100
AcDbEntity
  8
Ebene 1
370
    18
  0
POLYLINE
  5
20A
330
174
100
AcDbEntity
  8
Ebene 1
 62
   179
420
  1709851
370
    18
100
AcDb2dPolyline
 66
     1
 10
0.0
 20
0.0
 30
0.0
  0
VERTEX
  5
20B
330
20A
100
AcDbEntity
  8
Ebene 1
 62
   179
420
  1709851
370
    18
100
AcDbVertex
100
AcDb2dVertex
 10
71.49382729332446
 20
-136.5744370860821
 30
0.0
  0
VERTEX
  5
20C
330
20A
100
AcDbEntity
  8
Ebene 1
 62
   179
420
  1709851
370
    18
100
AcDbVertex
100
AcDb2dVertex
 10
71.49382729332446
 20
-136.5744370860821
 30
0.0
  0
VERTEX
  5
20D
330
20A
100
AcDbEntity
  8
Ebene 1
 62
   179
420
  1709851
370
    18
100
AcDbVertex
100
AcDb2dVertex
 10
73.14488930463045
 20
-136.5744370860821
 30
0.0
  0
SEQEND
  5
20E
330
20A
100
AcDbEntity
  8
Ebene 1
370
    18
  0
POLYLINE
  5
20F
330
174
100
AcDbEntity
  8
Ebene 1
 62
   179
420
  1709851
370
    18
100
AcDb2dPolyline
 66
     1
 10
0.0
 20
0.0
 30
0.0
  0
VERTEX
  5
210
330
20F
100
AcDbEntity
  8
Ebene 1
 62
   179
420
  1709851
370
    18
100
AcDbVertex
100
AcDb2dVertex
 10
71.49382729332446
 20
-133.5685912752016
 30
0.0
  0
VERTEX
  5
211
330
20F
100
AcDbEntity
  8
Ebene 1
 62
   179
420
  1709851
370
    18
100
AcDbVertex
100
AcDb2dVertex
 10
71.49382729332446
 20
-133.5685912752016
 30
0.0
  0
VERTEX
  5
212
330
20F
100
AcDbEntity
  8
Ebene 1
 62
   179
420
  1709851
370
    18
100
AcDbVertex
100
AcDb2dVertex
 10
73.14488930463045
 20
-133.5685912752016
 30
0.0
  0
SEQEND
  5
213
330
20F
100
AcDbEntity
  8
Ebene 1
370
    18
  0
POLYLINE
  5
214
330
174
100
AcDbEntity
  8
Ebene 1
 62
   179
420
  1709851
370
    18
100
AcDb2dPolyline
 66
     1
 10
0.0
 20
0.0
 30
0.0
  0
VERTEX
  5
215
330
214
100
AcDbEntity
  8
Ebene 1
 62
   179
420
  1709851
370
    18
100
AcDbVertex
100
AcDb2dVertex
 10
73.99152152013059
 20
-139.1989108267454
 30
0.0
  0
VERTEX
  5
216
330
214
100
AcDbEntity
  8
Ebene 1
 62
   179
420
  1709851
370
    18
100
AcDbVertex
100
AcDb2dVertex
 10
73.99152152013059
 20
-137.1880085920051
 30
0.0
  0
SEQEND
  5
217
330
214
100
AcDbEntity
  8
Ebene 1
370
    18
  0
POLYLINE
  5
218
330
174
100
AcDbEntity
  8
Ebene 1
 62
   179
420
  1709851
370
    18
100
AcDb2dPolyline
 66
     1
 10
0.0
 20
0.0
 30
0.0
  0
VERTEX
  5
219
330
218
100
AcDbEntity
  8
Ebene 1
 62
   179
420
  1709851
370
    18
100
AcDbVertex
100
AcDb2dVertex
 10
73.99152152013059
 20
-142.1833970456173
 30
0.0
  0
VERTEX
  5
21A
330
218
100
AcDbEntity
  8
Ebene 1
 62
   179
420
  1709851
370
    18
100
AcDbVertex
100
AcDb2dVertex
 10
73.99152152013059
 20
-140.1938544028856
 30
0.0
  0
SEQEND
  5
21B
330
218
100
AcDbEntity
  8
Ebene 1
370
    18
  0
POLYLINE
  5
21C
330
174
100
AcDbEntity
  8
Ebene 1
 62
   179
420
  1709851
370
    18
100
AcDb2dPolyline
 66
     1
 10
0.0
 20
0.0
 30
0.0
  0
VERTEX
  5
21D
330
21C
100
AcDbEntity
  8
Ebene 1
 62
   179
420
  1709851
370
    18
100
AcDbVertex
100
AcDb2dVertex
 10
73.99152152013059
 20
-145.1892428564978
 30
0.0
  0
VERTEX
  5
21E
330
21C
100
AcDbEntity
  8
Ebene 1
 62
   179
420
  1709851
370
    18
100
AcDbVertex
100
AcDb2dVertex
 10
73.99152152013059
 20
-143.1783406217575
 30
0.0
  0
SEQEND
  5
21F
330
21C
100
AcDbEntity
  8
Ebene 1
370
    18
  0
POLYLINE
  5
220
330
174
100
AcDbEntity
  8
Ebene 1
 62
   179
420
  1709851
370
    18
100
AcDb2dPolyline
 66
     1
 10
0.0
 20
0.0
 30
0.0
  0
VERTEX
  5
221
330
220
100
AcDbEntity
  8
Ebene 1
 62
   179
420
  1709851
370
    18
100
AcDbVertex
100
AcDb2dVertex
 10
73.99152152013059
 20
-148.1947441578298
 30
0.0
  0
VERTEX
  5
222
330
220
100
AcDbEntity
  8
Ebene 1
 62
   179
420
  1709851
370
    18
100
AcDbVertex
100
AcDb2dVertex
 10
73.99152152013059
 20
-146.1838419230895
 30
0.0
  0
SEQEND
  5
223
330
220
100
AcDbEntity
  8
Ebene 1
370
    18
  0
POLYLINE
  5
224
330
174
100
AcDbEntity
  8
Ebene 1
 62
   179
420
  1709851
370
    18
100
AcDb2dPolyline
 66
     1
 10
0.0
 20
0.0
 30
0.0
  0
VERTEX
  5
225
330
224
100
AcDbEntity
  8
Ebene 1
 62
   179
420
  1709851
370
    18
100
AcDbVertex
100
AcDb2dVertex
 10
73.99152152013059
 20
-151.1790581219275
 30
0.0
  0
VERTEX
  5
226
330
224
100
AcDbEntity
  8
Ebene 1
 62
   179
420
  1709851
370
    18
100
AcDbVertex
100
AcDb2dVertex
 10
73.99152152013059
 20
-149.1898599887442
 30
0.0
  0
SEQEND
  5
227
330
224
100
AcDbEntity
  8
Ebene 1
370
    18
  0
POLYLINE
  5
228
330
174
100
AcDbEntity
  8
Ebene 1
 62
   179
420
  1709851
370
    18
100
AcDb2dPolyline
 66
     1
 10
0.0
 20
0.0
 30
0.0
  0
VERTEX
  5
229
330
228
100
AcDbEntity
  8
Ebene 1
 62
   179
420
  1709851
370
    18
100
AcDbVertex
100
AcDb2dVertex
 10
73.99152152013059
 20
-154.1852484423565
 30
0.0
  0
VERTEX
  5
22A
330
228
100
AcDbEntity
  8
Ebene 1
 62
   179
420
  1709851
370
    18
100
AcDbVertex
100
AcDb2dVertex
 10
73.99152152013059
 20
-152.1953612900762
 30
0.0
  0
SEQEND
  5
22B
330
228
100
AcDbEntity
  8
Ebene 1
370
    18
  0
POLYLINE
  5
22C
330
174
100
AcDbEntity
  8
Ebene 1
 62
   179
420
  1709851
370
    18
100
AcDb2dPolyline
 66
     1
 10
0.0
 20
0.0
 30
0.0
  0
VERTEX
  5
22D
330
22C
100
AcDbEntity
  8
Ebene 1
 62
   179
420
  1709851
370
    18
100
AcDbVertex
100
AcDb2dVertex
 10
73.99152152013059
 20
-157.1907497436884
 30
0.0
  0
VERTEX
  5
22E
330
22C
100
AcDbEntity
  8
Ebene 1
 62
   179
420
  1709851
370
    18
100
AcDbVertex
100
AcDb2dVertex
 10
73.99152152013059
 20
-155.1795029993996
 30
0.0
  0
SEQEND
  5
22F
330
22C
100
AcDbEntity
  8
Ebene 1
370
    18
  0
POLYLINE
  5
230
330
174
100
AcDbEntity
  8
Ebene 1
 62
   179
420
  1709851
370
    18
100
AcDb2dPolyline
 66
     1
 10
0.0
 20
0.0
 30
0.0
  0
VERTEX
  5
231
330
230
100
AcDbEntity
  8
Ebene 1
 62
   179
420
  1709851
370
    18
100
AcDbVertex
100
AcDb2dVertex
 10
73.99152152013059
 20
-160.1962510450204
 30
0.0
  0
VERTEX
  5
232
330
230
100
AcDbEntity
  8
Ebene 1
 62
   179
420
  1709851
370
    18
100
AcDbVertex
100
AcDb2dVertex
 10
73.99152152013059
 20
-158.1856933198286
 30
0.0
  0
SEQEND
  5
233
330
230
100
AcDbEntity
  8
Ebene 1
370
    18
  0
POLYLINE
  5
234
330
174
100
AcDbEntity
  8
Ebene 1
 62
   179
420
  1709851
370
    18
100
AcDb2dPolyline
 66
     1
 10
0.0
 20
0.0
 30
0.0
  0
VERTEX
  5
235
330
234
100
AcDbEntity
  8
Ebene 1
 62
   179
420
  1709851
370
    18
100
AcDbVertex
100
AcDb2dVertex
 10
73.99152152013059
 20
-163.1810817734408
 30
0.0
  0
VERTEX
  5
236
330
234
100
AcDbEntity
  8
Ebene 1
 62
   179
420
  1709851
370
    18
100
AcDbVertex
100
AcDb2dVertex
 10
73.99152152013059
 20
-161.1911946211605
 30
0.0
  0
SEQEND
  5
237
330
234
100
AcDbEntity
  8
Ebene 1
370
    18
  0
POLYLINE
  5
238
330
174
100
AcDbEntity
  8
Ebene 1
 62
   179
420
  1709851
370
    18
100
AcDb2dPolyline
 66
     1
 10
0.0
 20
0.0
 30
0.0
  0
VERTEX
  5
239
330
238
100
AcDbEntity
  8
Ebene 1
 62
   179
420
  1709851
370
    18
100
AcDbVertex
100
AcDb2dVertex
 10
73.99152152013059
 20
-165.0648599847755
 30
0.0
  0
VERTEX
  5
23A
330
238
100
AcDbEntity
  8
Ebene 1
 62
   179
420
  1709851
370
    18
100
AcDbVertex
100
AcDb2dVertex
 10
73.99152152013059
 20
-165.0648599847755
 30
0.0
  0
VERTEX
  5
23B
330
238
100
AcDbEntity
  8
Ebene 1
 62
   179
420
  1709851
370
    18
100
AcDbVertex
100
AcDb2dVertex
 10
73.99152152013059
 20
-164.1966959224925
 30
0.0
  0
SEQEND
  5
23C
330
238
100
AcDbEntity
  8
Ebene 1
370
    18
  0
POLYLINE
  5
23D
330
174
100
AcDbEntity
  8
Ebene 1
 62
   179
420
  1709851
370
    18
100
AcDb2dPolyline
 66
     1
 10
0.0
 20
0.0
 30
0.0
  0
VERTEX
  5
23E
330
23D
100
AcDbEntity
  8
Ebene 1
 62
   179
420
  1709851
370
    18
100
AcDbVertex
100
AcDb2dVertex
 10
73.99152152013059
 20
-64.20555553950418
 30
0.0
  0
VERTEX
  5
23F
330
23D
100
AcDbEntity
  8
Ebene 1
 62
   179
420
  1709851
370
    18
100
AcDbVertex
100
AcDb2dVertex
 10
73.99152152013059
 20
-62.46974417926104
 30
0.0
  0
SEQEND
  5
240
330
23D
100
AcDbEntity
  8
Ebene 1
370
    18
  0
POLYLINE
  5
241
330
174
100
AcDbEntity
  8
Ebene 1
 62
   179
420
  1709851
370
    18
100
AcDb2dPolyline
 66
     1
 10
0.0
 20
0.0
 30
0.0
  0
VERTEX
  5
242
330
241
100
AcDbEntity
  8
Ebene 1
 62
   179
420
  1709851
370
    18
100
AcDbVertex
100
AcDb2dVertex
 10
73.99152152013059
 20
-67.1900417583761
 30
0.0
  0
VERTEX
  5
243
330
241
100
AcDbEntity
  8
Ebene 1
 62
   179
420
  1709851
370
    18
100
AcDbVertex
100
AcDb2dVertex
 10
73.99152152013059
 20
-65.20032686087006
 30
0.0
  0
SEQEND
  5
244
330
241
100
AcDbEntity
  8
Ebene 1
370
    18
  0
POLYLINE
  5
245
330
174
100
AcDbEntity
  8
Ebene 1
 62
   179
420
  1709851
370
    18
100
AcDb2dPolyline
 66
     1
 10
0.0
 20
0.0
 30
0.0
  0
VERTEX
  5
246
330
245
100
AcDbEntity
  8
Ebene 1
 62
   179
420
  1709851
370
    18
100
AcDbVertex
100
AcDb2dVertex
 10
73.99152152013059
 20
-70.19571531448233
 30
0.0
  0
VERTEX
  5
247
330
245
100
AcDbEntity
  8
Ebene 1
 62
   179
420
  1709851
370
    18
100
AcDbVertex
100
AcDb2dVertex
 10
73.99152152013059
 20
-68.184813079742
 30
0.0
  0
SEQEND
  5
248
330
245
100
AcDbEntity
  8
Ebene 1
370
    18
  0
POLYLINE
  5
249
330
174
100
AcDbEntity
  8
Ebene 1
 62
   179
420
  1709851
370
    18
100
AcDb2dPolyline
 66
     1
 10
0.0
 20
0.0
 30
0.0
  0
VERTEX
  5
24A
330
249
100
AcDbEntity
  8
Ebene 1
 62
   179
420
  1709851
370
    18
100
AcDbVertex
100
AcDb2dVertex
 10
73.99152152013059
 20
-73.20138887058854
 30
0.0
  0
VERTEX
  5
24B
330
249
100
AcDbEntity
  8
Ebene 1
 62
   179
420
  1709851
370
    18
100
AcDbVertex
100
AcDb2dVertex
 10
73.99152152013059
 20
-71.19048663584822
 30
0.0
  0
SEQEND
  5
24C
330
249
100
AcDbEntity
  8
Ebene 1
370
    18
  0
POLYLINE
  5
24D
330
174
100
AcDbEntity
  8
Ebene 1
 62
   179
420
  1709851
370
    18
100
AcDb2dPolyline
 66
     1
 10
0.0
 20
0.0
 30
0.0
  0
VERTEX
  5
24E
330
24D
100
AcDbEntity
  8
Ebene 1
 62
   179
420
  1709851
370
    18
100
AcDbVertex
100
AcDb2dVertex
 10
73.99152152013059
 20
-76.18587508946048
 30
0.0
  0
VERTEX
  5
24F
330
24D
100
AcDbEntity
  8
Ebene 1
 62
   179
420
  1709851
370
    18
100
AcDbVertex
100
AcDb2dVertex
 10
73.99152152013059
 20
-74.19616019195443
 30
0.0
  0
SEQEND
  5
250
330
24D
100
AcDbEntity
  8
Ebene 1
370
    18
  0
POLYLINE
  5
251
330
174
100
AcDbEntity
  8
Ebene 1
 62
   179
420
  1709851
370
    18
100
AcDb2dPolyline
 66
     1
 10
0.0
 20
0.0
 30
0.0
  0
VERTEX
  5
252
330
251
100
AcDbEntity
  8
Ebene 1
 62
   179
420
  1709851
370
    18
100
AcDbVertex
100
AcDb2dVertex
 10
73.99152152013059
 20
-79.1915486455667
 30
0.0
  0
VERTEX
  5
253
330
251
100
AcDbEntity
  8
Ebene 1
 62
   179
420
  1709851
370
    18
100
AcDbVertex
100
AcDb2dVertex
 10
73.99152152013059
 20
-77.20183374806065
 30
0.0
  0
SEQEND
  5
254
330
251
100
AcDbEntity
  8
Ebene 1
370
    18
  0
POLYLINE
  5
255
330
174
100
AcDbEntity
  8
Ebene 1
 62
   179
420
  1709851
370
    18
100
AcDb2dPolyline
 66
     1
 10
0.0
 20
0.0
 30
0.0
  0
VERTEX
  5
256
330
255
100
AcDbEntity
  8
Ebene 1
 62
   179
420
  1709851
370
    18
100
AcDbVertex
100
AcDb2dVertex
 10
73.99152152013059
 20
-82.19704994689866
 30
0.0
  0
VERTEX
  5
257
330
255
100
AcDbEntity
  8
Ebene 1
 62
   179
420
  1709851
370
    18
100
AcDbVertex
100
AcDb2dVertex
 10
73.99152152013059
 20
-80.18631996693259
 30
0.0
  0
SEQEND
  5
258
330
255
100
AcDbEntity
  8
Ebene 1
370
    18
  0
POLYLINE
  5
259
330
174
100
AcDbEntity
  8
Ebene 1
 62
   179
420
  1709851
370
    18
100
AcDb2dPolyline
 66
     1
 10
0.0
 20
0.0
 30
0.0
  0
VERTEX
  5
25A
330
259
100
AcDbEntity
  8
Ebene 1
 62
   179
420
  1709851
370
    18
100
AcDbVertex
100
AcDb2dVertex
 10
73.99152152013059
 20
-85.20289575777915
 30
0.0
  0
VERTEX
  5
25B
330
259
100
AcDbEntity
  8
Ebene 1
 62
   179
420
  1709851
370
    18
100
AcDbVertex
100
AcDb2dVertex
 10
73.99152152013059
 20
-83.19199352303882
 30
0.0
  0
SEQEND
  5
25C
330
259
100
AcDbEntity
  8
Ebene 1
370
    18
  0
POLYLINE
  5
25D
330
174
100
AcDbEntity
  8
Ebene 1
 62
   179
420
  1709851
370
    18
100
AcDb2dPolyline
 66
     1
 10
0.0
 20
0.0
 30
0.0
  0
VERTEX
  5
25E
330
25D
100
AcDbEntity
  8
Ebene 1
 62
   179
420
  1709851
370
    18
100
AcDbVertex
100
AcDb2dVertex
 10
73.99152152013059
 20
-88.18738197665108
 30
0.0
  0
VERTEX
  5
25F
330
25D
100
AcDbEntity
  8
Ebene 1
 62
   179
420
  1709851
370
    18
100
AcDbVertex
100
AcDb2dVertex
 10
73.99152152013059
 20
-86.19749482437076
 30
0.0
  0
SEQEND
  5
260
330
25D
100
AcDbEntity
  8
Ebene 1
370
    18
  0
POLYLINE
  5
261
330
174
100
AcDbEntity
  8
Ebene 1
 62
   179
420
  1709851
370
    18
100
AcDb2dPolyline
 66
     1
 10
0.0
 20
0.0
 30
0.0
  0
VERTEX
  5
262
330
261
100
AcDbEntity
  8
Ebene 1
 62
   179
420
  1709851
370
    18
100
AcDbVertex
100
AcDb2dVertex
 10
73.99152152013059
 20
-91.19288327798303
 30
0.0
  0
VERTEX
  5
263
330
261
100
AcDbEntity
  8
Ebene 1
 62
   179
420
  1709851
370
    18
100
AcDbVertex
100
AcDb2dVertex
 10
73.99152152013059
 20
-89.20334063525125
 30
0.0
  0
SEQEND
  5
264
330
261
100
AcDbEntity
  8
Ebene 1
370
    18
  0
POLYLINE
  5
265
330
174
100
AcDbEntity
  8
Ebene 1
 62
   179
420
  1709851
370
    18
100
AcDb2dPolyline
 66
     1
 10
0.0
 20
0.0
 30
0.0
  0
VERTEX
  5
266
330
265
100
AcDbEntity
  8
Ebene 1
 62
   179
420
  1709851
370
    18
100
AcDbVertex
100
AcDb2dVertex
 10
73.99152152013059
 20
-94.19872908886352
 30
0.0
  0
VERTEX
  5
267
330
265
100
AcDbEntity
  8
Ebene 1
 62
   179
420
  1709851
370
    18
100
AcDbVertex
100
AcDb2dVertex
 10
73.99152152013059
 20
-92.18782685412319
 30
0.0
  0
SEQEND
  5
268
330
265
100
AcDbEntity
  8
Ebene 1
370
    18
  0
POLYLINE
  5
269
330
174
100
AcDbEntity
  8
Ebene 1
 62
   179
420
  1709851
370
    18
100
AcDb2dPolyline
 66
     1
 10
0.0
 20
0.0
 30
0.0
  0
VERTEX
  5
26A
330
269
100
AcDbEntity
  8
Ebene 1
 62
   179
420
  1709851
370
    18
100
AcDbVertex
100
AcDb2dVertex
 10
73.99152152013059
 20
-97.18321530773545
 30
0.0
  0
VERTEX
  5
26B
330
269
100
AcDbEntity
  8
Ebene 1
 62
   179
420
  1709851
370
    18
100
AcDbVertex
100
AcDb2dVertex
 10
73.99152152013059
 20
-95.19332815545515
 30
0.0
  0
SEQEND
  5
26C
330
269
100
AcDbEntity
  8
Ebene 1
370
    18
  0
POLYLINE
  5
26D
330
174
100
AcDbEntity
  8
Ebene 1
 62
   179
420
  1709851
370
    18
100
AcDb2dPolyline
 66
     1
 10
0.0
 20
0.0
 30
0.0
  0
VERTEX
  5
26E
330
26D
100
AcDbEntity
  8
Ebene 1
 62
   179
420
  1709851
370
    18
100
AcDbVertex
100
AcDb2dVertex
 10
73.99152152013059
 20
-100.1887166090674
 30
0.0
  0
VERTEX
  5
26F
330
26D
100
AcDbEntity
  8
Ebene 1
 62
   179
420
  1709851
370
    18
100
AcDbVertex
100
AcDb2dVertex
 10
73.99152152013059
 20
-98.19917396633562
 30
0.0
  0
SEQEND
  5
270
330
26D
100
AcDbEntity
  8
Ebene 1
370
    18
  0
POLYLINE
  5
271
330
174
100
AcDbEntity
  8
Ebene 1
 62
   179
420
  1709851
370
    18
100
AcDb2dPolyline
 66
     1
 10
0.0
 20
0.0
 30
0.0
  0
VERTEX
  5
272
330
271
100
AcDbEntity
  8
Ebene 1
 62
   179
420
  1709851
370
    18
100
AcDbVertex
100
AcDb2dVertex
 10
73.99152152013059
 20
-103.1945624199479
 30
0.0
  0
VERTEX
  5
273
330
271
100
AcDbEntity
  8
Ebene 1
 62
   179
420
  1709851
370
    18
100
AcDbVertex
100
AcDb2dVertex
 10
73.99152152013059
 20
-101.1836601852076
 30
0.0
  0
SEQEND
  5
274
330
271
100
AcDbEntity
  8
Ebene 1
370
    18
  0
POLYLINE
  5
275
330
174
100
AcDbEntity
  8
Ebene 1
 62
   179
420
  1709851
370
    18
100
AcDb2dPolyline
 66
     1
 10
0.0
 20
0.0
 30
0.0
  0
VERTEX
  5
276
330
275
100
AcDbEntity
  8
Ebene 1
 62
   179
420
  1709851
370
    18
100
AcDbVertex
100
AcDb2dVertex
 10
73.99152152013059
 20
-106.2000637212798
 30
0.0
  0
VERTEX
  5
277
330
275
100
AcDbEntity
  8
Ebene 1
 62
   179
420
  1709851
370
    18
100
AcDbVertex
100
AcDb2dVertex
 10
73.99152152013059
 20
-104.1891614865395
 30
0.0
  0
SEQEND
  5
278
330
275
100
AcDbEntity
  8
Ebene 1
370
    18
  0
POLYLINE
  5
279
330
174
100
AcDbEntity
  8
Ebene 1
 62
   179
420
  1709851
370
    18
100
AcDb2dPolyline
 66
     1
 10
0.0
 20
0.0
 30
0.0
  0
VERTEX
  5
27A
330
279
100
AcDbEntity
  8
Ebene 1
 62
   179
420
  1709851
370
    18
100
AcDbVertex
100
AcDb2dVertex
 10
73.99152152013059
 20
-109.1845499401518
 30
0.0
  0
VERTEX
  5
27B
330
279
100
AcDbEntity
  8
Ebene 1
 62
   179
420
  1709851
370
    18
100
AcDbVertex
100
AcDb2dVertex
 10
73.99152152013059
 20
-107.19500729742
 30
0.0
  0
SEQEND
  5
27C
330
279
100
AcDbEntity
  8
Ebene 1
370
    18
  0
POLYLINE
  5
27D
330
174
100
AcDbEntity
  8
Ebene 1
 62
   179
420
  1709851
370
    18
100
AcDb2dPolyline
 66
     1
 10
0.0
 20
0.0
 30
0.0
  0
VERTEX
  5
27E
330
27D
100
AcDbEntity
  8
Ebene 1
 62
   179
420
  1709851
370
    18
100
AcDbVertex
100
AcDb2dVertex
 10
73.99152152013059
 20
-112.1903957510323
 30
0.0
  0
VERTEX
  5
27F
330
27D
100
AcDbEntity
  8
Ebene 1
 62
   179
420
  1709851
370
    18
100
AcDbVertex
100
AcDb2dVertex
 10
73.99152152013059
 20
-110.200508598752
 30
0.0
  0
SEQEND
  5
280
330
27D
100
AcDbEntity
  8
Ebene 1
370
    18
  0
POLYLINE
  5
281
330
174
100
AcDbEntity
  8
Ebene 1
 62
   179
420
  1709851
370
    18
100
AcDb2dPolyline
 66
     1
 10
0.0
 20
0.0
 30
0.0
  0
VERTEX
  5
282
330
281
100
AcDbEntity
  8
Ebene 1
 62
   179
420
  1709851
370
    18
100
AcDbVertex
100
AcDb2dVertex
 10
73.99152152013059
 20
-115.1958970523642
 30
0.0
  0
VERTEX
  5
283
330
281
100
AcDbEntity
  8
Ebene 1
 62
   179
420
  1709851
370
    18
100
AcDbVertex
100
AcDb2dVertex
 10
73.99152152013059
 20
-113.1849948176239
 30
0.0
  0
SEQEND
  5
284
330
281
100
AcDbEntity
  8
Ebene 1
370
    18
  0
POLYLINE
  5
285
330
174
100
AcDbEntity
  8
Ebene 1
 62
   179
420
  1709851
370
    18
100
AcDb2dPolyline
 66
     1
 10
0.0
 20
0.0
 30
0.0
  0
VERTEX
  5
286
330
285
100
AcDbEntity
  8
Ebene 1
 62
   179
420
  1709851
370
    18
100
AcDbVertex
100
AcDb2dVertex
 10
73.99152152013059
 20
-118.1803832712362
 30
0.0
  0
VERTEX
  5
287
330
285
100
AcDbEntity
  8
Ebene 1
 62
   179
420
  1709851
370
    18
100
AcDbVertex
100
AcDb2dVertex
 10
73.99152152013059
 20
-116.1911851380529
 30
0.0
  0
SEQEND
  5
288
330
285
100
AcDbEntity
  8
Ebene 1
370
    18
  0
POLYLINE
  5
289
330
174
100
AcDbEntity
  8
Ebene 1
 62
   179
420
  1709851
370
    18
100
AcDb2dPolyline
 66
     1
 10
0.0
 20
0.0
 30
0.0
  0
VERTEX
  5
28A
330
289
100
AcDbEntity
  8
Ebene 1
 62
   179
420
  1709851
370
    18
100
AcDbVertex
100
AcDb2dVertex
 10
73.99152152013059
 20
-121.1862290821166
 30
0.0
  0
VERTEX
  5
28B
330
289
100
AcDbEntity
  8
Ebene 1
 62
   179
420
  1709851
370
    18
100
AcDbVertex
100
AcDb2dVertex
 10
73.99152152013059
 20
-119.1963419298363
 30
0.0
  0
SEQEND
  5
28C
330
289
100
AcDbEntity
  8
Ebene 1
370
    18
  0
POLYLINE
  5
28D
330
174
100
AcDbEntity
  8
Ebene 1
 62
   179
420
  1709851
370
    18
100
AcDb2dPolyline
 66
     1
 10
0.0
 20
0.0
 30
0.0
  0
VERTEX
  5
28E
330
28D
100
AcDbEntity
  8
Ebene 1
 62
   179
420
  1709851
370
    18
100
AcDbVertex
100
AcDb2dVertex
 10
73.99152152013059
 20
-124.1917303834486
 30
0.0
  0
VERTEX
  5
28F
330
28D
100
AcDbEntity
  8
Ebene 1
 62
   179
420
  1709851
370
    18
100
AcDbVertex
100
AcDb2dVertex
 10
73.99152152013059
 20
-122.1808281487083
 30
0.0
  0
SEQEND
  5
290
330
28D
100
AcDbEntity
  8
Ebene 1
370
    18
  0
POLYLINE
  5
291
330
174
100
AcDbEntity
  8
Ebene 1
 62
   179
420
  1709851
370
    18
100
AcDb2dPolyline
 66
     1
 10
0.0
 20
0.0
 30
0.0
  0
VERTEX
  5
292
330
291
100
AcDbEntity
  8
Ebene 1
 62
   179
420
  1709851
370
    18
100
AcDbVertex
100
AcDb2dVertex
 10
73.99152152013059
 20
-127.1975761943291
 30
0.0
  0
VERTEX
  5
293
330
291
100
AcDbEntity
  8
Ebene 1
 62
   179
420
  1709851
370
    18
100
AcDbVertex
100
AcDb2dVertex
 10
73.99152152013059
 20
-125.1866739595888
 30
0.0
  0
SEQEND
  5
294
330
291
100
AcDbEntity
  8
Ebene 1
370
    18
  0
POLYLINE
  5
295
330
174
100
AcDbEntity
  8
Ebene 1
 62
   179
420
  1709851
370
    18
100
AcDb2dPolyline
 66
     1
 10
0.0
 20
0.0
 30
0.0
  0
VERTEX
  5
296
330
295
100
AcDbEntity
  8
Ebene 1
 62
   179
420
  1709851
370
    18
100
AcDbVertex
100
AcDb2dVertex
 10
73.99152152013059
 20
-130.182062413201
 30
0.0
  0
VERTEX
  5
297
330
295
100
AcDbEntity
  8
Ebene 1
 62
   179
420
  1709851
370
    18
100
AcDbVertex
100
AcDb2dVertex
 10
73.99152152013059
 20
-128.1921752609207
 30
0.0
  0
SEQEND
  5
298
330
295
100
AcDbEntity
  8
Ebene 1
370
    18
  0
POLYLINE
  5
299
330
174
100
AcDbEntity
  8
Ebene 1
 62
   179
420
  1709851
370
    18
100
AcDb2dPolyline
 66
     1
 10
0.0
 20
0.0
 30
0.0
  0
VERTEX
  5
29A
330
299
100
AcDbEntity
  8
Ebene 1
 62
   179
420
  1709851
370
    18
100
AcDbVertex
100
AcDb2dVertex
 10
73.99152152013059
 20
-133.187563714533
 30
0.0
  0
VERTEX
  5
29B
330
299
100
AcDbEntity
  8
Ebene 1
 62
   179
420
  1709851
370
    18
100
AcDbVertex
100
AcDb2dVertex
 10
73.99152152013059
 20
-131.1980210718012
 30
0.0
  0
SEQEND
  5
29C
330
299
100
AcDbEntity
  8
Ebene 1
370
    18
  0
POLYLINE
  5
29D
330
174
100
AcDbEntity
  8
Ebene 1
 62
   179
420
  1709851
370
    18
100
AcDb2dPolyline
 66
     1
 10
0.0
 20
0.0
 30
0.0
  0
VERTEX
  5
29E
330
29D
100
AcDbEntity
  8
Ebene 1
 62
   179
420
  1709851
370
    18
100
AcDbVertex
100
AcDb2dVertex
 10
71.49382729332446
 20
-89.07621661184554
 30
0.0
  0
VERTEX
  5
29F
330
29D
100
AcDbEntity
  8
Ebene 1
 62
   179
420
  1709851
370
    18
100
AcDbVertex
100
AcDb2dVertex
 10
71.49382729332446
 20
-62.46974417926104
 30
0.0
  0
SEQEND
  5
2A0
330
29D
100
AcDbEntity
  8
Ebene 1
370
    18
  0
POLYLINE
  5
2A1
330
174
100
AcDbEntity
  8
Ebene 1
 62
   179
420
  1709851
370
    18
100
AcDb2dPolyline
 66
     1
 10
0.0
 20
0.0
 30
0.0
  0
VERTEX
  5
2A2
330
2A1
100
AcDbEntity
  8
Ebene 1
 62
   179
420
  1709851
370
    18
100
AcDbVertex
100
AcDb2dVertex
 10
71.49382729332446
 20
-110.6028957514291
 30
0.0
  0
VERTEX
  5
2A3
330
2A1
100
AcDbEntity
  8
Ebene 1
 62
   179
420
  1709851
370
    18
100
AcDbVertex
100
AcDb2dVertex
 10
71.49382729332446
 20
-105.0783406312825
 30
0.0
  0
SEQEND
  5
2A4
330
2A1
100
AcDbEntity
  8
Ebene 1
370
    18
  0
POLYLINE
  5
2A5
330
174
100
AcDbEntity
  8
Ebene 1
 62
   179
420
  1709851
370
    18
100
AcDb2dPolyline
 66
     1
 10
0.0
 20
0.0
 30
0.0
  0
VERTEX
  5
2A6
330
2A5
100
AcDbEntity
  8
Ebene 1
 62
   179
420
  1709851
370
    18
100
AcDbVertex
100
AcDb2dVertex
 10
85.90827905838404
 20
-91.19288327798303
 30
0.0
  0
VERTEX
  5
2A7
330
2A5
100
AcDbEntity
  8
Ebene 1
 62
   179
420
  1709851
370
    18
100
AcDbVertex
100
AcDb2dVertex
 10
85.90827905838404
 20
-89.20334063525125
 30
0.0
  0
SEQEND
  5
2A8
330
2A5
100
AcDbEntity
  8
Ebene 1
370
    18
  0
POLYLINE
  5
2A9
330
174
100
AcDbEntity
  8
Ebene 1
 62
   179
420
  1709851
370
    18
100
AcDb2dPolyline
 66
     1
 10
0.0
 20
0.0
 30
0.0
  0
VERTEX
  5
2AA
330
2A9
100
AcDbEntity
  8
Ebene 1
 62
   179
420
  1709851
370
    18
100
AcDbVertex
100
AcDb2dVertex
 10
85.90827905838404
 20
-94.19872908886352
 30
0.0
  0
VERTEX
  5
2AB
330
2A9
100
AcDbEntity
  8
Ebene 1
 62
   179
420
  1709851
370
    18
100
AcDbVertex
100
AcDb2dVertex
 10
85.90827905838404
 20
-92.18782685412319
 30
0.0
  0
SEQEND
  5
2AC
330
2A9
100
AcDbEntity
  8
Ebene 1
370
    18
  0
POLYLINE
  5
2AD
330
174
100
AcDbEntity
  8
Ebene 1
 62
   179
420
  1709851
370
    18
100
AcDb2dPolyline
 66
     1
 10
0.0
 20
0.0
 30
0.0
  0
VERTEX
  5
2AE
330
2AD
100
AcDbEntity
  8
Ebene 1
 62
   179
420
  1709851
370
    18
100
AcDbVertex
100
AcDb2dVertex
 10
85.90827905838404
 20
-97.18321530773545
 30
0.0
  0
VERTEX
  5
2AF
330
2AD
100
AcDbEntity
  8
Ebene 1
 62
   179
420
  1709851
370
    18
100
AcDbVertex
100
AcDb2dVertex
 10
85.90827905838404
 20
-95.19332815545515
 30
0.0
  0
SEQEND
  5
2B0
330
2AD
100
AcDbEntity
  8
Ebene 1
370
    18
  0
POLYLINE
  5
2B1
330
174
100
AcDbEntity
  8
Ebene 1
 62
   179
420
  1709851
370
    18
100
AcDb2dPolyline
 66
     1
 10
0.0
 20
0.0
 30
0.0
  0
VERTEX
  5
2B2
330
2B1
100
AcDbEntity
  8
Ebene 1
 62
   179
420
  1709851
370
    18
100
AcDbVertex
100
AcDb2dVertex
 10
85.90827905838404
 20
-100.1887166090674
 30
0.0
  0
VERTEX
  5
2B3
330
2B1
100
AcDbEntity
  8
Ebene 1
 62
   179
420
  1709851
370
    18
100
AcDbVertex
100
AcDb2dVertex
 10
85.90827905838404
 20
-98.19951847588415
 30
0.0
  0
SEQEND
  5
2B4
330
2B1
100
AcDbEntity
  8
Ebene 1
370
    18
  0
POLYLINE
  5
2B5
330
174
100
AcDbEntity
  8
Ebene 1
 62
   179
420
  1709851
370
    18
100
AcDb2dPolyline
 66
     1
 10
0.0
 20
0.0
 30
0.0
  0
VERTEX
  5
2B6
330
2B5
100
AcDbEntity
  8
Ebene 1
 62
   179
420
  1709851
370
    18
100
AcDbVertex
100
AcDb2dVertex
 10
85.90827905838404
 20
-103.1945624199479
 30
0.0
  0
VERTEX
  5
2B7
330
2B5
100
AcDbEntity
  8
Ebene 1
 62
   179
420
  1709851
370
    18
100
AcDbVertex
100
AcDb2dVertex
 10
85.90827905838404
 20
-101.1836601852076
 30
0.0
  0
SEQEND
  5
2B8
330
2B5
100
AcDbEntity
  8
Ebene 1
370
    18
  0
POLYLINE
  5
2B9
330
174
100
AcDbEntity
  8
Ebene 1
 62
   179
420
  1709851
370
    18
100
AcDb2dPolyline
 66
     1
 10
0.0
 20
0.0
 30
0.0
  0
VERTEX
  5
2BA
330
2B9
100
AcDbEntity
  8
Ebene 1
 62
   179
420
  1709851
370
    18
100
AcDbVertex
100
AcDb2dVertex
 10
85.90827905838404
 20
-105.078685140831
 30
0.0
  0
VERTEX
  5
2BB
330
2B9
100
AcDbEntity
  8
Ebene 1
 62
   179
420
  1709851
370
    18
100
AcDbVertex
100
AcDb2dVertex
 10
85.90827905838404
 20
-105.078685140831
 30
0.0
  0
VERTEX
  5
2BC
330
2B9
100
AcDbEntity
  8
Ebene 1
 62
   179
420
  1709851
370
    18
100
AcDbVertex
100
AcDb2dVertex
 10
85.90827905838404
 20
-104.1891614865395
 30
0.0
  0
SEQEND
  5
2BD
330
2B9
100
AcDbEntity
  8
Ebene 1
370
    18
  0
POLYLINE
  5
2BE
330
174
100
AcDbEntity
  8
Ebene 1
 62
   179
420
  1709851
370
    18
100
AcDb2dPolyline
 66
     1
 10
0.0
 20
0.0
 30
0.0
  0
VERTEX
  5
2BF
330
2BE
100
AcDbEntity
  8
Ebene 1
 62
   179
420
  1709851
370
    18
100
AcDbVertex
100
AcDb2dVertex
 10
73.99152152013059
 20
-199.1850856706899
 30
0.0
  0
VERTEX
  5
2C0
330
2BE
100
AcDbEntity
  8
Ebene 1
 62
   179
420
  1709851
370
    18
100
AcDbVertex
100
AcDb2dVertex
 10
73.99152152013059
 20
-197.1745279454981
 30
0.0
  0
SEQEND
  5
2C1
330
2BE
100
AcDbEntity
  8
Ebene 1
370
    18
  0
POLYLINE
  5
2C2
330
174
100
AcDbEntity
  8
Ebene 1
 62
   179
420
  1709851
370
    18
100
AcDb2dPolyline
 66
     1
 10
0.0
 20
0.0
 30
0.0
  0
VERTEX
  5
2C3
330
2C2
100
AcDbEntity
  8
Ebene 1
 62
   179
420
  1709851
370
    18
100
AcDbVertex
100
AcDb2dVertex
 10
73.99152152013059
 20
-202.1912759911189
 30
0.0
  0
VERTEX
  5
2C4
330
2C2
100
AcDbEntity
  8
Ebene 1
 62
   179
420
  1709851
370
    18
100
AcDbVertex
100
AcDb2dVertex
 10
73.99152152013059
 20
-200.1807182659271
 30
0.0
  0
SEQEND
  5
2C5
330
2C2
100
AcDbEntity
  8
Ebene 1
370
    18
  0
POLYLINE
  5
2C6
330
174
100
AcDbEntity
  8
Ebene 1
 62
   179
420
  1709851
370
    18
100
AcDb2dPolyline
 66
     1
 10
0.0
 20
0.0
 30
0.0
  0
VERTEX
  5
2C7
330
2C6
100
AcDbEntity
  8
Ebene 1
 62
   179
420
  1709851
370
    18
100
AcDbVertex
100
AcDb2dVertex
 10
73.99152152013059
 20
-205.1761067195393
 30
0.0
  0
VERTEX
  5
2C8
330
2C6
100
AcDbEntity
  8
Ebene 1
 62
   179
420
  1709851
370
    18
100
AcDbVertex
100
AcDb2dVertex
 10
73.99152152013059
 20
-203.1855305481619
 30
0.0
  0
SEQEND
  5
2C9
330
2C6
100
AcDbEntity
  8
Ebene 1
370
    18
  0
POLYLINE
  5
2CA
330
174
100
AcDbEntity
  8
Ebene 1
 62
   179
420
  1709851
370
    18
100
AcDb2dPolyline
 66
     1
 10
0.0
 20
0.0
 30
0.0
  0
VERTEX
  5
2CB
330
2CA
100
AcDbEntity
  8
Ebene 1
 62
   179
420
  1709851
370
    18
100
AcDbVertex
100
AcDb2dVertex
 10
73.99152152013059
 20
-208.1809190017742
 30
0.0
  0
VERTEX
  5
2CC
330
2CA
100
AcDbEntity
  8
Ebene 1
 62
   179
420
  1709851
370
    18
100
AcDbVertex
100
AcDb2dVertex
 10
73.99152152013059
 20
-206.191720868591
 30
0.0
  0
SEQEND
  5
2CD
330
2CA
100
AcDbEntity
  8
Ebene 1
370
    18
  0
POLYLINE
  5
2CE
330
174
100
AcDbEntity
  8
Ebene 1
 62
   179
420
  1709851
370
    18
100
AcDb2dPolyline
 66
     1
 10
0.0
 20
0.0
 30
0.0
  0
VERTEX
  5
2CF
330
2CE
100
AcDbEntity
  8
Ebene 1
 62
   179
420
  1709851
370
    18
100
AcDbVertex
100
AcDb2dVertex
 10
73.99152152013059
 20
-211.1871093222032
 30
0.0
  0
VERTEX
  5
2D0
330
2CE
100
AcDbEntity
  8
Ebene 1
 62
   179
420
  1709851
370
    18
100
AcDbVertex
100
AcDb2dVertex
 10
73.99152152013059
 20
-209.1765515970114
 30
0.0
  0
SEQEND
  5
2D1
330
2CE
100
AcDbEntity
  8
Ebene 1
370
    18
  0
POLYLINE
  5
2D2
330
174
100
AcDbEntity
  8
Ebene 1
 62
   179
420
  1709851
370
    18
100
AcDb2dPolyline
 66
     1
 10
0.0
 20
0.0
 30
0.0
  0
VERTEX
  5
2D3
330
2D2
100
AcDbEntity
  8
Ebene 1
 62
   179
420
  1709851
370
    18
100
AcDbVertex
100
AcDb2dVertex
 10
73.99152152013059
 20
-214.1926106235352
 30
0.0
  0
VERTEX
  5
2D4
330
2D2
100
AcDbEntity
  8
Ebene 1
 62
   179
420
  1709851
370
    18
100
AcDbVertex
100
AcDb2dVertex
 10
73.99152152013059
 20
-212.1813638792463
 30
0.0
  0
SEQEND
  5
2D5
330
2D2
100
AcDbEntity
  8
Ebene 1
370
    18
  0
POLYLINE
  5
2D6
330
174
100
AcDbEntity
  8
Ebene 1
 62
   179
420
  1709851
370
    18
100
AcDb2dPolyline
 66
     1
 10
0.0
 20
0.0
 30
0.0
  0
VERTEX
  5
2D7
330
2D6
100
AcDbEntity
  8
Ebene 1
 62
   179
420
  1709851
370
    18
100
AcDbVertex
100
AcDb2dVertex
 10
73.99152152013059
 20
-217.1767523328586
 30
0.0
  0
VERTEX
  5
2D8
330
2D6
100
AcDbEntity
  8
Ebene 1
 62
   179
420
  1709851
370
    18
100
AcDbVertex
100
AcDb2dVertex
 10
73.99152152013059
 20
-215.1875541996753
 30
0.0
  0
SEQEND
  5
2D9
330
2D6
100
AcDbEntity
  8
Ebene 1
370
    18
  0
POLYLINE
  5
2DA
330
174
100
AcDbEntity
  8
Ebene 1
 62
   179
420
  1709851
370
    18
100
AcDb2dPolyline
 66
     1
 10
0.0
 20
0.0
 30
0.0
  0
VERTEX
  5
2DB
330
2DA
100
AcDbEntity
  8
Ebene 1
 62
   179
420
  1709851
370
    18
100
AcDbVertex
100
AcDb2dVertex
 10
73.99152152013059
 20
-220.1829426532876
 30
0.0
  0
VERTEX
  5
2DC
330
2DA
100
AcDbEntity
  8
Ebene 1
 62
   179
420
  1709851
370
    18
100
AcDbVertex
100
AcDb2dVertex
 10
73.99152152013059
 20
-218.1723849280958
 30
0.0
  0
SEQEND
  5
2DD
330
2DA
100
AcDbEntity
  8
Ebene 1
370
    18
  0
POLYLINE
  5
2DE
330
174
100
AcDbEntity
  8
Ebene 1
 62
   179
420
  1709851
370
    18
100
AcDb2dPolyline
 66
     1
 10
0.0
 20
0.0
 30
0.0
  0
VERTEX
  5
2DF
330
2DE
100
AcDbEntity
  8
Ebene 1
 62
   179
420
  1709851
370
    18
100
AcDbVertex
100
AcDb2dVertex
 10
73.99152152013059
 20
-223.1884439546196
 30
0.0
  0
VERTEX
  5
2E0
330
2DE
100
AcDbEntity
  8
Ebene 1
 62
   179
420
  1709851
370
    18
100
AcDbVertex
100
AcDb2dVertex
 10
73.99152152013059
 20
-221.1771972103307
 30
0.0
  0
SEQEND
  5
2E1
330
2DE
100
AcDbEntity
  8
Ebene 1
370
    18
  0
POLYLINE
  5
2E2
330
174
100
AcDbEntity
  8
Ebene 1
 62
   179
420
  1709851
370
    18
100
AcDb2dPolyline
 66
     1
 10
0.0
 20
0.0
 30
0.0
  0
VERTEX
  5
2E3
330
2E2
100
AcDbEntity
  8
Ebene 1
 62
   179
420
  1709851
370
    18
100
AcDbVertex
100
AcDb2dVertex
 10
73.99152152013059
 20
-226.172585663943
 30
0.0
  0
VERTEX
  5
2E4
330
2E2
100
AcDbEntity
  8
Ebene 1
 62
   179
420
  1709851
370
    18
100
AcDbVertex
100
AcDb2dVertex
 10
73.99152152013059
 20
-224.1833875307597
 30
0.0
  0
SEQEND
  5
2E5
330
2E2
100
AcDbEntity
  8
Ebene 1
370
    18
  0
POLYLINE
  5
2E6
330
174
100
AcDbEntity
  8
Ebene 1
 62
   179
420
  1709851
370
    18
100
AcDb2dPolyline
 66
     1
 10
0.0
 20
0.0
 30
0.0
  0
VERTEX
  5
2E7
330
2E6
100
AcDbEntity
  8
Ebene 1
 62
   179
420
  1709851
370
    18
100
AcDbVertex
100
AcDb2dVertex
 10
73.99152152013059
 20
-229.178775984372
 30
0.0
  0
VERTEX
  5
2E8
330
2E6
100
AcDbEntity
  8
Ebene 1
 62
   179
420
  1709851
370
    18
100
AcDbVertex
100
AcDb2dVertex
 10
73.99152152013059
 20
-227.1888888320917
 30
0.0
  0
SEQEND
  5
2E9
330
2E6
100
AcDbEntity
  8
Ebene 1
370
    18
  0
POLYLINE
  5
2EA
330
174
100
AcDbEntity
  8
Ebene 1
 62
   179
420
  1709851
370
    18
100
AcDb2dPolyline
 66
     1
 10
0.0
 20
0.0
 30
0.0
  0
VERTEX
  5
2EB
330
2EA
100
AcDbEntity
  8
Ebene 1
 62
   179
420
  1709851
370
    18
100
AcDbVertex
100
AcDb2dVertex
 10
71.49382729332446
 20
-229.7286132238179
 30
0.0
  0
VERTEX
  5
2EC
330
2EA
100
AcDbEntity
  8
Ebene 1
 62
   179
420
  1709851
370
    18
100
AcDbVertex
100
AcDb2dVertex
 10
71.49382729332446
 20
-197.0684190045523
 30
0.0
  0
SEQEND
  5
2ED
330
2EA
100
AcDbEntity
  8
Ebene 1
370
    18
  0
POLYLINE
  5
2EE
330
174
100
AcDbEntity
  8
Ebene 1
 62
   179
420
  1709851
370
    18
100
AcDb2dPolyline
 66
     1
 10
0.0
 20
0.0
 30
0.0
  0
VERTEX
  5
2EF
330
2EE
100
AcDbEntity
  8
Ebene 1
 62
   179
420
  1709851
370
    18
100
AcDbVertex
100
AcDb2dVertex
 10
85.90827905838404
 20
-166.1865830747728
 30
0.0
  0
VERTEX
  5
2F0
330
2EE
100
AcDbEntity
  8
Ebene 1
 62
   179
420
  1709851
370
    18
100
AcDbVertex
100
AcDb2dVertex
 10
85.90827905838404
 20
-165.0648599847755
 30
0.0
  0
SEQEND
  5
2F1
330
2EE
100
AcDbEntity
  8
Ebene 1
370
    18
  0
POLYLINE
  5
2F2
330
174
100
AcDbEntity
  8
Ebene 1
 62
   179
420
  1709851
370
    18
100
AcDb2dPolyline
 66
     1
 10
0.0
 20
0.0
 30
0.0
  0
VERTEX
  5
2F3
330
2F2
100
AcDbEntity
  8
Ebene 1
 62
   179
420
  1709851
370
    18
100
AcDbVertex
100
AcDb2dVertex
 10
85.90827905838404
 20
-169.1927733952018
 30
0.0
  0
VERTEX
  5
2F4
330
2F2
100
AcDbEntity
  8
Ebene 1
 62
   179
420
  1709851
370
    18
100
AcDbVertex
100
AcDb2dVertex
 10
85.90827905838404
 20
-167.181526650913
 30
0.0
  0
SEQEND
  5
2F5
330
2F2
100
AcDbEntity
  8
Ebene 1
370
    18
  0
POLYLINE
  5
2F6
330
174
100
AcDbEntity
  8
Ebene 1
 62
   179
420
  1709851
370
    18
100
AcDb2dPolyline
 66
     1
 10
0.0
 20
0.0
 30
0.0
  0
VERTEX
  5
2F7
330
2F6
100
AcDbEntity
  8
Ebene 1
 62
   179
420
  1709851
370
    18
100
AcDbVertex
100
AcDb2dVertex
 10
85.90827905838404
 20
-172.1769151045252
 30
0.0
  0
VERTEX
  5
2F8
330
2F6
100
AcDbEntity
  8
Ebene 1
 62
   179
420
  1709851
370
    18
100
AcDbVertex
100
AcDb2dVertex
 10
85.90827905838404
 20
-170.1870279522449
 30
0.0
  0
SEQEND
  5
2F9
330
2F6
100
AcDbEntity
  8
Ebene 1
370
    18
  0
POLYLINE
  5
2FA
330
174
100
AcDbEntity
  8
Ebene 1
 62
   179
420
  1709851
370
    18
100
AcDb2dPolyline
 66
     1
 10
0.0
 20
0.0
 30
0.0
  0
VERTEX
  5
2FB
330
2FA
100
AcDbEntity
  8
Ebene 1
 62
   179
420
  1709851
370
    18
100
AcDbVertex
100
AcDb2dVertex
 10
85.90827905838404
 20
-175.1824164058572
 30
0.0
  0
VERTEX
  5
2FC
330
2FA
100
AcDbEntity
  8
Ebene 1
 62
   179
420
  1709851
370
    18
100
AcDbVertex
100
AcDb2dVertex
 10
85.90827905838404
 20
-173.1932182726739
 30
0.0
  0
SEQEND
  5
2FD
330
2FA
100
AcDbEntity
  8
Ebene 1
370
    18
  0
POLYLINE
  5
2FE
330
174
100
AcDbEntity
  8
Ebene 1
 62
   179
420
  1709851
370
    18
100
AcDb2dPolyline
 66
     1
 10
0.0
 20
0.0
 30
0.0
  0
VERTEX
  5
2FF
330
2FE
100
AcDbEntity
  8
Ebene 1
 62
   179
420
  1709851
370
    18
100
AcDbVertex
100
AcDb2dVertex
 10
85.90827905838404
 20
-178.1886067262862
 30
0.0
  0
VERTEX
  5
300
330
2FE
100
AcDbEntity
  8
Ebene 1
 62
   179
420
  1709851
370
    18
100
AcDbVertex
100
AcDb2dVertex
 10
85.90827905838404
 20
-176.1773599819973
 30
0.0
  0
SEQEND
  5
301
330
2FE
100
AcDbEntity
  8
Ebene 1
370
    18
  0
POLYLINE
  5
302
330
174
100
AcDbEntity
  8
Ebene 1
 62
   179
420
  1709851
370
    18
100
AcDb2dPolyline
 66
     1
 10
0.0
 20
0.0
 30
0.0
  0
VERTEX
  5
303
330
302
100
AcDbEntity
  8
Ebene 1
 62
   179
420
  1709851
370
    18
100
AcDbVertex
100
AcDb2dVertex
 10
85.90827905838404
 20
-181.1934190085211
 30
0.0
  0
VERTEX
  5
304
330
302
100
AcDbEntity
  8
Ebene 1
 62
   179
420
  1709851
370
    18
100
AcDbVertex
100
AcDb2dVertex
 10
85.90827905838404
 20
-179.1828612833293
 30
0.0
  0
SEQEND
  5
305
330
302
100
AcDbEntity
  8
Ebene 1
370
    18
  0
POLYLINE
  5
306
330
174
100
AcDbEntity
  8
Ebene 1
 62
   179
420
  1709851
370
    18
100
AcDb2dPolyline
 66
     1
 10
0.0
 20
0.0
 30
0.0
  0
VERTEX
  5
307
330
306
100
AcDbEntity
  8
Ebene 1
 62
   179
420
  1709851
370
    18
100
AcDbVertex
100
AcDb2dVertex
 10
85.90827905838404
 20
-184.1782497369416
 30
0.0
  0
VERTEX
  5
308
330
306
100
AcDbEntity
  8
Ebene 1
 62
   179
420
  1709851
370
    18
100
AcDbVertex
100
AcDb2dVertex
 10
85.90827905838404
 20
-182.1890516037583
 30
0.0
  0
SEQEND
  5
309
330
306
100
AcDbEntity
  8
Ebene 1
370
    18
  0
POLYLINE
  5
30A
330
174
100
AcDbEntity
  8
Ebene 1
 62
   179
420
  1709851
370
    18
100
AcDb2dPolyline
 66
     1
 10
0.0
 20
0.0
 30
0.0
  0
VERTEX
  5
30B
330
30A
100
AcDbEntity
  8
Ebene 1
 62
   179
420
  1709851
370
    18
100
AcDbVertex
100
AcDb2dVertex
 10
85.90827905838404
 20
-187.1837510382735
 30
0.0
  0
VERTEX
  5
30C
330
30A
100
AcDbEntity
  8
Ebene 1
 62
   179
420
  1709851
370
    18
100
AcDbVertex
100
AcDb2dVertex
 10
85.90827905838404
 20
-185.1938638859932
 30
0.0
  0
SEQEND
  5
30D
330
30A
100
AcDbEntity
  8
Ebene 1
370
    18
  0
POLYLINE
  5
30E
330
174
100
AcDbEntity
  8
Ebene 1
 62
   179
420
  1709851
370
    18
100
AcDb2dPolyline
 66
     1
 10
0.0
 20
0.0
 30
0.0
  0
VERTEX
  5
30F
330
30E
100
AcDbEntity
  8
Ebene 1
 62
   179
420
  1709851
370
    18
100
AcDbVertex
100
AcDb2dVertex
 10
85.90827905838404
 20
-190.1892523396055
 30
0.0
  0
VERTEX
  5
310
330
30E
100
AcDbEntity
  8
Ebene 1
 62
   179
420
  1709851
370
    18
100
AcDbVertex
100
AcDb2dVertex
 10
85.90827905838404
 20
-188.1786946144137
 30
0.0
  0
SEQEND
  5
311
330
30E
100
AcDbEntity
  8
Ebene 1
370
    18
  0
POLYLINE
  5
312
330
174
100
AcDbEntity
  8
Ebene 1
 62
   179
420
  1709851
370
    18
100
AcDb2dPolyline
 66
     1
 10
0.0
 20
0.0
 30
0.0
  0
VERTEX
  5
313
330
312
100
AcDbEntity
  8
Ebene 1
 62
   179
420
  1709851
370
    18
100
AcDbVertex
100
AcDb2dVertex
 10
85.90827905838404
 20
-193.1740830680259
 30
0.0
  0
VERTEX
  5
314
330
312
100
AcDbEntity
  8
Ebene 1
 62
   179
420
  1709851
370
    18
100
AcDbVertex
100
AcDb2dVertex
 10
85.90827905838404
 20
-191.1848849348427
 30
0.0
  0
SEQEND
  5
315
330
312
100
AcDbEntity
  8
Ebene 1
370
    18
  0
POLYLINE
  5
316
330
174
100
AcDbEntity
  8
Ebene 1
 62
   179
420
  1709851
370
    18
100
AcDb2dPolyline
 66
     1
 10
0.0
 20
0.0
 30
0.0
  0
VERTEX
  5
317
330
316
100
AcDbEntity
  8
Ebene 1
 62
   179
420
  1709851
370
    18
100
AcDbVertex
100
AcDb2dVertex
 10
85.90827905838404
 20
-196.1795843693579
 30
0.0
  0
VERTEX
  5
318
330
316
100
AcDbEntity
  8
Ebene 1
 62
   179
420
  1709851
370
    18
100
AcDbVertex
100
AcDb2dVertex
 10
85.90827905838404
 20
-194.1896972170776
 30
0.0
  0
SEQEND
  5
319
330
316
100
AcDbEntity
  8
Ebene 1
370
    18
  0
POLYLINE
  5
31A
330
174
100
AcDbEntity
  8
Ebene 1
 62
   179
420
  1709851
370
    18
100
AcDb2dPolyline
 66
     1
 10
0.0
 20
0.0
 30
0.0
  0
VERTEX
  5
31B
330
31A
100
AcDbEntity
  8
Ebene 1
 62
   179
420
  1709851
370
    18
100
AcDbVertex
100
AcDb2dVertex
 10
70.60482040335575
 20
-170.6741644538592
 30
0.0
  0
VERTEX
  5
31C
330
31A
100
AcDbEntity
  8
Ebene 1
 62
   179
420
  1709851
370
    18
100
AcDbVertex
100
AcDb2dVertex
 10
70.60482040335575
 20
-174.6746093313314
 30
0.0
  0
SEQEND
  5
31D
330
31A
100
AcDbEntity
  8
Ebene 1
370
    18
  0
POLYLINE
  5
31E
330
174
100
AcDbEntity
  8
Ebene 1
 62
   179
420
  1709851
370
    18
100
AcDb2dPolyline
 66
     1
 10
0.0
 20
0.0
 30
0.0
  0
VERTEX
  5
31F
330
31E
100
AcDbEntity
  8
Ebene 1
 62
   179
420
  1709851
370
    18
100
AcDbVertex
100
AcDb2dVertex
 10
71.59959172472163
 20
-174.6746093313314
 30
0.0
  0
VERTEX
  5
320
330
31E
100
AcDbEntity
  8
Ebene 1
 62
   179
420
  1709851
370
    18
100
AcDbVertex
100
AcDb2dVertex
 10
71.59959172472163
 20
-170.6741644538592
 30
0.0
  0
SEQEND
  5
321
330
31E
100
AcDbEntity
  8
Ebene 1
370
    18
  0
POLYLINE
  5
322
330
174
100
AcDbEntity
  8
Ebene 1
 62
   179
420
  1709851
370
    18
100
AcDb2dPolyline
 66
     1
 10
0.0
 20
0.0
 30
0.0
  0
VERTEX
  5
323
330
322
100
AcDbEntity
  8
Ebene 1
 62
   179
420
  1709851
370
    18
100
AcDbVertex
100
AcDb2dVertex
 10
71.59959172472163
 20
-179.0767523423836
 30
0.0
  0
VERTEX
  5
324
330
322
100
AcDbEntity
  8
Ebene 1
 62
   179
420
  1709851
370
    18
100
AcDbVertex
100
AcDb2dVertex
 10
71.59959172472163
 20
-183.0771972198557
 30
0.0
  0
SEQEND
  5
325
330
322
100
AcDbEntity
  8
Ebene 1
370
    18
  0
POLYLINE
  5
326
330
174
100
AcDbEntity
  8
Ebene 1
 62
   179
420
  1709851
370
    18
100
AcDb2dPolyline
 66
     1
 10
0.0
 20
0.0
 30
0.0
  0
VERTEX
  5
327
330
326
100
AcDbEntity
  8
Ebene 1
 62
   179
420
  1709851
370
    18
100
AcDbVertex
100
AcDb2dVertex
 10
70.60482040335575
 20
-183.0771972198557
 30
0.0
  0
VERTEX
  5
328
330
326
100
AcDbEntity
  8
Ebene 1
 62
   179
420
  1709851
370
    18
100
AcDbVertex
100
AcDb2dVertex
 10
70.60482040335575
 20
-179.0767523423836
 30
0.0
  0
SEQEND
  5
329
330
326
100
AcDbEntity
  8
Ebene 1
370
    18
  0
POLYLINE
  5
32A
330
174
100
AcDbEntity
  8
Ebene 1
 62
   179
420
  1709851
370
    18
100
AcDb2dPolyline
 66
     1
 10
0.0
 20
0.0
 30
0.0
  0
VERTEX
  5
32B
330
32A
100
AcDbEntity
  8
Ebene 1
 62
   179
420
  1709851
370
    18
100
AcDbVertex
100
AcDb2dVertex
 10
70.60482040335575
 20
-187.4586696579964
 30
0.0
  0
VERTEX
  5
32C
330
32A
100
AcDbEntity
  8
Ebene 1
 62
   179
420
  1709851
370
    18
100
AcDbVertex
100
AcDb2dVertex
 10
70.60482040335575
 20
-191.4598035545656
 30
0.0
  0
SEQEND
  5
32D
330
32A
100
AcDbEntity
  8
Ebene 1
370
    18
  0
POLYLINE
  5
32E
330
174
100
AcDbEntity
  8
Ebene 1
 62
   179
420
  1709851
370
    18
100
AcDb2dPolyline
 66
     1
 10
0.0
 20
0.0
 30
0.0
  0
VERTEX
  5
32F
330
32E
100
AcDbEntity
  8
Ebene 1
 62
   179
420
  1709851
370
    18
100
AcDbVertex
100
AcDb2dVertex
 10
70.60482040335575
 20
-191.4598035545656
 30
0.0
  0
VERTEX
  5
330
330
32E
100
AcDbEntity
  8
Ebene 1
 62
   179
420
  1709851
370
    18
100
AcDbVertex
100
AcDb2dVertex
 10
70.64719507782432
 20
-191.67133241736
 30
0.0
  0
VERTEX
  5
331
330
32E
100
AcDbEntity
  8
Ebene 1
 62
   179
420
  1709851
370
    18
100
AcDbVertex
100
AcDb2dVertex
 10
70.77414684645578
 20
-191.8408311152342
 30
0.0
  0
VERTEX
  5
332
330
32E
100
AcDbEntity
  8
Ebene 1
 62
   179
420
  1709851
370
    18
100
AcDbVertex
100
AcDb2dVertex
 10
70.9434732895558
 20
-191.9462510370829
 30
0.0
  0
VERTEX
  5
333
330
32E
100
AcDbEntity
  8
Ebene 1
 62
   179
420
  1709851
370
    18
100
AcDbVertex
100
AcDb2dVertex
 10
71.13398706989011
 20
-191.9676106290914
 30
0.0
  0
VERTEX
  5
334
330
32E
100
AcDbEntity
  8
Ebene 1
 62
   179
420
  1709851
370
    18
100
AcDbVertex
100
AcDb2dVertex
 10
71.34568818745872
 20
-191.9042208721629
 30
0.0
  0
VERTEX
  5
335
330
32E
100
AcDbEntity
  8
Ebene 1
 62
   179
420
  1709851
370
    18
100
AcDbVertex
100
AcDb2dVertex
 10
71.49382729332446
 20
-191.7767523392086
 30
0.0
  0
VERTEX
  5
336
330
32E
100
AcDbEntity
  8
Ebene 1
 62
   179
420
  1709851
370
    18
100
AcDbVertex
100
AcDb2dVertex
 10
71.57857664226161
 20
-191.5865830684228
 30
0.0
  0
VERTEX
  5
337
330
32E
100
AcDbEntity
  8
Ebene 1
 62
   179
420
  1709851
370
    18
100
AcDbVertex
100
AcDb2dVertex
 10
71.59959172472163
 20
-191.4598035545656
 30
0.0
  0
VERTEX
  5
338
330
32E
100
AcDbEntity
  8
Ebene 1
 62
   179
420
  1709851
370
    18
100
AcDbVertex
100
AcDb2dVertex
 10
71.59959172472163
 20
-187.4586696579964
 30
0.0
  0
SEQEND
  5
339
330
32E
100
AcDbEntity
  8
Ebene 1
370
    18
  0
POLYLINE
  5
33A
330
174
100
AcDbEntity
  8
Ebene 1
 62
   179
420
  1709851
370
    18
100
AcDb2dPolyline
 66
     1
 10
0.0
 20
0.0
 30
0.0
  0
VERTEX
  5
33B
330
33A
100
AcDbEntity
  8
Ebene 1
 62
   179
420
  1709851
370
    18
100
AcDbVertex
100
AcDb2dVertex
 10
71.59959172472163
 20
-187.4586696579964
 30
0.0
  0
VERTEX
  5
33C
330
33A
100
AcDbEntity
  8
Ebene 1
 62
   179
420
  1709851
370
    18
100
AcDbVertex
100
AcDb2dVertex
 10
71.55738930502733
 20
-187.2685003872107
 30
0.0
  0
VERTEX
  5
33D
330
33A
100
AcDbEntity
  8
Ebene 1
 62
   179
420
  1709851
370
    18
100
AcDbVertex
100
AcDb2dVertex
 10
71.4514526188559
 20
-187.0990016893364
 30
0.0
  0
VERTEX
  5
33E
330
33A
100
AcDbEntity
  8
Ebene 1
 62
   179
420
  1709851
370
    18
100
AcDbVertex
100
AcDb2dVertex
 10
71.26093883852157
 20
-186.9935817674877
 30
0.0
  0
VERTEX
  5
33F
330
33A
100
AcDbEntity
  8
Ebene 1
 62
   179
420
  1709851
370
    18
100
AcDbVertex
100
AcDb2dVertex
 10
71.07042505818725
 20
-186.9722221754792
 30
0.0
  0
VERTEX
  5
340
330
33A
100
AcDbEntity
  8
Ebene 1
 62
   179
420
  1709851
370
    18
100
AcDbVertex
100
AcDb2dVertex
 10
70.85889619539292
 20
-187.0356119324078
 30
0.0
  0
VERTEX
  5
341
330
33A
100
AcDbEntity
  8
Ebene 1
 62
   179
420
  1709851
370
    18
100
AcDbVertex
100
AcDb2dVertex
 10
70.71058483475291
 20
-187.162391446265
 30
0.0
  0
VERTEX
  5
342
330
33A
100
AcDbEntity
  8
Ebene 1
 62
   179
420
  1709851
370
    18
100
AcDbVertex
100
AcDb2dVertex
 10
70.62600774059003
 20
-187.3325791632363
 30
0.0
  0
VERTEX
  5
343
330
33A
100
AcDbEntity
  8
Ebene 1
 62
   179
420
  1709851
370
    18
100
AcDbVertex
100
AcDb2dVertex
 10
70.60482040335575
 20
-187.4586696579964
 30
0.0
  0
SEQEND
  5
344
330
33A
100
AcDbEntity
  8
Ebene 1
370
    18
  0
POLYLINE
  5
345
330
174
100
AcDbEntity
  8
Ebene 1
 62
   179
420
  1709851
370
    18
100
AcDb2dPolyline
 66
     1
 10
0.0
 20
0.0
 30
0.0
  0
VERTEX
  5
346
330
345
100
AcDbEntity
  8
Ebene 1
 62
   179
420
  1709851
370
    18
100
AcDbVertex
100
AcDb2dVertex
 10
70.60482040335575
 20
-183.0771972198557
 30
0.0
  0
VERTEX
  5
347
330
345
100
AcDbEntity
  8
Ebene 1
 62
   179
420
  1709851
370
    18
100
AcDbVertex
100
AcDb2dVertex
 10
70.64719507782432
 20
-183.2680555097386
 30
0.0
  0
VERTEX
  5
348
330
345
100
AcDbEntity
  8
Ebene 1
 62
   179
420
  1709851
370
    18
100
AcDbVertex
100
AcDb2dVertex
 10
70.77414684645578
 20
-183.4375542076128
 30
0.0
  0
VERTEX
  5
349
330
345
100
AcDbEntity
  8
Ebene 1
 62
   179
420
  1709851
370
    18
100
AcDbVertex
100
AcDb2dVertex
 10
70.9434732895558
 20
-183.5429741294615
 30
0.0
  0
VERTEX
  5
34A
330
345
100
AcDbEntity
  8
Ebene 1
 62
   179
420
  1709851
370
    18
100
AcDbVertex
100
AcDb2dVertex
 10
71.13398706989011
 20
-183.56433372147
 30
0.0
  0
VERTEX
  5
34B
330
345
100
AcDbEntity
  8
Ebene 1
 62
   179
420
  1709851
370
    18
100
AcDbVertex
100
AcDb2dVertex
 10
71.34568818745872
 20
-183.5009439645414
 30
0.0
  0
VERTEX
  5
34C
330
345
100
AcDbEntity
  8
Ebene 1
 62
   179
420
  1709851
370
    18
100
AcDbVertex
100
AcDb2dVertex
 10
71.49382729332446
 20
-183.3741644506842
 30
0.0
  0
VERTEX
  5
34D
330
345
100
AcDbEntity
  8
Ebene 1
 62
   179
420
  1709851
370
    18
100
AcDbVertex
100
AcDb2dVertex
 10
71.57857664226161
 20
-183.2046657528099
 30
0.0
  0
VERTEX
  5
34E
330
345
100
AcDbEntity
  8
Ebene 1
 62
   179
420
  1709851
370
    18
100
AcDbVertex
100
AcDb2dVertex
 10
71.59959172472163
 20
-183.0771972198557
 30
0.0
  0
SEQEND
  5
34F
330
345
100
AcDbEntity
  8
Ebene 1
370
    18
  0
POLYLINE
  5
350
330
174
100
AcDbEntity
  8
Ebene 1
 62
   179
420
  1709851
370
    18
100
AcDb2dPolyline
 66
     1
 10
0.0
 20
0.0
 30
0.0
  0
VERTEX
  5
351
330
350
100
AcDbEntity
  8
Ebene 1
 62
   179
420
  1709851
370
    18
100
AcDbVertex
100
AcDb2dVertex
 10
71.59959172472163
 20
-179.0767523423836
 30
0.0
  0
VERTEX
  5
352
330
350
100
AcDbEntity
  8
Ebene 1
 62
   179
420
  1709851
370
    18
100
AcDbVertex
100
AcDb2dVertex
 10
71.55738930502733
 20
-178.8659124986863
 30
0.0
  0
VERTEX
  5
353
330
350
100
AcDbEntity
  8
Ebene 1
 62
   179
420
  1709851
370
    18
100
AcDbVertex
100
AcDb2dVertex
 10
71.4514526188559
 20
-178.695724781715
 30
0.0
  0
VERTEX
  5
354
330
350
100
AcDbEntity
  8
Ebene 1
 62
   179
420
  1709851
370
    18
100
AcDbVertex
100
AcDb2dVertex
 10
71.26093883852157
 20
-178.5903048598663
 30
0.0
  0
VERTEX
  5
355
330
350
100
AcDbEntity
  8
Ebene 1
 62
   179
420
  1709851
370
    18
100
AcDbVertex
100
AcDb2dVertex
 10
71.07042505818725
 20
-178.5689452678578
 30
0.0
  0
VERTEX
  5
356
330
350
100
AcDbEntity
  8
Ebene 1
 62
   179
420
  1709851
370
    18
100
AcDbVertex
100
AcDb2dVertex
 10
70.85889619539292
 20
-178.6323350247864
 30
0.0
  0
VERTEX
  5
357
330
350
100
AcDbEntity
  8
Ebene 1
 62
   179
420
  1709851
370
    18
100
AcDbVertex
100
AcDb2dVertex
 10
70.71058483475291
 20
-178.7598035577406
 30
0.0
  0
VERTEX
  5
358
330
350
100
AcDbEntity
  8
Ebene 1
 62
   179
420
  1709851
370
    18
100
AcDbVertex
100
AcDb2dVertex
 10
70.62600774059003
 20
-178.9499728285264
 30
0.0
  0
VERTEX
  5
359
330
350
100
AcDbEntity
  8
Ebene 1
 62
   179
420
  1709851
370
    18
100
AcDbVertex
100
AcDb2dVertex
 10
70.60482040335575
 20
-179.0767523423836
 30
0.0
  0
SEQEND
  5
35A
330
350
100
AcDbEntity
  8
Ebene 1
370
    18
  0
POLYLINE
  5
35B
330
174
100
AcDbEntity
  8
Ebene 1
 62
   179
420
  1709851
370
    18
100
AcDb2dPolyline
 66
     1
 10
0.0
 20
0.0
 30
0.0
  0
VERTEX
  5
35C
330
35B
100
AcDbEntity
  8
Ebene 1
 62
   179
420
  1709851
370
    18
100
AcDbVertex
100
AcDb2dVertex
 10
70.60482040335575
 20
-174.6746093313314
 30
0.0
  0
VERTEX
  5
35D
330
35B
100
AcDbEntity
  8
Ebene 1
 62
   179
420
  1709851
370
    18
100
AcDbVertex
100
AcDb2dVertex
 10
70.64719507782432
 20
-174.8647786021172
 30
0.0
  0
VERTEX
  5
35E
330
35B
100
AcDbEntity
  8
Ebene 1
 62
   179
420
  1709851
370
    18
100
AcDbVertex
100
AcDb2dVertex
 10
70.77414684645578
 20
-175.0342772999914
 30
0.0
  0
VERTEX
  5
35F
330
35B
100
AcDbEntity
  8
Ebene 1
 62
   179
420
  1709851
370
    18
100
AcDbVertex
100
AcDb2dVertex
 10
70.9434732895558
 20
-175.1396972218401
 30
0.0
  0
VERTEX
  5
360
330
35B
100
AcDbEntity
  8
Ebene 1
 62
   179
420
  1709851
370
    18
100
AcDbVertex
100
AcDb2dVertex
 10
71.13398706989011
 20
-175.1617458329457
 30
0.0
  0
VERTEX
  5
361
330
35B
100
AcDbEntity
  8
Ebene 1
 62
   179
420
  1709851
370
    18
100
AcDbVertex
100
AcDb2dVertex
 10
71.34568818745872
 20
-175.1190266489286
 30
0.0
  0
VERTEX
  5
362
330
35B
100
AcDbEntity
  8
Ebene 1
 62
   179
420
  1709851
370
    18
100
AcDbVertex
100
AcDb2dVertex
 10
71.49382729332446
 20
-174.9708875430628
 30
0.0
  0
VERTEX
  5
363
330
35B
100
AcDbEntity
  8
Ebene 1
 62
   179
420
  1709851
370
    18
100
AcDbVertex
100
AcDb2dVertex
 10
71.57857664226161
 20
-174.8013888451885
 30
0.0
  0
VERTEX
  5
364
330
35B
100
AcDbEntity
  8
Ebene 1
 62
   179
420
  1709851
370
    18
100
AcDbVertex
100
AcDb2dVertex
 10
71.59959172472163
 20
-174.6746093313314
 30
0.0
  0
SEQEND
  5
365
330
35B
100
AcDbEntity
  8
Ebene 1
370
    18
  0
POLYLINE
  5
366
330
174
100
AcDbEntity
  8
Ebene 1
 62
   179
420
  1709851
370
    18
100
AcDb2dPolyline
 66
     1
 10
0.0
 20
0.0
 30
0.0
  0
VERTEX
  5
367
330
366
100
AcDbEntity
  8
Ebene 1
 62
   179
420
  1709851
370
    18
100
AcDbVertex
100
AcDb2dVertex
 10
71.59959172472163
 20
-170.6741644538592
 30
0.0
  0
VERTEX
  5
368
330
366
100
AcDbEntity
  8
Ebene 1
 62
   179
420
  1709851
370
    18
100
AcDbVertex
100
AcDb2dVertex
 10
71.55738930502733
 20
-170.4619465719678
 30
0.0
  0
VERTEX
  5
369
330
366
100
AcDbEntity
  8
Ebene 1
 62
   179
420
  1709851
370
    18
100
AcDbVertex
100
AcDb2dVertex
 10
71.4514526188559
 20
-170.2931368931906
 30
0.0
  0
VERTEX
  5
36A
330
366
100
AcDbEntity
  8
Ebene 1
 62
   179
420
  1709851
370
    18
100
AcDbVertex
100
AcDb2dVertex
 10
71.26093883852157
 20
-170.2083875442535
 30
0.0
  0
VERTEX
  5
36B
330
366
100
AcDbEntity
  8
Ebene 1
 62
   179
420
  1709851
370
    18
100
AcDbVertex
100
AcDb2dVertex
 10
71.07042505818725
 20
-170.1663573793334
 30
0.0
  0
VERTEX
  5
36C
330
366
100
AcDbEntity
  8
Ebene 1
 62
   179
420
  1709851
370
    18
100
AcDbVertex
100
AcDb2dVertex
 10
70.85889619539292
 20
-170.229058117165
 30
0.0
  0
VERTEX
  5
36D
330
366
100
AcDbEntity
  8
Ebene 1
 62
   179
420
  1709851
370
    18
100
AcDbVertex
100
AcDb2dVertex
 10
70.71058483475291
 20
-170.3565266501192
 30
0.0
  0
VERTEX
  5
36E
330
366
100
AcDbEntity
  8
Ebene 1
 62
   179
420
  1709851
370
    18
100
AcDbVertex
100
AcDb2dVertex
 10
70.62600774059003
 20
-170.547384940002
 30
0.0
  0
VERTEX
  5
36F
330
366
100
AcDbEntity
  8
Ebene 1
 62
   179
420
  1709851
370
    18
100
AcDbVertex
100
AcDb2dVertex
 10
70.60482040335575
 20
-170.6741644538592
 30
0.0
  0
SEQEND
  5
370
330
366
100
AcDbEntity
  8
Ebene 1
370
    18
  0
SPLINE
  5
371
330
174
100
AcDbEntity
  8
Ebene 1
 62
   179
420
  1709851
370
    18
100
AcDbSpline
210
0.0
220
0.0
230
1.0
 70
     8
 71
     3
 72
    23
 73
    19
 74
     0
 42
0.0000000001
 43
0.0000000001
 40
0.0
 40
0.0
 40
0.0
 40
0.0
 40
1.0
 40
1.0
 40
1.0
 40
2.0
 40
2.0
 40
2.0
 40
3.0
 40
3.0
 40
3.0
 40
4.0
 40
4.0
 40
4.0
 40
5.0
 40
5.0
 40
5.0
 40
6.0
 40
6.0
 40
6.0
 40
6.0
 10
72.10774330879599
 20
-194.4653048558976
 30
0.0
 10
72.10774330879599
 20
-194.4653048558976
 30
0.0
 10
72.0865559715617
 20
-194.401915098969
 30
0.0
 10
72.0865559715617
 20
-194.401915098969
 30
0.0
 10
72.06536863432741
 20
-193.8727484324346
 30
0.0
 10
71.62077906195591
 20
-193.4703612797574
 30
0.0
 10
71.11279973265583
 20
-193.4703612797574
 30
0.0
 10
70.56244572888717
 20
-193.4703612797574
 30
0.0
 10
70.11802841128994
 20
-193.9147785973547
 30
0.0
 10
70.11802841128994
 20
-194.4653048558976
 30
0.0
 10
70.11802841128994
 20
-194.994471522432
 30
0.0
 10
70.56244572888717
 20
-195.4602484320377
 30
0.0
 10
71.11279973265583
 20
-195.4602484320377
 30
0.0
 10
71.66315373642449
 20
-195.4602484320377
 30
0.0
 10
72.10774330879599
 20
-194.994471522432
 30
0.0
 10
72.10774330879599
 20
-194.4653048558976
 30
0.0
 10
72.10774330879599
 20
-194.443945263889
 30
0.0
 10
72.10774330879599
 20
-194.4225856718805
 30
0.0
 10
72.0865559715617
 20
-194.401915098969
 30
0.0
  0
SPLINE
  5
372
330
174
100
AcDbEntity
  8
Ebene 1
 62
   179
420
  1709851
370
    18
100
AcDbSpline
210
0.0
220
0.0
230
1.0
 70
     8
 71
     3
 72
    23
 73
    19
 74
     0
 42
0.0000000001
 43
0.0000000001
 40
0.0
 40
0.0
 40
0.0
 40
0.0
 40
1.0
 40
1.0
 40
1.0
 40
2.0
 40
2.0
 40
2.0
 40
3.0
 40
3.0
 40
3.0
 40
4.0
 40
4.0
 40
4.0
 40
5.0
 40
5.0
 40
5.0
 40
6.0
 40
6.0
 40
6.0
 40
6.0
 10
71.40925019916158
 20
-194.4653048558976
 30
0.0
 10
71.40925019916158
 20
-194.4653048558976
 30
0.0
 10
71.40925019916158
 20
-194.443945263889
 30
0.0
 10
71.40925019916158
 20
-194.443945263889
 30
0.0
 10
71.3880628619273
 20
-194.2744465660147
 30
0.0
 10
71.26093883852157
 20
-194.1690266441661
 30
0.0
 10
71.11279973265583
 20
-194.1690266441661
 30
0.0
 10
70.9434732895558
 20
-194.1690266441661
 30
0.0
 10
70.81652152092434
 20
-194.2958061580233
 30
0.0
 10
70.81652152092434
 20
-194.4653048558976
 30
0.0
 10
70.81652152092434
 20
-194.6134439617633
 30
0.0
 10
70.9434732895558
 20
-194.7615830676291
 30
0.0
 10
71.11279973265583
 20
-194.7615830676291
 30
0.0
 10
71.26093883852157
 20
-194.7615830676291
 30
0.0
 10
71.40925019916158
 20
-194.6134439617633
 30
0.0
 10
71.40925019916158
 20
-194.4653048558976
 30
0.0
 10
71.40925019916158
 20
-194.4653048558976
 30
0.0
 10
71.40925019916158
 20
-194.443945263889
 30
0.0
 10
71.40925019916158
 20
-194.443945263889
 30
0.0
  0
SPLINE
  5
373
330
174
100
AcDbEntity
  8
Ebene 1
 62
   179
420
  1709851
370
    18
100
AcDbSpline
210
0.0
220
0.0
230
1.0
 70
     8
 71
     3
 72
    23
 73
    19
 74
     0
 42
0.0000000001
 43
0.0000000001
 40
0.0
 40
0.0
 40
0.0
 40
0.0
 40
1.0
 40
1.0
 40
1.0
 40
2.0
 40
2.0
 40
2.0
 40
3.0
 40
3.0
 40
3.0
 40
4.0
 40
4.0
 40
4.0
 40
5.0
 40
5.0
 40
5.0
 40
6.0
 40
6.0
 40
6.0
 40
6.0
 10
72.10774330879599
 20
-167.6679741334302
 30
0.0
 10
72.10774330879599
 20
-167.6679741334302
 30
0.0
 10
72.0865559715617
 20
-167.6045843765016
 30
0.0
 10
72.0865559715617
 20
-167.6045843765016
 30
0.0
 10
72.06536863432741
 20
-167.0754177099673
 30
0.0
 10
71.62077906195591
 20
-166.6730305572901
 30
0.0
 10
71.11279973265583
 20
-166.6730305572901
 30
0.0
 10
70.56244572888717
 20
-166.6730305572901
 30
0.0
 10
70.11802841128994
 20
-167.1181368939844
 30
0.0
 10
70.11802841128994
 20
-167.6679741334302
 30
0.0
 10
70.11802841128994
 20
-168.1971407999646
 30
0.0
 10
70.56244572888717
 20
-168.6629177095704
 30
0.0
 10
71.11279973265583
 20
-168.6629177095704
 30
0.0
 10
71.66315373642449
 20
-168.6629177095704
 30
0.0
 10
72.10774330879599
 20
-168.1971407999646
 30
0.0
 10
72.10774330879599
 20
-167.6679741334302
 30
0.0
 10
72.10774330879599
 20
-167.6473035605187
 30
0.0
 10
72.10774330879599
 20
-167.6259439685102
 30
0.0
 10
72.0865559715617
 20
-167.6045843765016
 30
0.0
  0
SPLINE
  5
374
330
174
100
AcDbEntity
  8
Ebene 1
 62
   179
420
  1709851
370
    18
100
AcDbSpline
210
0.0
220
0.0
230
1.0
 70
     8
 71
     3
 72
    23
 73
    19
 74
     0
 42
0.0000000001
 43
0.0000000001
 40
0.0
 40
0.0
 40
0.0
 40
0.0
 40
1.0
 40
1.0
 40
1.0
 40
2.0
 40
2.0
 40
2.0
 40
3.0
 40
3.0
 40
3.0
 40
4.0
 40
4.0
 40
4.0
 40
5.0
 40
5.0
 40
5.0
 40
6.0
 40
6.0
 40
6.0
 40
6.0
 10
71.40925019916158
 20
-167.6679741334302
 30
0.0
 10
71.40925019916158
 20
-167.6679741334302
 30
0.0
 10
71.40925019916158
 20
-167.6473035605187
 30
0.0
 10
71.40925019916158
 20
-167.6473035605187
 30
0.0
 10
71.3880628619273
 20
-167.4778048626444
 30
0.0
 10
71.26093883852157
 20
-167.3723849407958
 30
0.0
 10
71.11279973265583
 20
-167.3723849407958
 30
0.0
 10
70.9434732895558
 20
-167.3723849407958
 30
0.0
 10
70.81652152092434
 20
-167.499164454653
 30
0.0
 10
70.81652152092434
 20
-167.6679741334302
 30
0.0
 10
70.81652152092434
 20
-167.816113239296
 30
0.0
 10
70.9434732895558
 20
-167.9642523451617
 30
0.0
 10
71.11279973265583
 20
-167.9642523451617
 30
0.0
 10
71.26093883852157
 20
-167.9642523451617
 30
0.0
 10
71.40925019916158
 20
-167.816113239296
 30
0.0
 10
71.40925019916158
 20
-167.6679741334302
 30
0.0
 10
71.40925019916158
 20
-167.6679741334302
 30
0.0
 10
71.40925019916158
 20
-167.6473035605187
 30
0.0
 10
71.40925019916158
 20
-167.6473035605187
 30
0.0
  0
POLYLINE
  5
375
330
174
100
AcDbEntity
  8
Ebene 1
 62
   179
420
  1709851
370
    18
100
AcDb2dPolyline
 66
     1
 10
0.0
 20
0.0
 30
0.0
  0
VERTEX
  5
376
330
375
100
AcDbEntity
  8
Ebene 1
 62
   179
420
  1709851
370
    18
100
AcDbVertex
100
AcDb2dVertex
 10
71.49382729332446
 20
-165.0648599847755
 30
0.0
  0
VERTEX
  5
377
330
375
100
AcDbEntity
  8
Ebene 1
 62
   179
420
  1709851
370
    18
100
AcDbVertex
100
AcDb2dVertex
 10
71.49382729332446
 20
-106.6658406308856
 30
0.0
  0
SEQEND
  5
378
330
375
100
AcDbEntity
  8
Ebene 1
370
    18
  0
POLYLINE
  5
379
330
174
100
AcDbEntity
  8
Ebene 1
 62
   179
420
  1709851
370
    18
100
AcDb2dPolyline
 66
     1
 10
0.0
 20
0.0
 30
0.0
  0
VERTEX
  5
37A
330
379
100
AcDbEntity
  8
Ebene 1
 62
   179
420
  1709851
370
    18
100
AcDbVertex
100
AcDb2dVertex
 10
73.99152152013059
 20
-166.1865830747728
 30
0.0
  0
VERTEX
  5
37B
330
379
100
AcDbEntity
  8
Ebene 1
 62
   179
420
  1709851
370
    18
100
AcDbVertex
100
AcDb2dVertex
 10
73.99152152013059
 20
-165.0648599847755
 30
0.0
  0
SEQEND
  5
37C
330
379
100
AcDbEntity
  8
Ebene 1
370
    18
  0
POLYLINE
  5
37D
330
174
100
AcDbEntity
  8
Ebene 1
 62
   179
420
  1709851
370
    18
100
AcDb2dPolyline
 66
     1
 10
0.0
 20
0.0
 30
0.0
  0
VERTEX
  5
37E
330
37D
100
AcDbEntity
  8
Ebene 1
 62
   179
420
  1709851
370
    18
100
AcDbVertex
100
AcDb2dVertex
 10
73.99152152013059
 20
-169.1920843761048
 30
0.0
  0
VERTEX
  5
37F
330
37D
100
AcDbEntity
  8
Ebene 1
 62
   179
420
  1709851
370
    18
100
AcDbVertex
100
AcDb2dVertex
 10
73.99152152013059
 20
-167.181526650913
 30
0.0
  0
SEQEND
  5
380
330
37D
100
AcDbEntity
  8
Ebene 1
370
    18
  0
POLYLINE
  5
381
330
174
100
AcDbEntity
  8
Ebene 1
 62
   179
420
  1709851
370
    18
100
AcDb2dPolyline
 66
     1
 10
0.0
 20
0.0
 30
0.0
  0
VERTEX
  5
382
330
381
100
AcDbEntity
  8
Ebene 1
 62
   179
420
  1709851
370
    18
100
AcDbVertex
100
AcDb2dVertex
 10
73.99152152013059
 20
-172.1769151045252
 30
0.0
  0
VERTEX
  5
383
330
381
100
AcDbEntity
  8
Ebene 1
 62
   179
420
  1709851
370
    18
100
AcDbVertex
100
AcDb2dVertex
 10
73.99152152013059
 20
-170.1870279522449
 30
0.0
  0
SEQEND
  5
384
330
381
100
AcDbEntity
  8
Ebene 1
370
    18
  0
POLYLINE
  5
385
330
174
100
AcDbEntity
  8
Ebene 1
 62
   179
420
  1709851
370
    18
100
AcDb2dPolyline
 66
     1
 10
0.0
 20
0.0
 30
0.0
  0
VERTEX
  5
386
330
385
100
AcDbEntity
  8
Ebene 1
 62
   179
420
  1709851
370
    18
100
AcDbVertex
100
AcDb2dVertex
 10
73.99152152013059
 20
-175.1824164058572
 30
0.0
  0
VERTEX
  5
387
330
385
100
AcDbEntity
  8
Ebene 1
 62
   179
420
  1709851
370
    18
100
AcDbVertex
100
AcDb2dVertex
 10
73.99152152013059
 20
-173.1932182726739
 30
0.0
  0
SEQEND
  5
388
330
385
100
AcDbEntity
  8
Ebene 1
370
    18
  0
POLYLINE
  5
389
330
174
100
AcDbEntity
  8
Ebene 1
 62
   179
420
  1709851
370
    18
100
AcDb2dPolyline
 66
     1
 10
0.0
 20
0.0
 30
0.0
  0
VERTEX
  5
38A
330
389
100
AcDbEntity
  8
Ebene 1
 62
   179
420
  1709851
370
    18
100
AcDbVertex
100
AcDb2dVertex
 10
73.99152152013059
 20
-178.1879177071891
 30
0.0
  0
VERTEX
  5
38B
330
389
100
AcDbEntity
  8
Ebene 1
 62
   179
420
  1709851
370
    18
100
AcDbVertex
100
AcDb2dVertex
 10
73.99152152013059
 20
-176.1773599819973
 30
0.0
  0
SEQEND
  5
38C
330
389
100
AcDbEntity
  8
Ebene 1
370
    18
  0
POLYLINE
  5
38D
330
174
100
AcDbEntity
  8
Ebene 1
 62
   179
420
  1709851
370
    18
100
AcDb2dPolyline
 66
     1
 10
0.0
 20
0.0
 30
0.0
  0
VERTEX
  5
38E
330
38D
100
AcDbEntity
  8
Ebene 1
 62
   179
420
  1709851
370
    18
100
AcDbVertex
100
AcDb2dVertex
 10
73.99152152013059
 20
-181.1934190085211
 30
0.0
  0
VERTEX
  5
38F
330
38D
100
AcDbEntity
  8
Ebene 1
 62
   179
420
  1709851
370
    18
100
AcDbVertex
100
AcDb2dVertex
 10
73.99152152013059
 20
-179.1828612833293
 30
0.0
  0
SEQEND
  5
390
330
38D
100
AcDbEntity
  8
Ebene 1
370
    18
  0
POLYLINE
  5
391
330
174
100
AcDbEntity
  8
Ebene 1
 62
   179
420
  1709851
370
    18
100
AcDb2dPolyline
 66
     1
 10
0.0
 20
0.0
 30
0.0
  0
VERTEX
  5
392
330
391
100
AcDbEntity
  8
Ebene 1
 62
   179
420
  1709851
370
    18
100
AcDbVertex
100
AcDb2dVertex
 10
73.99152152013059
 20
-184.1782497369416
 30
0.0
  0
VERTEX
  5
393
330
391
100
AcDbEntity
  8
Ebene 1
 62
   179
420
  1709851
370
    18
100
AcDbVertex
100
AcDb2dVertex
 10
73.99152152013059
 20
-182.1890516037583
 30
0.0
  0
SEQEND
  5
394
330
391
100
AcDbEntity
  8
Ebene 1
370
    18
  0
POLYLINE
  5
395
330
174
100
AcDbEntity
  8
Ebene 1
 62
   179
420
  1709851
370
    18
100
AcDb2dPolyline
 66
     1
 10
0.0
 20
0.0
 30
0.0
  0
VERTEX
  5
396
330
395
100
AcDbEntity
  8
Ebene 1
 62
   179
420
  1709851
370
    18
100
AcDbVertex
100
AcDb2dVertex
 10
73.99152152013059
 20
-187.1837510382735
 30
0.0
  0
VERTEX
  5
397
330
395
100
AcDbEntity
  8
Ebene 1
 62
   179
420
  1709851
370
    18
100
AcDbVertex
100
AcDb2dVertex
 10
73.99152152013059
 20
-185.1938638859932
 30
0.0
  0
SEQEND
  5
398
330
395
100
AcDbEntity
  8
Ebene 1
370
    18
  0
POLYLINE
  5
399
330
174
100
AcDbEntity
  8
Ebene 1
 62
   179
420
  1709851
370
    18
100
AcDb2dPolyline
 66
     1
 10
0.0
 20
0.0
 30
0.0
  0
VERTEX
  5
39A
330
399
100
AcDbEntity
  8
Ebene 1
 62
   179
420
  1709851
370
    18
100
AcDbVertex
100
AcDb2dVertex
 10
73.99152152013059
 20
-190.1892523396055
 30
0.0
  0
VERTEX
  5
39B
330
399
100
AcDbEntity
  8
Ebene 1
 62
   179
420
  1709851
370
    18
100
AcDbVertex
100
AcDb2dVertex
 10
73.99152152013059
 20
-188.1786946144137
 30
0.0
  0
SEQEND
  5
39C
330
399
100
AcDbEntity
  8
Ebene 1
370
    18
  0
POLYLINE
  5
39D
330
174
100
AcDbEntity
  8
Ebene 1
 62
   179
420
  1709851
370
    18
100
AcDb2dPolyline
 66
     1
 10
0.0
 20
0.0
 30
0.0
  0
VERTEX
  5
39E
330
39D
100
AcDbEntity
  8
Ebene 1
 62
   179
420
  1709851
370
    18
100
AcDbVertex
100
AcDb2dVertex
 10
73.99152152013059
 20
-193.1740830680259
 30
0.0
  0
VERTEX
  5
39F
330
39D
100
AcDbEntity
  8
Ebene 1
 62
   179
420
  1709851
370
    18
100
AcDbVertex
100
AcDb2dVertex
 10
73.99152152013059
 20
-191.1848849348427
 30
0.0
  0
SEQEND
  5
3A0
330
39D
100
AcDbEntity
  8
Ebene 1
370
    18
  0
POLYLINE
  5
3A1
330
174
100
AcDbEntity
  8
Ebene 1
 62
   179
420
  1709851
370
    18
100
AcDb2dPolyline
 66
     1
 10
0.0
 20
0.0
 30
0.0
  0
VERTEX
  5
3A2
330
3A1
100
AcDbEntity
  8
Ebene 1
 62
   179
420
  1709851
370
    18
100
AcDbVertex
100
AcDb2dVertex
 10
73.99152152013059
 20
-196.1795843693579
 30
0.0
  0
VERTEX
  5
3A3
330
3A1
100
AcDbEntity
  8
Ebene 1
 62
   179
420
  1709851
370
    18
100
AcDbVertex
100
AcDb2dVertex
 10
73.99152152013059
 20
-194.1896972170776
 30
0.0
  0
SEQEND
  5
3A4
330
3A1
100
AcDbEntity
  8
Ebene 1
370
    18
  0
POLYLINE
  5
3A5
330
174
100
AcDbEntity
  8
Ebene 1
 62
   179
420
  1709851
370
    18
100
AcDb2dPolyline
 66
     1
 10
0.0
 20
0.0
 30
0.0
  0
VERTEX
  5
3A6
330
3A5
100
AcDbEntity
  8
Ebene 1
 62
   179
420
  1709851
370
    18
100
AcDbVertex
100
AcDb2dVertex
 10
87.49577905798716
 20
-72.48170842371985
 30
0.0
  0
VERTEX
  5
3A7
330
3A5
100
AcDbEntity
  8
Ebene 1
 62
   179
420
  1709851
370
    18
100
AcDbVertex
100
AcDb2dVertex
 10
71.49382729332446
 20
-67.48631997010759
 30
0.0
  0
VERTEX
  5
3A8
330
3A5
100
AcDbEntity
  8
Ebene 1
 62
   179
420
  1709851
370
    18
100
AcDbVertex
100
AcDb2dVertex
 10
87.49577905798716
 20
-62.46974417926104
 30
0.0
  0
SEQEND
  5
3A9
330
3A5
100
AcDbEntity
  8
Ebene 1
370
    18
  0
POLYLINE
  5
3AA
330
174
100
AcDbEntity
  8
Ebene 1
 62
   179
420
  1709851
370
    18
100
AcDb2dPolyline
 66
     1
 10
0.0
 20
0.0
 30
0.0
  0
VERTEX
  5
3AB
330
3AA
100
AcDbEntity
  8
Ebene 1
 62
   179
420
  1709851
370
    18
100
AcDbVertex
100
AcDb2dVertex
 10
63.17529973464021
 20
-125.969744163386
 30
0.0
  0
VERTEX
  5
3AC
330
3AA
100
AcDbEntity
  8
Ebene 1
 62
   179
420
  1709851
370
    18
100
AcDbVertex
100
AcDb2dVertex
 10
65.58841686728346
 20
-125.969744163386
 30
0.0
  0
SEQEND
  5
3AD
330
3AA
100
AcDbEntity
  8
Ebene 1
370
    18
  0
POLYLINE
  5
3AE
330
174
100
AcDbEntity
  8
Ebene 1
 62
   179
420
  1709851
370
    18
100
AcDb2dPolyline
 66
     1
 10
0.0
 20
0.0
 30
0.0
  0
VERTEX
  5
3AF
330
3AE
100
AcDbEntity
  8
Ebene 1
 62
   179
420
  1709851
370
    18
100
AcDbVertex
100
AcDb2dVertex
 10
65.58841686728346
 20
-131.9810912755985
 30
0.0
  0
VERTEX
  5
3B0
330
3AE
100
AcDbEntity
  8
Ebene 1
 62
   179
420
  1709851
370
    18
100
AcDbVertex
100
AcDb2dVertex
 10
63.17529973464021
 20
-131.9810912755985
 30
0.0
  0
SEQEND
  5
3B1
330
3AE
100
AcDbEntity
  8
Ebene 1
370
    18
  0
POLYLINE
  5
3B2
330
174
100
AcDbEntity
  8
Ebene 1
 62
   179
420
  1709851
370
    18
100
AcDb2dPolyline
 66
     1
 10
0.0
 20
0.0
 30
0.0
  0
VERTEX
  5
3B3
330
3B2
100
AcDbEntity
  8
Ebene 1
 62
   179
420
  1709851
370
    18
100
AcDbVertex
100
AcDb2dVertex
 10
63.17529973464021
 20
-144.1095499314205
 30
0.0
  0
VERTEX
  5
3B4
330
3B2
100
AcDbEntity
  8
Ebene 1
 62
   179
420
  1709851
370
    18
100
AcDbVertex
100
AcDb2dVertex
 10
65.58841686728346
 20
-144.1095499314205
 30
0.0
  0
SEQEND
  5
3B5
330
3B2
100
AcDbEntity
  8
Ebene 1
370
    18
  0
POLYLINE
  5
3B6
330
174
100
AcDbEntity
  8
Ebene 1
 62
   179
420
  1709851
370
    18
100
AcDb2dPolyline
 66
     1
 10
0.0
 20
0.0
 30
0.0
  0
VERTEX
  5
3B7
330
3B6
100
AcDbEntity
  8
Ebene 1
 62
   179
420
  1709851
370
    18
100
AcDbVertex
100
AcDb2dVertex
 10
65.58841686728346
 20
-138.0982028192081
 30
0.0
  0
VERTEX
  5
3B8
330
3B6
100
AcDbEntity
  8
Ebene 1
 62
   179
420
  1709851
370
    18
100
AcDbVertex
100
AcDb2dVertex
 10
63.17529973464021
 20
-138.0982028192081
 30
0.0
  0
SEQEND
  5
3B9
330
3B6
100
AcDbEntity
  8
Ebene 1
370
    18
  0
POLYLINE
  5
3BA
330
174
100
AcDbEntity
  8
Ebene 1
 62
   179
420
  1709851
370
    18
100
AcDb2dPolyline
 66
     1
 10
0.0
 20
0.0
 30
0.0
  0
VERTEX
  5
3BB
330
3BA
100
AcDbEntity
  8
Ebene 1
 62
   179
420
  1709851
370
    18
100
AcDbVertex
100
AcDb2dVertex
 10
63.97972953044604
 20
-114.4762166054955
 30
0.0
  0
VERTEX
  5
3BC
330
3BA
100
AcDbEntity
  8
Ebene 1
 62
   179
420
  1709851
370
    18
100
AcDbVertex
100
AcDb2dVertex
 10
63.11190997771161
 20
-114.4762166054955
 30
0.0
  0
SEQEND
  5
3BD
330
3BA
100
AcDbEntity
  8
Ebene 1
370
    18
  0
POLYLINE
  5
3BE
330
174
100
AcDbEntity
  8
Ebene 1
 62
   179
420
  1709851
370
    18
100
AcDb2dPolyline
 66
     1
 10
0.0
 20
0.0
 30
0.0
  0
VERTEX
  5
3BF
330
3BE
100
AcDbEntity
  8
Ebene 1
 62
   179
420
  1709851
370
    18
100
AcDbVertex
100
AcDb2dVertex
 10
63.97972953044604
 20
-120.4665486352479
 30
0.0
  0
VERTEX
  5
3C0
330
3BE
100
AcDbEntity
  8
Ebene 1
 62
   179
420
  1709851
370
    18
100
AcDbVertex
100
AcDb2dVertex
 10
63.11190997771161
 20
-120.4665486352479
 30
0.0
  0
SEQEND
  5
3C1
330
3BE
100
AcDbEntity
  8
Ebene 1
370
    18
  0
POLYLINE
  5
3C2
330
174
100
AcDbEntity
  8
Ebene 1
 62
   179
420
  1709851
370
    18
100
AcDb2dPolyline
 66
     1
 10
0.0
 20
0.0
 30
0.0
  0
VERTEX
  5
3C3
330
3C2
100
AcDbEntity
  8
Ebene 1
 62
   179
420
  1709851
370
    18
100
AcDbVertex
100
AcDb2dVertex
 10
63.97972953044604
 20
-149.6763074712615
 30
0.0
  0
VERTEX
  5
3C4
330
3C2
100
AcDbEntity
  8
Ebene 1
 62
   179
420
  1709851
370
    18
100
AcDbVertex
100
AcDb2dVertex
 10
63.11190997771161
 20
-149.6763074712615
 30
0.0
  0
SEQEND
  5
3C5
330
3C2
100
AcDbEntity
  8
Ebene 1
370
    18
  0
POLYLINE
  5
3C6
330
174
100
AcDbEntity
  8
Ebene 1
 62
   179
420
  1709851
370
    18
100
AcDb2dPolyline
 66
     1
 10
0.0
 20
0.0
 30
0.0
  0
VERTEX
  5
3C7
330
3C6
100
AcDbEntity
  8
Ebene 1
 62
   179
420
  1709851
370
    18
100
AcDbVertex
100
AcDb2dVertex
 10
63.97972953044604
 20
-155.6666395010139
 30
0.0
  0
VERTEX
  5
3C8
330
3C6
100
AcDbEntity
  8
Ebene 1
 62
   179
420
  1709851
370
    18
100
AcDbVertex
100
AcDb2dVertex
 10
63.11190997771161
 20
-155.6666395010139
 30
0.0
  0
SEQEND
  5
3C9
330
3C6
100
AcDbEntity
  8
Ebene 1
370
    18
  0
POLYLINE
  5
3CA
330
174
100
AcDbEntity
  8
Ebene 1
 62
   179
420
  1709851
370
    18
100
AcDb2dPolyline
 66
     1
 10
0.0
 20
0.0
 30
0.0
  0
VERTEX
  5
3CB
330
3CA
100
AcDbEntity
  8
Ebene 1
 62
   179
420
  1709851
370
    18
100
AcDbVertex
100
AcDb2dVertex
 10
150.1489745718378
 20
-62.46974417926104
 30
0.0
  0
VERTEX
  5
3CC
330
3CA
100
AcDbEntity
  8
Ebene 1
 62
   179
420
  1709851
370
    18
100
AcDbVertex
100
AcDb2dVertex
 10
151.504275135735
 20
-62.46974417926104
 30
0.0
  0
SEQEND
  5
3CD
330
3CA
100
AcDbEntity
  8
Ebene 1
370
    18
  0
POLYLINE
  5
3CE
330
174
100
AcDbEntity
  8
Ebene 1
 62
   179
420
  1709851
370
    18
100
AcDb2dPolyline
 66
     1
 10
0.0
 20
0.0
 30
0.0
  0
VERTEX
  5
3CF
330
3CE
100
AcDbEntity
  8
Ebene 1
 62
   179
420
  1709851
370
    18
100
AcDbVertex
100
AcDb2dVertex
 10
148.1387613561945
 20
-62.46974417926104
 30
0.0
  0
VERTEX
  5
3D0
330
3CE
100
AcDbEntity
  8
Ebene 1
 62
   179
420
  1709851
370
    18
100
AcDbVertex
100
AcDb2dVertex
 10
149.1333604227861
 20
-62.46974417926104
 30
0.0
  0
SEQEND
  5
3D1
330
3CE
100
AcDbEntity
  8
Ebene 1
370
    18
  0
POLYLINE
  5
3D2
330
174
100
AcDbEntity
  8
Ebene 1
 62
   179
420
  1709851
370
    18
100
AcDb2dPolyline
 66
     1
 10
0.0
 20
0.0
 30
0.0
  0
VERTEX
  5
3D3
330
3D2
100
AcDbEntity
  8
Ebene 1
 62
   179
420
  1709851
370
    18
100
AcDbVertex
100
AcDb2dVertex
 10
140.1375270917017
 20
-62.46974417926104
 30
0.0
  0
VERTEX
  5
3D4
330
3D2
100
AcDbEntity
  8
Ebene 1
 62
   179
420
  1709851
370
    18
100
AcDbVertex
100
AcDb2dVertex
 10
147.1434732705058
 20
-62.46974417926104
 30
0.0
  0
SEQEND
  5
3D5
330
3D2
100
AcDbEntity
  8
Ebene 1
370
    18
  0
POLYLINE
  5
3D6
330
174
100
AcDbEntity
  8
Ebene 1
 62
   179
420
  1709851
370
    18
100
AcDb2dPolyline
 66
     1
 10
0.0
 20
0.0
 30
0.0
  0
VERTEX
  5
3D7
330
3D6
100
AcDbEntity
  8
Ebene 1
 62
   179
420
  1709851
370
    18
100
AcDbVertex
100
AcDb2dVertex
 10
138.1476399394214
 20
-62.46974417926104
 30
0.0
  0
VERTEX
  5
3D8
330
3D6
100
AcDbEntity
  8
Ebene 1
 62
   179
420
  1709851
370
    18
100
AcDbVertex
100
AcDb2dVertex
 10
139.1429280251101
 20
-62.46974417926104
 30
0.0
  0
SEQEND
  5
3D9
330
3D6
100
AcDbEntity
  8
Ebene 1
370
    18
  0
POLYLINE
  5
3DA
330
174
100
AcDbEntity
  8
Ebene 1
 62
   179
420
  1709851
370
    18
100
AcDb2dPolyline
 66
     1
 10
0.0
 20
0.0
 30
0.0
  0
VERTEX
  5
3DB
330
3DA
100
AcDbEntity
  8
Ebene 1
 62
   179
420
  1709851
370
    18
100
AcDbVertex
100
AcDb2dVertex
 10
130.1470946940257
 20
-62.46974417926104
 30
0.0
  0
VERTEX
  5
3DC
330
3DA
100
AcDbEntity
  8
Ebene 1
 62
   179
420
  1709851
370
    18
100
AcDbVertex
100
AcDb2dVertex
 10
137.1526963632813
 20
-62.46974417926104
 30
0.0
  0
SEQEND
  5
3DD
330
3DA
100
AcDbEntity
  8
Ebene 1
370
    18
  0
POLYLINE
  5
3DE
330
174
100
AcDbEntity
  8
Ebene 1
 62
   179
420
  1709851
370
    18
100
AcDb2dPolyline
 66
     1
 10
0.0
 20
0.0
 30
0.0
  0
VERTEX
  5
3DF
330
3DE
100
AcDbEntity
  8
Ebene 1
 62
   179
420
  1709851
370
    18
100
AcDbVertex
100
AcDb2dVertex
 10
128.1361924592854
 20
-62.46974417926104
 30
0.0
  0
VERTEX
  5
3E0
330
3DE
100
AcDbEntity
  8
Ebene 1
 62
   179
420
  1709851
370
    18
100
AcDbVertex
100
AcDb2dVertex
 10
129.1518066083371
 20
-62.46974417926104
 30
0.0
  0
SEQEND
  5
3E1
330
3DE
100
AcDbEntity
  8
Ebene 1
370
    18
  0
POLYLINE
  5
3E2
330
174
100
AcDbEntity
  8
Ebene 1
 62
   179
420
  1709851
370
    18
100
AcDb2dPolyline
 66
     1
 10
0.0
 20
0.0
 30
0.0
  0
VERTEX
  5
3E3
330
3E2
100
AcDbEntity
  8
Ebene 1
 62
   179
420
  1709851
370
    18
100
AcDbVertex
100
AcDb2dVertex
 10
120.1559732772527
 20
-62.46974417926104
 30
0.0
  0
VERTEX
  5
3E4
330
3E2
100
AcDbEntity
  8
Ebene 1
 62
   179
420
  1709851
370
    18
100
AcDbVertex
100
AcDb2dVertex
 10
127.1412488831453
 20
-62.46974417926104
 30
0.0
  0
SEQEND
  5
3E5
330
3E2
100
AcDbEntity
  8
Ebene 1
370
    18
  0
POLYLINE
  5
3E6
330
174
100
AcDbEntity
  8
Ebene 1
 62
   179
420
  1709851
370
    18
100
AcDb2dPolyline
 66
     1
 10
0.0
 20
0.0
 30
0.0
  0
VERTEX
  5
3E7
330
3E6
100
AcDbEntity
  8
Ebene 1
 62
   179
420
  1709851
370
    18
100
AcDbVertex
100
AcDb2dVertex
 10
118.1454155520609
 20
-62.46974417926104
 30
0.0
  0
VERTEX
  5
3E8
330
3E6
100
AcDbEntity
  8
Ebene 1
 62
   179
420
  1709851
370
    18
100
AcDbVertex
100
AcDb2dVertex
 10
119.140359128201
 20
-62.46974417926104
 30
0.0
  0
SEQEND
  5
3E9
330
3E6
100
AcDbEntity
  8
Ebene 1
370
    18
  0
POLYLINE
  5
3EA
330
174
100
AcDbEntity
  8
Ebene 1
 62
   179
420
  1709851
370
    18
100
AcDb2dPolyline
 66
     1
 10
0.0
 20
0.0
 30
0.0
  0
VERTEX
  5
3EB
330
3EA
100
AcDbEntity
  8
Ebene 1
 62
   179
420
  1709851
370
    18
100
AcDbVertex
100
AcDb2dVertex
 10
110.1445257971167
 20
-62.46974417926104
 30
0.0
  0
VERTEX
  5
3EC
330
3EA
100
AcDbEntity
  8
Ebene 1
 62
   179
420
  1709851
370
    18
100
AcDbVertex
100
AcDb2dVertex
 10
117.1504719759207
 20
-62.46974417926104
 30
0.0
  0
SEQEND
  5
3ED
330
3EA
100
AcDbEntity
  8
Ebene 1
370
    18
  0
POLYLINE
  5
3EE
330
174
100
AcDbEntity
  8
Ebene 1
 62
   179
420
  1709851
370
    18
100
AcDb2dPolyline
 66
     1
 10
0.0
 20
0.0
 30
0.0
  0
VERTEX
  5
3EF
330
3EE
100
AcDbEntity
  8
Ebene 1
 62
   179
420
  1709851
370
    18
100
AcDbVertex
100
AcDb2dVertex
 10
108.1546386448363
 20
-62.46974417926104
 30
0.0
  0
VERTEX
  5
3F0
330
3EE
100
AcDbEntity
  8
Ebene 1
 62
   179
420
  1709851
370
    18
100
AcDbVertex
100
AcDb2dVertex
 10
109.1495822209765
 20
-62.46974417926104
 30
0.0
  0
SEQEND
  5
3F1
330
3EE
100
AcDbEntity
  8
Ebene 1
370
    18
  0
POLYLINE
  5
3F2
330
174
100
AcDbEntity
  8
Ebene 1
 62
   179
420
  1709851
370
    18
100
AcDb2dPolyline
 66
     1
 10
0.0
 20
0.0
 30
0.0
  0
VERTEX
  5
3F3
330
3F2
100
AcDbEntity
  8
Ebene 1
 62
   179
420
  1709851
370
    18
100
AcDbVertex
100
AcDb2dVertex
 10
100.1535766351179
 20
-62.46974417926104
 30
0.0
  0
VERTEX
  5
3F4
330
3F2
100
AcDbEntity
  8
Ebene 1
 62
   179
420
  1709851
370
    18
100
AcDbVertex
100
AcDb2dVertex
 10
107.1383354766876
 20
-62.46974417926104
 30
0.0
  0
SEQEND
  5
3F5
330
3F2
100
AcDbEntity
  8
Ebene 1
370
    18
  0
POLYLINE
  5
3F6
330
174
100
AcDbEntity
  8
Ebene 1
 62
   179
420
  1709851
370
    18
100
AcDb2dPolyline
 66
     1
 10
0.0
 20
0.0
 30
0.0
  0
VERTEX
  5
3F7
330
3F6
100
AcDbEntity
  8
Ebene 1
 62
   179
420
  1709851
370
    18
100
AcDbVertex
100
AcDb2dVertex
 10
98.14267440037753
 20
-62.46974417926104
 30
0.0
  0
VERTEX
  5
3F8
330
3F6
100
AcDbEntity
  8
Ebene 1
 62
   179
420
  1709851
370
    18
100
AcDbVertex
100
AcDb2dVertex
 10
99.13744572174342
 20
-62.46974417926104
 30
0.0
  0
SEQEND
  5
3F9
330
3F6
100
AcDbEntity
  8
Ebene 1
370
    18
  0
POLYLINE
  5
3FA
330
174
100
AcDbEntity
  8
Ebene 1
 62
   179
420
  1709851
370
    18
100
AcDb2dPolyline
 66
     1
 10
0.0
 20
0.0
 30
0.0
  0
VERTEX
  5
3FB
330
3FA
100
AcDbEntity
  8
Ebene 1
 62
   179
420
  1709851
370
    18
100
AcDbVertex
100
AcDb2dVertex
 10
90.14161239065905
 20
-62.46974417926104
 30
0.0
  0
VERTEX
  5
3FC
330
3FA
100
AcDbEntity
  8
Ebene 1
 62
   179
420
  1709851
370
    18
100
AcDbVertex
100
AcDb2dVertex
 10
97.14790307901164
 20
-62.46974417926104
 30
0.0
  0
SEQEND
  5
3FD
330
3FA
100
AcDbEntity
  8
Ebene 1
370
    18
  0
POLYLINE
  5
3FE
330
174
100
AcDbEntity
  8
Ebene 1
 62
   179
420
  1709851
370
    18
100
AcDb2dPolyline
 66
     1
 10
0.0
 20
0.0
 30
0.0
  0
VERTEX
  5
3FF
330
3FE
100
AcDbEntity
  8
Ebene 1
 62
   179
420
  1709851
370
    18
100
AcDbVertex
100
AcDb2dVertex
 10
88.15206974792727
 20
-62.46974417926104
 30
0.0
  0
VERTEX
  5
400
330
3FE
100
AcDbEntity
  8
Ebene 1
 62
   179
420
  1709851
370
    18
100
AcDbVertex
100
AcDb2dVertex
 10
89.14684106929316
 20
-62.46974417926104
 30
0.0
  0
SEQEND
  5
401
330
3FE
100
AcDbEntity
  8
Ebene 1
370
    18
  0
POLYLINE
  5
402
330
174
100
AcDbEntity
  8
Ebene 1
 62
   179
420
  1709851
370
    18
100
AcDb2dPolyline
 66
     1
 10
0.0
 20
0.0
 30
0.0
  0
VERTEX
  5
403
330
402
100
AcDbEntity
  8
Ebene 1
 62
   179
420
  1709851
370
    18
100
AcDbVertex
100
AcDb2dVertex
 10
80.15100773820878
 20
-62.46974417926104
 30
0.0
  0
VERTEX
  5
404
330
402
100
AcDbEntity
  8
Ebene 1
 62
   179
420
  1709851
370
    18
100
AcDbVertex
100
AcDb2dVertex
 10
87.15712617178711
 20
-62.46974417926104
 30
0.0
  0
SEQEND
  5
405
330
402
100
AcDbEntity
  8
Ebene 1
370
    18
  0
POLYLINE
  5
406
330
174
100
AcDbEntity
  8
Ebene 1
 62
   179
420
  1709851
370
    18
100
AcDb2dPolyline
 66
     1
 10
0.0
 20
0.0
 30
0.0
  0
VERTEX
  5
407
330
406
100
AcDbEntity
  8
Ebene 1
 62
   179
420
  1709851
370
    18
100
AcDbVertex
100
AcDb2dVertex
 10
78.14010550346845
 20
-62.46974417926104
 30
0.0
  0
VERTEX
  5
408
330
406
100
AcDbEntity
  8
Ebene 1
 62
   179
420
  1709851
370
    18
100
AcDbVertex
100
AcDb2dVertex
 10
79.15623641684289
 20
-62.46974417926104
 30
0.0
  0
SEQEND
  5
409
330
406
100
AcDbEntity
  8
Ebene 1
370
    18
  0
POLYLINE
  5
40A
330
174
100
AcDbEntity
  8
Ebene 1
 62
   179
420
  1709851
370
    18
100
AcDb2dPolyline
 66
     1
 10
0.0
 20
0.0
 30
0.0
  0
VERTEX
  5
40B
330
40A
100
AcDbEntity
  8
Ebene 1
 62
   179
420
  1709851
370
    18
100
AcDbVertex
100
AcDb2dVertex
 10
70.16040308575852
 20
-62.46974417926104
 30
0.0
  0
VERTEX
  5
40C
330
40A
100
AcDbEntity
  8
Ebene 1
 62
   179
420
  1709851
370
    18
100
AcDbVertex
100
AcDb2dVertex
 10
77.14533418210256
 20
-62.46974417926104
 30
0.0
  0
SEQEND
  5
40D
330
40A
100
AcDbEntity
  8
Ebene 1
370
    18
  0
POLYLINE
  5
40E
330
174
100
AcDbEntity
  8
Ebene 1
 62
   179
420
  1709851
370
    18
100
AcDb2dPolyline
 66
     1
 10
0.0
 20
0.0
 30
0.0
  0
VERTEX
  5
40F
330
40E
100
AcDbEntity
  8
Ebene 1
 62
   179
420
  1709851
370
    18
100
AcDbVertex
100
AcDb2dVertex
 10
68.14950085101819
 20
-62.46974417926104
 30
0.0
  0
VERTEX
  5
410
330
40E
100
AcDbEntity
  8
Ebene 1
 62
   179
420
  1709851
370
    18
100
AcDbVertex
100
AcDb2dVertex
 10
69.14427217238408
 20
-62.46974417926104
 30
0.0
  0
SEQEND
  5
411
330
40E
100
AcDbEntity
  8
Ebene 1
370
    18
  0
POLYLINE
  5
412
330
174
100
AcDbEntity
  8
Ebene 1
 62
   179
420
  1709851
370
    18
100
AcDb2dPolyline
 66
     1
 10
0.0
 20
0.0
 30
0.0
  0
VERTEX
  5
413
330
412
100
AcDbEntity
  8
Ebene 1
 62
   179
420
  1709851
370
    18
100
AcDbVertex
100
AcDb2dVertex
 10
60.1484388412997
 20
-62.46974417926104
 30
0.0
  0
VERTEX
  5
414
330
412
100
AcDbEntity
  8
Ebene 1
 62
   179
420
  1709851
370
    18
100
AcDbVertex
100
AcDb2dVertex
 10
67.15472952965229
 20
-62.46974417926104
 30
0.0
  0
SEQEND
  5
415
330
412
100
AcDbEntity
  8
Ebene 1
370
    18
  0
POLYLINE
  5
416
330
174
100
AcDbEntity
  8
Ebene 1
 62
   179
420
  1709851
370
    18
100
AcDb2dPolyline
 66
     1
 10
0.0
 20
0.0
 30
0.0
  0
VERTEX
  5
417
330
416
100
AcDbEntity
  8
Ebene 1
 62
   179
420
  1709851
370
    18
100
AcDbVertex
100
AcDb2dVertex
 10
58.15889619856792
 20
-62.46974417926104
 30
0.0
  0
VERTEX
  5
418
330
416
100
AcDbEntity
  8
Ebene 1
 62
   179
420
  1709851
370
    18
100
AcDbVertex
100
AcDb2dVertex
 10
59.1536675199338
 20
-62.46974417926104
 30
0.0
  0
SEQEND
  5
419
330
416
100
AcDbEntity
  8
Ebene 1
370
    18
  0
POLYLINE
  5
41A
330
174
100
AcDbEntity
  8
Ebene 1
 62
   179
420
  1709851
370
    18
100
AcDb2dPolyline
 66
     1
 10
0.0
 20
0.0
 30
0.0
  0
VERTEX
  5
41B
330
41A
100
AcDbEntity
  8
Ebene 1
 62
   179
420
  1709851
370
    18
100
AcDbVertex
100
AcDb2dVertex
 10
150.1489745718378
 20
-229.7286132238179
 30
0.0
  0
VERTEX
  5
41C
330
41A
100
AcDbEntity
  8
Ebene 1
 62
   179
420
  1709851
370
    18
100
AcDbVertex
100
AcDb2dVertex
 10
151.503586116638
 20
-229.7286132238179
 30
0.0
  0
SEQEND
  5
41D
330
41A
100
AcDbEntity
  8
Ebene 1
370
    18
  0
POLYLINE
  5
41E
330
174
100
AcDbEntity
  8
Ebene 1
 62
   179
420
  1709851
370
    18
100
AcDb2dPolyline
 66
     1
 10
0.0
 20
0.0
 30
0.0
  0
VERTEX
  5
41F
330
41E
100
AcDbEntity
  8
Ebene 1
 62
   179
420
  1709851
370
    18
100
AcDbVertex
100
AcDb2dVertex
 10
148.1387613561945
 20
-229.7286132238179
 30
0.0
  0
VERTEX
  5
420
330
41E
100
AcDbEntity
  8
Ebene 1
 62
   179
420
  1709851
370
    18
100
AcDbVertex
100
AcDb2dVertex
 10
149.1333604227861
 20
-229.7286132238179
 30
0.0
  0
SEQEND
  5
421
330
41E
100
AcDbEntity
  8
Ebene 1
370
    18
  0
POLYLINE
  5
422
330
174
100
AcDbEntity
  8
Ebene 1
 62
   179
420
  1709851
370
    18
100
AcDb2dPolyline
 66
     1
 10
0.0
 20
0.0
 30
0.0
  0
VERTEX
  5
423
330
422
100
AcDbEntity
  8
Ebene 1
 62
   179
420
  1709851
370
    18
100
AcDbVertex
100
AcDb2dVertex
 10
140.1375270917017
 20
-229.7286132238179
 30
0.0
  0
VERTEX
  5
424
330
422
100
AcDbEntity
  8
Ebene 1
 62
   179
420
  1709851
370
    18
100
AcDbVertex
100
AcDb2dVertex
 10
147.1434732705058
 20
-229.7286132238179
 30
0.0
  0
SEQEND
  5
425
330
422
100
AcDbEntity
  8
Ebene 1
370
    18
  0
POLYLINE
  5
426
330
174
100
AcDbEntity
  8
Ebene 1
 62
   179
420
  1709851
370
    18
100
AcDb2dPolyline
 66
     1
 10
0.0
 20
0.0
 30
0.0
  0
VERTEX
  5
427
330
426
100
AcDbEntity
  8
Ebene 1
 62
   179
420
  1709851
370
    18
100
AcDbVertex
100
AcDb2dVertex
 10
138.1476399394214
 20
-229.7286132238179
 30
0.0
  0
VERTEX
  5
428
330
426
100
AcDbEntity
  8
Ebene 1
 62
   179
420
  1709851
370
    18
100
AcDbVertex
100
AcDb2dVertex
 10
139.1429280251101
 20
-229.7286132238179
 30
0.0
  0
SEQEND
  5
429
330
426
100
AcDbEntity
  8
Ebene 1
370
    18
  0
POLYLINE
  5
42A
330
174
100
AcDbEntity
  8
Ebene 1
 62
   179
420
  1709851
370
    18
100
AcDb2dPolyline
 66
     1
 10
0.0
 20
0.0
 30
0.0
  0
VERTEX
  5
42B
330
42A
100
AcDbEntity
  8
Ebene 1
 62
   179
420
  1709851
370
    18
100
AcDbVertex
100
AcDb2dVertex
 10
130.1470946940257
 20
-229.7286132238179
 30
0.0
  0
VERTEX
  5
42C
330
42A
100
AcDbEntity
  8
Ebene 1
 62
   179
420
  1709851
370
    18
100
AcDbVertex
100
AcDb2dVertex
 10
137.1526963632813
 20
-229.7286132238179
 30
0.0
  0
SEQEND
  5
42D
330
42A
100
AcDbEntity
  8
Ebene 1
370
    18
  0
POLYLINE
  5
42E
330
174
100
AcDbEntity
  8
Ebene 1
 62
   179
420
  1709851
370
    18
100
AcDb2dPolyline
 66
     1
 10
0.0
 20
0.0
 30
0.0
  0
VERTEX
  5
42F
330
42E
100
AcDbEntity
  8
Ebene 1
 62
   179
420
  1709851
370
    18
100
AcDbVertex
100
AcDb2dVertex
 10
128.1361924592854
 20
-229.7286132238179
 30
0.0
  0
VERTEX
  5
430
330
42E
100
AcDbEntity
  8
Ebene 1
 62
   179
420
  1709851
370
    18
100
AcDbVertex
100
AcDb2dVertex
 10
129.1518066083371
 20
-229.7286132238179
 30
0.0
  0
SEQEND
  5
431
330
42E
100
AcDbEntity
  8
Ebene 1
370
    18
  0
POLYLINE
  5
432
330
174
100
AcDbEntity
  8
Ebene 1
 62
   179
420
  1709851
370
    18
100
AcDb2dPolyline
 66
     1
 10
0.0
 20
0.0
 30
0.0
  0
VERTEX
  5
433
330
432
100
AcDbEntity
  8
Ebene 1
 62
   179
420
  1709851
370
    18
100
AcDbVertex
100
AcDb2dVertex
 10
120.1559732772527
 20
-229.7286132238179
 30
0.0
  0
VERTEX
  5
434
330
432
100
AcDbEntity
  8
Ebene 1
 62
   179
420
  1709851
370
    18
100
AcDbVertex
100
AcDb2dVertex
 10
127.1412488831453
 20
-229.7286132238179
 30
0.0
  0
SEQEND
  5
435
330
432
100
AcDbEntity
  8
Ebene 1
370
    18
  0
POLYLINE
  5
436
330
174
100
AcDbEntity
  8
Ebene 1
 62
   179
420
  1709851
370
    18
100
AcDb2dPolyline
 66
     1
 10
0.0
 20
0.0
 30
0.0
  0
VERTEX
  5
437
330
436
100
AcDbEntity
  8
Ebene 1
 62
   179
420
  1709851
370
    18
100
AcDbVertex
100
AcDb2dVertex
 10
118.1454155520609
 20
-229.7286132238179
 30
0.0
  0
VERTEX
  5
438
330
436
100
AcDbEntity
  8
Ebene 1
 62
   179
420
  1709851
370
    18
100
AcDbVertex
100
AcDb2dVertex
 10
119.140359128201
 20
-229.7286132238179
 30
0.0
  0
SEQEND
  5
439
330
436
100
AcDbEntity
  8
Ebene 1
370
    18
  0
POLYLINE
  5
43A
330
174
100
AcDbEntity
  8
Ebene 1
 62
   179
420
  1709851
370
    18
100
AcDb2dPolyline
 66
     1
 10
0.0
 20
0.0
 30
0.0
  0
VERTEX
  5
43B
330
43A
100
AcDbEntity
  8
Ebene 1
 62
   179
420
  1709851
370
    18
100
AcDbVertex
100
AcDb2dVertex
 10
110.1445257971167
 20
-229.7286132238179
 30
0.0
  0
VERTEX
  5
43C
330
43A
100
AcDbEntity
  8
Ebene 1
 62
   179
420
  1709851
370
    18
100
AcDbVertex
100
AcDb2dVertex
 10
117.1504719759207
 20
-229.7286132238179
 30
0.0
  0
SEQEND
  5
43D
330
43A
100
AcDbEntity
  8
Ebene 1
370
    18
  0
POLYLINE
  5
43E
330
174
100
AcDbEntity
  8
Ebene 1
 62
   179
420
  1709851
370
    18
100
AcDb2dPolyline
 66
     1
 10
0.0
 20
0.0
 30
0.0
  0
VERTEX
  5
43F
330
43E
100
AcDbEntity
  8
Ebene 1
 62
   179
420
  1709851
370
    18
100
AcDbVertex
100
AcDb2dVertex
 10
108.1546386448363
 20
-229.7286132238179
 30
0.0
  0
VERTEX
  5
440
330
43E
100
AcDbEntity
  8
Ebene 1
 62
   179
420
  1709851
370
    18
100
AcDbVertex
100
AcDb2dVertex
 10
109.1495822209765
 20
-229.7286132238179
 30
0.0
  0
SEQEND
  5
441
330
43E
100
AcDbEntity
  8
Ebene 1
370
    18
  0
POLYLINE
  5
442
330
174
100
AcDbEntity
  8
Ebene 1
 62
   179
420
  1709851
370
    18
100
AcDb2dPolyline
 66
     1
 10
0.0
 20
0.0
 30
0.0
  0
VERTEX
  5
443
330
442
100
AcDbEntity
  8
Ebene 1
 62
   179
420
  1709851
370
    18
100
AcDbVertex
100
AcDb2dVertex
 10
100.1535766351179
 20
-229.7286132238179
 30
0.0
  0
VERTEX
  5
444
330
442
100
AcDbEntity
  8
Ebene 1
 62
   179
420
  1709851
370
    18
100
AcDbVertex
100
AcDb2dVertex
 10
107.1383354766876
 20
-229.7286132238179
 30
0.0
  0
SEQEND
  5
445
330
442
100
AcDbEntity
  8
Ebene 1
370
    18
  0
POLYLINE
  5
446
330
174
100
AcDbEntity
  8
Ebene 1
 62
   179
420
  1709851
370
    18
100
AcDb2dPolyline
 66
     1
 10
0.0
 20
0.0
 30
0.0
  0
VERTEX
  5
447
330
446
100
AcDbEntity
  8
Ebene 1
 62
   179
420
  1709851
370
    18
100
AcDbVertex
100
AcDb2dVertex
 10
98.14267440037753
 20
-229.7286132238179
 30
0.0
  0
VERTEX
  5
448
330
446
100
AcDbEntity
  8
Ebene 1
 62
   179
420
  1709851
370
    18
100
AcDbVertex
100
AcDb2dVertex
 10
99.13744572174342
 20
-229.7286132238179
 30
0.0
  0
SEQEND
  5
449
330
446
100
AcDbEntity
  8
Ebene 1
370
    18
  0
POLYLINE
  5
44A
330
174
100
AcDbEntity
  8
Ebene 1
 62
   179
420
  1709851
370
    18
100
AcDb2dPolyline
 66
     1
 10
0.0
 20
0.0
 30
0.0
  0
VERTEX
  5
44B
330
44A
100
AcDbEntity
  8
Ebene 1
 62
   179
420
  1709851
370
    18
100
AcDbVertex
100
AcDb2dVertex
 10
90.14161239065905
 20
-229.7286132238179
 30
0.0
  0
VERTEX
  5
44C
330
44A
100
AcDbEntity
  8
Ebene 1
 62
   179
420
  1709851
370
    18
100
AcDbVertex
100
AcDb2dVertex
 10
97.14790307901164
 20
-229.7286132238179
 30
0.0
  0
SEQEND
  5
44D
330
44A
100
AcDbEntity
  8
Ebene 1
370
    18
  0
POLYLINE
  5
44E
330
174
100
AcDbEntity
  8
Ebene 1
 62
   179
420
  1709851
370
    18
100
AcDb2dPolyline
 66
     1
 10
0.0
 20
0.0
 30
0.0
  0
VERTEX
  5
44F
330
44E
100
AcDbEntity
  8
Ebene 1
 62
   179
420
  1709851
370
    18
100
AcDbVertex
100
AcDb2dVertex
 10
88.15206974792727
 20
-229.7286132238179
 30
0.0
  0
VERTEX
  5
450
330
44E
100
AcDbEntity
  8
Ebene 1
 62
   179
420
  1709851
370
    18
100
AcDbVertex
100
AcDb2dVertex
 10
89.14684106929316
 20
-229.7286132238179
 30
0.0
  0
SEQEND
  5
451
330
44E
100
AcDbEntity
  8
Ebene 1
370
    18
  0
POLYLINE
  5
452
330
174
100
AcDbEntity
  8
Ebene 1
 62
   179
420
  1709851
370
    18
100
AcDb2dPolyline
 66
     1
 10
0.0
 20
0.0
 30
0.0
  0
VERTEX
  5
453
330
452
100
AcDbEntity
  8
Ebene 1
 62
   179
420
  1709851
370
    18
100
AcDbVertex
100
AcDb2dVertex
 10
80.15100773820878
 20
-229.7286132238179
 30
0.0
  0
VERTEX
  5
454
330
452
100
AcDbEntity
  8
Ebene 1
 62
   179
420
  1709851
370
    18
100
AcDbVertex
100
AcDb2dVertex
 10
87.15712617178711
 20
-229.7286132238179
 30
0.0
  0
SEQEND
  5
455
330
452
100
AcDbEntity
  8
Ebene 1
370
    18
  0
POLYLINE
  5
456
330
174
100
AcDbEntity
  8
Ebene 1
 62
   179
420
  1709851
370
    18
100
AcDb2dPolyline
 66
     1
 10
0.0
 20
0.0
 30
0.0
  0
VERTEX
  5
457
330
456
100
AcDbEntity
  8
Ebene 1
 62
   179
420
  1709851
370
    18
100
AcDbVertex
100
AcDb2dVertex
 10
78.14010550346845
 20
-229.7286132238179
 30
0.0
  0
VERTEX
  5
458
330
456
100
AcDbEntity
  8
Ebene 1
 62
   179
420
  1709851
370
    18
100
AcDbVertex
100
AcDb2dVertex
 10
79.15623641684289
 20
-229.7286132238179
 30
0.0
  0
SEQEND
  5
459
330
456
100
AcDbEntity
  8
Ebene 1
370
    18
  0
POLYLINE
  5
45A
330
174
100
AcDbEntity
  8
Ebene 1
 62
   179
420
  1709851
370
    18
100
AcDb2dPolyline
 66
     1
 10
0.0
 20
0.0
 30
0.0
  0
VERTEX
  5
45B
330
45A
100
AcDbEntity
  8
Ebene 1
 62
   179
420
  1709851
370
    18
100
AcDbVertex
100
AcDb2dVertex
 10
70.16040308575852
 20
-229.7286132238179
 30
0.0
  0
VERTEX
  5
45C
330
45A
100
AcDbEntity
  8
Ebene 1
 62
   179
420
  1709851
370
    18
100
AcDbVertex
100
AcDb2dVertex
 10
77.14533418210256
 20
-229.7286132238179
 30
0.0
  0
SEQEND
  5
45D
330
45A
100
AcDbEntity
  8
Ebene 1
370
    18
  0
POLYLINE
  5
45E
330
174
100
AcDbEntity
  8
Ebene 1
 62
   179
420
  1709851
370
    18
100
AcDb2dPolyline
 66
     1
 10
0.0
 20
0.0
 30
0.0
  0
VERTEX
  5
45F
330
45E
100
AcDbEntity
  8
Ebene 1
 62
   179
420
  1709851
370
    18
100
AcDbVertex
100
AcDb2dVertex
 10
68.14950085101819
 20
-229.7286132238179
 30
0.0
  0
VERTEX
  5
460
330
45E
100
AcDbEntity
  8
Ebene 1
 62
   179
420
  1709851
370
    18
100
AcDbVertex
100
AcDb2dVertex
 10
69.14427217238408
 20
-229.7286132238179
 30
0.0
  0
SEQEND
  5
461
330
45E
100
AcDbEntity
  8
Ebene 1
370
    18
  0
POLYLINE
  5
462
330
174
100
AcDbEntity
  8
Ebene 1
 62
   179
420
  1709851
370
    18
100
AcDb2dPolyline
 66
     1
 10
0.0
 20
0.0
 30
0.0
  0
VERTEX
  5
463
330
462
100
AcDbEntity
  8
Ebene 1
 62
   179
420
  1709851
370
    18
100
AcDbVertex
100
AcDb2dVertex
 10
60.1484388412997
 20
-229.7286132238179
 30
0.0
  0
VERTEX
  5
464
330
462
100
AcDbEntity
  8
Ebene 1
 62
   179
420
  1709851
370
    18
100
AcDbVertex
100
AcDb2dVertex
 10
67.15472952965229
 20
-229.7286132238179
 30
0.0
  0
SEQEND
  5
465
330
462
100
AcDbEntity
  8
Ebene 1
370
    18
  0
POLYLINE
  5
466
330
174
100
AcDbEntity
  8
Ebene 1
 62
   179
420
  1709851
370
    18
100
AcDb2dPolyline
 66
     1
 10
0.0
 20
0.0
 30
0.0
  0
VERTEX
  5
467
330
466
100
AcDbEntity
  8
Ebene 1
 62
   179
420
  1709851
370
    18
100
AcDbVertex
100
AcDb2dVertex
 10
58.15889619856792
 20
-229.7286132238179
 30
0.0
  0
VERTEX
  5
468
330
466
100
AcDbEntity
  8
Ebene 1
 62
   179
420
  1709851
370
    18
100
AcDbVertex
100
AcDb2dVertex
 10
59.1536675199338
 20
-229.7286132238179
 30
0.0
  0
SEQEND
  5
469
330
466
100
AcDbEntity
  8
Ebene 1
370
    18
  0
POLYLINE
  5
46A
330
174
100
AcDbEntity
  8
Ebene 1
 62
   179
420
  1709851
370
    18
100
AcDb2dPolyline
 66
     1
 10
0.0
 20
0.0
 30
0.0
  0
VERTEX
  5
46B
330
46A
100
AcDbEntity
  8
Ebene 1
 62
   179
420
  1709851
370
    18
100
AcDbVertex
100
AcDb2dVertex
 10
71.49382729332446
 20
-133.5685912752016
 30
0.0
  0
VERTEX
  5
46C
330
46A
100
AcDbEntity
  8
Ebene 1
 62
   179
420
  1709851
370
    18
100
AcDbVertex
100
AcDb2dVertex
 10
63.97972953044604
 20
-133.5685912752016
 30
0.0
  0
SEQEND
  5
46D
330
46A
100
AcDbEntity
  8
Ebene 1
370
    18
  0
POLYLINE
  5
46E
330
174
100
AcDbEntity
  8
Ebene 1
 62
   179
420
  1709851
370
    18
100
AcDb2dPolyline
 66
     1
 10
0.0
 20
0.0
 30
0.0
  0
VERTEX
  5
46F
330
46E
100
AcDbEntity
  8
Ebene 1
 62
   179
420
  1709851
370
    18
100
AcDbVertex
100
AcDb2dVertex
 10
71.49382729332446
 20
-136.5744370860821
 30
0.0
  0
VERTEX
  5
470
330
46E
100
AcDbEntity
  8
Ebene 1
 62
   179
420
  1709851
370
    18
100
AcDbVertex
100
AcDb2dVertex
 10
63.97972953044604
 20
-136.5744370860821
 30
0.0
  0
SEQEND
  5
471
330
46E
100
AcDbEntity
  8
Ebene 1
370
    18
  0
POLYLINE
  5
472
330
174
100
AcDbEntity
  8
Ebene 1
 62
   179
420
  1709851
370
    18
100
AcDb2dPolyline
 66
     1
 10
0.0
 20
0.0
 30
0.0
  0
VERTEX
  5
473
330
472
100
AcDbEntity
  8
Ebene 1
 62
   179
420
  1709851
370
    18
100
AcDbVertex
100
AcDb2dVertex
 10
63.97972953044604
 20
-136.5744370860821
 30
0.0
  0
VERTEX
  5
474
330
472
100
AcDbEntity
  8
Ebene 1
 62
   179
420
  1709851
370
    18
100
AcDbVertex
100
AcDb2dVertex
 10
63.97972953044604
 20
-229.7286132238179
 30
0.0
  0
SEQEND
  5
475
330
472
100
AcDbEntity
  8
Ebene 1
370
    18
  0
POLYLINE
  5
476
330
174
100
AcDbEntity
  8
Ebene 1
 62
   179
420
  1709851
370
    18
100
AcDb2dPolyline
 66
     1
 10
0.0
 20
0.0
 30
0.0
  0
VERTEX
  5
477
330
476
100
AcDbEntity
  8
Ebene 1
 62
   179
420
  1709851
370
    18
100
AcDbVertex
100
AcDb2dVertex
 10
63.97972953044604
 20
-62.46974417926104
 30
0.0
  0
VERTEX
  5
478
330
476
100
AcDbEntity
  8
Ebene 1
 62
   179
420
  1709851
370
    18
100
AcDbVertex
100
AcDb2dVertex
 10
63.97972953044604
 20
-133.5685912752016
 30
0.0
  0
SEQEND
  5
479
330
476
100
AcDbEntity
  8
Ebene 1
370
    18
  0
POLYLINE
  5
47A
330
174
100
AcDbEntity
  8
Ebene 1
 62
   179
420
  1709851
370
    18
100
AcDb2dPolyline
 66
     1
 10
0.0
 20
0.0
 30
0.0
  0
VERTEX
  5
47B
330
47A
100
AcDbEntity
  8
Ebene 1
 62
   179
420
  1709851
370
    18
100
AcDbVertex
100
AcDb2dVertex
 10
64.5934732911433
 20
-136.5744370860821
 30
0.0
  0
VERTEX
  5
47C
330
47A
100
AcDbEntity
  8
Ebene 1
 62
   179
420
  1709851
370
    18
100
AcDbVertex
100
AcDb2dVertex
 10
64.5934732911433
 20
-229.7286132238179
 30
0.0
  0
SEQEND
  5
47D
330
47A
100
AcDbEntity
  8
Ebene 1
370
    18
  0
POLYLINE
  5
47E
330
174
100
AcDbEntity
  8
Ebene 1
 62
   179
420
  1709851
370
    18
100
AcDb2dPolyline
 66
     1
 10
0.0
 20
0.0
 30
0.0
  0
VERTEX
  5
47F
330
47E
100
AcDbEntity
  8
Ebene 1
 62
   179
420
  1709851
370
    18
100
AcDbVertex
100
AcDb2dVertex
 10
64.5934732911433
 20
-62.46974417926104
 30
0.0
  0
VERTEX
  5
480
330
47E
100
AcDbEntity
  8
Ebene 1
 62
   179
420
  1709851
370
    18
100
AcDbVertex
100
AcDb2dVertex
 10
64.5934732911433
 20
-133.5685912752016
 30
0.0
  0
SEQEND
  5
481
330
47E
100
AcDbEntity
  8
Ebene 1
370
    18
  0
POLYLINE
  5
482
330
174
100
AcDbEntity
  8
Ebene 1
 62
   179
420
  1709851
370
    18
100
AcDb2dPolyline
 66
     1
 10
0.0
 20
0.0
 30
0.0
  0
VERTEX
  5
483
330
482
100
AcDbEntity
  8
Ebene 1
 62
   179
420
  1709851
370
    18
100
AcDbVertex
100
AcDb2dVertex
 10
63.97972953044604
 20
-133.5685912752016
 30
0.0
  0
VERTEX
  5
484
330
482
100
AcDbEntity
  8
Ebene 1
 62
   179
420
  1709851
370
    18
100
AcDbVertex
100
AcDb2dVertex
 10
63.97972953044604
 20
-130.4783406249325
 30
0.0
  0
SEQEND
  5
485
330
482
100
AcDbEntity
  8
Ebene 1
370
    18
  0
POLYLINE
  5
486
330
174
100
AcDbEntity
  8
Ebene 1
 62
   179
420
  1709851
370
    18
100
AcDb2dPolyline
 66
     1
 10
0.0
 20
0.0
 30
0.0
  0
VERTEX
  5
487
330
486
100
AcDbEntity
  8
Ebene 1
 62
   179
420
  1709851
370
    18
100
AcDbVertex
100
AcDb2dVertex
 10
63.97972953044604
 20
-139.6646877363512
 30
0.0
  0
VERTEX
  5
488
330
486
100
AcDbEntity
  8
Ebene 1
 62
   179
420
  1709851
370
    18
100
AcDbVertex
100
AcDb2dVertex
 10
63.97972953044604
 20
-136.5744370860821
 30
0.0
  0
SEQEND
  5
489
330
486
100
AcDbEntity
  8
Ebene 1
370
    18
  0
POLYLINE
  5
48A
330
174
100
AcDbEntity
  8
Ebene 1
 62
   179
420
  1709851
370
    18
100
AcDb2dPolyline
 66
     1
 10
0.0
 20
0.0
 30
0.0
  0
VERTEX
  5
48B
330
48A
100
AcDbEntity
  8
Ebene 1
 62
   179
420
  1709851
370
    18
100
AcDbVertex
100
AcDb2dVertex
 10
87.49577905798716
 20
-89.07621661184554
 30
0.0
  0
VERTEX
  5
48C
330
48A
100
AcDbEntity
  8
Ebene 1
 62
   179
420
  1709851
370
    18
100
AcDbVertex
100
AcDb2dVertex
 10
68.50934107445254
 20
-89.07621661184554
 30
0.0
  0
VERTEX
  5
48D
330
48A
100
AcDbEntity
  8
Ebene 1
 62
   179
420
  1709851
370
    18
100
AcDbVertex
100
AcDb2dVertex
 10
68.50934107445254
 20
-105.0783406312825
 30
0.0
  0
SEQEND
  5
48E
330
48A
100
AcDbEntity
  8
Ebene 1
370
    18
  0
POLYLINE
  5
48F
330
174
100
AcDbEntity
  8
Ebene 1
 62
   179
420
  1709851
370
    18
100
AcDb2dPolyline
 66
     1
 10
0.0
 20
0.0
 30
0.0
  0
VERTEX
  5
490
330
48F
100
AcDbEntity
  8
Ebene 1
 62
   179
420
  1709851
370
    18
100
AcDbVertex
100
AcDb2dVertex
 10
86.50100773662128
 20
-89.07621661184554
 30
0.0
  0
VERTEX
  5
491
330
48F
100
AcDbEntity
  8
Ebene 1
 62
   179
420
  1709851
370
    18
100
AcDbVertex
100
AcDb2dVertex
 10
86.50100773662128
 20
-105.0783406312825
 30
0.0
  0
SEQEND
  5
492
330
48F
100
AcDbEntity
  8
Ebene 1
370
    18
  0
POLYLINE
  5
493
330
174
100
AcDbEntity
  8
Ebene 1
 62
   179
420
  1709851
370
    18
100
AcDb2dPolyline
 66
     1
 10
0.0
 20
0.0
 30
0.0
  0
VERTEX
  5
494
330
493
100
AcDbEntity
  8
Ebene 1
 62
   179
420
  1709851
370
    18
100
AcDbVertex
100
AcDb2dVertex
 10
68.50934107445254
 20
-105.0783406312825
 30
0.0
  0
VERTEX
  5
495
330
493
100
AcDbEntity
  8
Ebene 1
 62
   179
420
  1709851
370
    18
100
AcDbVertex
100
AcDb2dVertex
 10
87.49577905798716
 20
-105.0783406312825
 30
0.0
  0
SEQEND
  5
496
330
493
100
AcDbEntity
  8
Ebene 1
370
    18
  0
POLYLINE
  5
497
330
174
100
AcDbEntity
  8
Ebene 1
 62
   179
420
  1709851
370
    18
100
AcDb2dPolyline
 66
     1
 10
0.0
 20
0.0
 30
0.0
  0
VERTEX
  5
498
330
497
100
AcDbEntity
  8
Ebene 1
 62
   179
420
  1709851
370
    18
100
AcDbVertex
100
AcDb2dVertex
 10
71.66315373642449
 20
-100.231091283536
 30
0.0
  0
VERTEX
  5
499
330
497
100
AcDbEntity
  8
Ebene 1
 62
   179
420
  1709851
370
    18
100
AcDbVertex
100
AcDb2dVertex
 10
71.66315373642449
 20
-99.3212415658815
 30
0.0
  0
SEQEND
  5
49A
330
497
100
AcDbEntity
  8
Ebene 1
370
    18
  0
POLYLINE
  5
49B
330
174
100
AcDbEntity
  8
Ebene 1
 62
   179
420
  1709851
370
    18
100
AcDb2dPolyline
 66
     1
 10
0.0
 20
0.0
 30
0.0
  0
VERTEX
  5
49C
330
49B
100
AcDbEntity
  8
Ebene 1
 62
   179
420
  1709851
370
    18
100
AcDbVertex
100
AcDb2dVertex
 10
71.66315373642449
 20
-99.3212415658815
 30
0.0
  0
VERTEX
  5
49D
330
49B
100
AcDbEntity
  8
Ebene 1
 62
   179
420
  1709851
370
    18
100
AcDbVertex
100
AcDb2dVertex
 10
71.62095131673018
 20
-99.10936819353863
 30
0.0
  0
VERTEX
  5
49E
330
49B
100
AcDbEntity
  8
Ebene 1
 62
   179
420
  1709851
370
    18
100
AcDbVertex
100
AcDb2dVertex
 10
71.49382729332446
 20
-98.94021400521287
 30
0.0
  0
VERTEX
  5
49F
330
49B
100
AcDbEntity
  8
Ebene 1
 62
   179
420
  1709851
370
    18
100
AcDbVertex
100
AcDb2dVertex
 10
71.32450085022444
 20
-98.81308998180715
 30
0.0
  0
VERTEX
  5
4A0
330
49B
100
AcDbEntity
  8
Ebene 1
 62
   179
420
  1709851
370
    18
100
AcDbVertex
100
AcDb2dVertex
 10
71.11279973265583
 20
-98.77071530733858
 30
0.0
  0
VERTEX
  5
4A1
330
49B
100
AcDbEntity
  8
Ebene 1
 62
   179
420
  1709851
370
    18
100
AcDbVertex
100
AcDb2dVertex
 10
70.90127086986149
 20
-98.81308998180715
 30
0.0
  0
VERTEX
  5
4A2
330
49B
100
AcDbEntity
  8
Ebene 1
 62
   179
420
  1709851
370
    18
100
AcDbVertex
100
AcDb2dVertex
 10
70.71075708952718
 20
-98.94021400521287
 30
0.0
  0
VERTEX
  5
4A3
330
49B
100
AcDbEntity
  8
Ebene 1
 62
   179
420
  1709851
370
    18
100
AcDbVertex
100
AcDb2dVertex
 10
70.60482040335575
 20
-99.10936819353863
 30
0.0
  0
VERTEX
  5
4A4
330
49B
100
AcDbEntity
  8
Ebene 1
 62
   179
420
  1709851
370
    18
100
AcDbVertex
100
AcDb2dVertex
 10
70.56261798366143
 20
-99.3212415658815
 30
0.0
  0
SEQEND
  5
4A5
330
49B
100
AcDbEntity
  8
Ebene 1
370
    18
  0
POLYLINE
  5
4A6
330
174
100
AcDbEntity
  8
Ebene 1
 62
   179
420
  1709851
370
    18
100
AcDb2dPolyline
 66
     1
 10
0.0
 20
0.0
 30
0.0
  0
VERTEX
  5
4A7
330
4A6
100
AcDbEntity
  8
Ebene 1
 62
   179
420
  1709851
370
    18
100
AcDbVertex
100
AcDb2dVertex
 10
70.56261798366143
 20
-99.3212415658815
 30
0.0
  0
VERTEX
  5
4A8
330
4A6
100
AcDbEntity
  8
Ebene 1
 62
   179
420
  1709851
370
    18
100
AcDbVertex
100
AcDb2dVertex
 10
70.56261798366143
 20
-100.231091283536
 30
0.0
  0
SEQEND
  5
4A9
330
4A6
100
AcDbEntity
  8
Ebene 1
370
    18
  0
POLYLINE
  5
4AA
330
174
100
AcDbEntity
  8
Ebene 1
 62
   179
420
  1709851
370
    18
100
AcDb2dPolyline
 66
     1
 10
0.0
 20
0.0
 30
0.0
  0
VERTEX
  5
4AB
330
4AA
100
AcDbEntity
  8
Ebene 1
 62
   179
420
  1709851
370
    18
100
AcDbVertex
100
AcDb2dVertex
 10
70.56261798366143
 20
-92.25156112060031
 30
0.0
  0
VERTEX
  5
4AC
330
4AA
100
AcDbEntity
  8
Ebene 1
 62
   179
420
  1709851
370
    18
100
AcDbVertex
100
AcDb2dVertex
 10
70.56261798366143
 20
-91.32000730138876
 30
0.0
  0
SEQEND
  5
4AD
330
4AA
100
AcDbEntity
  8
Ebene 1
370
    18
  0
POLYLINE
  5
4AE
330
174
100
AcDbEntity
  8
Ebene 1
 62
   179
420
  1709851
370
    18
100
AcDb2dPolyline
 66
     1
 10
0.0
 20
0.0
 30
0.0
  0
VERTEX
  5
4AF
330
4AE
100
AcDbEntity
  8
Ebene 1
 62
   179
420
  1709851
370
    18
100
AcDbVertex
100
AcDb2dVertex
 10
71.66315373642449
 20
-91.32000730138876
 30
0.0
  0
VERTEX
  5
4B0
330
4AE
100
AcDbEntity
  8
Ebene 1
 62
   179
420
  1709851
370
    18
100
AcDbVertex
100
AcDb2dVertex
 10
71.62095131673018
 20
-91.10847843859442
 30
0.0
  0
VERTEX
  5
4B1
330
4AE
100
AcDbEntity
  8
Ebene 1
 62
   179
420
  1709851
370
    18
100
AcDbVertex
100
AcDb2dVertex
 10
71.49382729332446
 20
-90.93897974072011
 30
0.0
  0
VERTEX
  5
4B2
330
4AE
100
AcDbEntity
  8
Ebene 1
 62
   179
420
  1709851
370
    18
100
AcDbVertex
100
AcDb2dVertex
 10
71.32450085022444
 20
-90.81220022686293
 30
0.0
  0
VERTEX
  5
4B3
330
4AE
100
AcDbEntity
  8
Ebene 1
 62
   179
420
  1709851
370
    18
100
AcDbVertex
100
AcDb2dVertex
 10
71.11279973265583
 20
-90.76982555239435
 30
0.0
  0
VERTEX
  5
4B4
330
4AE
100
AcDbEntity
  8
Ebene 1
 62
   179
420
  1709851
370
    18
100
AcDbVertex
100
AcDb2dVertex
 10
70.90127086986149
 20
-90.81220022686293
 30
0.0
  0
VERTEX
  5
4B5
330
4AE
100
AcDbEntity
  8
Ebene 1
 62
   179
420
  1709851
370
    18
100
AcDbVertex
100
AcDb2dVertex
 10
70.71075708952718
 20
-90.93897974072011
 30
0.0
  0
VERTEX
  5
4B6
330
4AE
100
AcDbEntity
  8
Ebene 1
 62
   179
420
  1709851
370
    18
100
AcDbVertex
100
AcDb2dVertex
 10
70.60482040335575
 20
-91.10847843859442
 30
0.0
  0
VERTEX
  5
4B7
330
4AE
100
AcDbEntity
  8
Ebene 1
 62
   179
420
  1709851
370
    18
100
AcDbVertex
100
AcDb2dVertex
 10
70.56261798366143
 20
-91.32000730138876
 30
0.0
  0
SEQEND
  5
4B8
330
4AE
100
AcDbEntity
  8
Ebene 1
370
    18
  0
POLYLINE
  5
4B9
330
174
100
AcDbEntity
  8
Ebene 1
 62
   179
420
  1709851
370
    18
100
AcDb2dPolyline
 66
     1
 10
0.0
 20
0.0
 30
0.0
  0
VERTEX
  5
4BA
330
4B9
100
AcDbEntity
  8
Ebene 1
 62
   179
420
  1709851
370
    18
100
AcDbVertex
100
AcDb2dVertex
 10
71.66315373642449
 20
-91.32000730138876
 30
0.0
  0
VERTEX
  5
4BB
330
4B9
100
AcDbEntity
  8
Ebene 1
 62
   179
420
  1709851
370
    18
100
AcDbVertex
100
AcDb2dVertex
 10
71.66315373642449
 20
-92.25156112060031
 30
0.0
  0
SEQEND
  5
4BC
330
4B9
100
AcDbEntity
  8
Ebene 1
370
    18
  0
POLYLINE
  5
4BD
330
174
100
AcDbEntity
  8
Ebene 1
 62
   179
420
  1709851
370
    18
100
AcDb2dPolyline
 66
     1
 10
0.0
 20
0.0
 30
0.0
  0
VERTEX
  5
4BE
330
4BD
100
AcDbEntity
  8
Ebene 1
 62
   179
420
  1709851
370
    18
100
AcDbVertex
100
AcDb2dVertex
 10
70.56261798366143
 20
-94.83366018679506
 30
0.0
  0
VERTEX
  5
4BF
330
4BD
100
AcDbEntity
  8
Ebene 1
 62
   179
420
  1709851
370
    18
100
AcDbVertex
100
AcDb2dVertex
 10
70.60482040335575
 20
-95.04553355913792
 30
0.0
  0
VERTEX
  5
4C0
330
4BD
100
AcDbEntity
  8
Ebene 1
 62
   179
420
  1709851
370
    18
100
AcDbVertex
100
AcDb2dVertex
 10
70.71075708952718
 20
-95.2146877474637
 30
0.0
  0
VERTEX
  5
4C1
330
4BD
100
AcDbEntity
  8
Ebene 1
 62
   179
420
  1709851
370
    18
100
AcDbVertex
100
AcDb2dVertex
 10
70.90127086986149
 20
-95.34181177086941
 30
0.0
  0
VERTEX
  5
4C2
330
4BD
100
AcDbEntity
  8
Ebene 1
 62
   179
420
  1709851
370
    18
100
AcDbVertex
100
AcDb2dVertex
 10
71.11279973265583
 20
-95.38418644533799
 30
0.0
  0
VERTEX
  5
4C3
330
4BD
100
AcDbEntity
  8
Ebene 1
 62
   179
420
  1709851
370
    18
100
AcDbVertex
100
AcDb2dVertex
 10
71.32450085022444
 20
-95.34181177086941
 30
0.0
  0
VERTEX
  5
4C4
330
4BD
100
AcDbEntity
  8
Ebene 1
 62
   179
420
  1709851
370
    18
100
AcDbVertex
100
AcDb2dVertex
 10
71.49382729332446
 20
-95.2146877474637
 30
0.0
  0
VERTEX
  5
4C5
330
4BD
100
AcDbEntity
  8
Ebene 1
 62
   179
420
  1709851
370
    18
100
AcDbVertex
100
AcDb2dVertex
 10
71.62095131673018
 20
-95.04553355913792
 30
0.0
  0
VERTEX
  5
4C6
330
4BD
100
AcDbEntity
  8
Ebene 1
 62
   179
420
  1709851
370
    18
100
AcDbVertex
100
AcDb2dVertex
 10
71.66315373642449
 20
-94.83366018679506
 30
0.0
  0
SEQEND
  5
4C7
330
4BD
100
AcDbEntity
  8
Ebene 1
370
    18
  0
POLYLINE
  5
4C8
330
174
100
AcDbEntity
  8
Ebene 1
 62
   179
420
  1709851
370
    18
100
AcDb2dPolyline
 66
     1
 10
0.0
 20
0.0
 30
0.0
  0
VERTEX
  5
4C9
330
4C8
100
AcDbEntity
  8
Ebene 1
 62
   179
420
  1709851
370
    18
100
AcDbVertex
100
AcDb2dVertex
 10
71.66315373642449
 20
-93.90245087713203
 30
0.0
  0
VERTEX
  5
4CA
330
4C8
100
AcDbEntity
  8
Ebene 1
 62
   179
420
  1709851
370
    18
100
AcDbVertex
100
AcDb2dVertex
 10
71.66315373642449
 20
-94.83366018679506
 30
0.0
  0
SEQEND
  5
4CB
330
4C8
100
AcDbEntity
  8
Ebene 1
370
    18
  0
POLYLINE
  5
4CC
330
174
100
AcDbEntity
  8
Ebene 1
 62
   179
420
  1709851
370
    18
100
AcDb2dPolyline
 66
     1
 10
0.0
 20
0.0
 30
0.0
  0
VERTEX
  5
4CD
330
4CC
100
AcDbEntity
  8
Ebene 1
 62
   179
420
  1709851
370
    18
100
AcDbVertex
100
AcDb2dVertex
 10
70.56261798366143
 20
-94.83366018679506
 30
0.0
  0
VERTEX
  5
4CE
330
4CC
100
AcDbEntity
  8
Ebene 1
 62
   179
420
  1709851
370
    18
100
AcDbVertex
100
AcDb2dVertex
 10
70.56261798366143
 20
-93.90245087713203
 30
0.0
  0
SEQEND
  5
4CF
330
4CC
100
AcDbEntity
  8
Ebene 1
370
    18
  0
POLYLINE
  5
4D0
330
174
100
AcDbEntity
  8
Ebene 1
 62
   179
420
  1709851
370
    18
100
AcDb2dPolyline
 66
     1
 10
0.0
 20
0.0
 30
0.0
  0
VERTEX
  5
4D1
330
4D0
100
AcDbEntity
  8
Ebene 1
 62
   179
420
  1709851
370
    18
100
AcDbVertex
100
AcDb2dVertex
 10
70.56261798366143
 20
-101.9033406320763
 30
0.0
  0
VERTEX
  5
4D2
330
4D0
100
AcDbEntity
  8
Ebene 1
 62
   179
420
  1709851
370
    18
100
AcDbVertex
100
AcDb2dVertex
 10
70.56261798366143
 20
-102.8348944512878
 30
0.0
  0
SEQEND
  5
4D3
330
4D0
100
AcDbEntity
  8
Ebene 1
370
    18
  0
POLYLINE
  5
4D4
330
174
100
AcDbEntity
  8
Ebene 1
 62
   179
420
  1709851
370
    18
100
AcDb2dPolyline
 66
     1
 10
0.0
 20
0.0
 30
0.0
  0
VERTEX
  5
4D5
330
4D4
100
AcDbEntity
  8
Ebene 1
 62
   179
420
  1709851
370
    18
100
AcDbVertex
100
AcDb2dVertex
 10
70.56261798366143
 20
-102.8348944512878
 30
0.0
  0
VERTEX
  5
4D6
330
4D4
100
AcDbEntity
  8
Ebene 1
 62
   179
420
  1709851
370
    18
100
AcDbVertex
100
AcDb2dVertex
 10
70.60482040335575
 20
-103.0464233140821
 30
0.0
  0
VERTEX
  5
4D7
330
4D4
100
AcDbEntity
  8
Ebene 1
 62
   179
420
  1709851
370
    18
100
AcDbVertex
100
AcDb2dVertex
 10
70.71075708952718
 20
-103.2155775024079
 30
0.0
  0
VERTEX
  5
4D8
330
4D4
100
AcDbEntity
  8
Ebene 1
 62
   179
420
  1709851
370
    18
100
AcDbVertex
100
AcDb2dVertex
 10
70.90127086986149
 20
-103.3427015258136
 30
0.0
  0
VERTEX
  5
4D9
330
4D4
100
AcDbEntity
  8
Ebene 1
 62
   179
420
  1709851
370
    18
100
AcDbVertex
100
AcDb2dVertex
 10
71.11279973265583
 20
-103.3850762002822
 30
0.0
  0
VERTEX
  5
4DA
330
4D4
100
AcDbEntity
  8
Ebene 1
 62
   179
420
  1709851
370
    18
100
AcDbVertex
100
AcDb2dVertex
 10
71.32450085022444
 20
-103.3427015258136
 30
0.0
  0
VERTEX
  5
4DB
330
4D4
100
AcDbEntity
  8
Ebene 1
 62
   179
420
  1709851
370
    18
100
AcDbVertex
100
AcDb2dVertex
 10
71.49382729332446
 20
-103.2155775024079
 30
0.0
  0
VERTEX
  5
4DC
330
4D4
100
AcDbEntity
  8
Ebene 1
 62
   179
420
  1709851
370
    18
100
AcDbVertex
100
AcDb2dVertex
 10
71.62095131673018
 20
-103.0254082316221
 30
0.0
  0
VERTEX
  5
4DD
330
4D4
100
AcDbEntity
  8
Ebene 1
 62
   179
420
  1709851
370
    18
100
AcDbVertex
100
AcDb2dVertex
 10
71.66315373642449
 20
-102.8348944512878
 30
0.0
  0
VERTEX
  5
4DE
330
4D4
100
AcDbEntity
  8
Ebene 1
 62
   179
420
  1709851
370
    18
100
AcDbVertex
100
AcDb2dVertex
 10
71.66315373642449
 20
-101.9033406320763
 30
0.0
  0
SEQEND
  5
4DF
330
4D4
100
AcDbEntity
  8
Ebene 1
370
    18
  0
SPLINE
  5
4E0
330
174
100
AcDbEntity
  8
Ebene 1
 62
   179
420
  1709851
370
    18
100
AcDbSpline
210
0.0
220
0.0
230
1.0
 70
     8
 71
     3
 72
    23
 73
    19
 74
     0
 42
0.0000000001
 43
0.0000000001
 40
0.0
 40
0.0
 40
0.0
 40
0.0
 40
1.0
 40
1.0
 40
1.0
 40
2.0
 40
2.0
 40
2.0
 40
3.0
 40
3.0
 40
3.0
 40
4.0
 40
4.0
 40
4.0
 40
5.0
 40
5.0
 40
5.0
 40
6.0
 40
6.0
 40
6.0
 40
6.0
 10
72.10774330879599
 20
-101.0778957538104
 30
0.0
 10
72.10774330879599
 20
-101.0778957538104
 30
0.0
 10
72.0865559715617
 20
-101.0145059968818
 30
0.0
 10
72.0865559715617
 20
-101.0145059968818
 30
0.0
 10
72.06536863432741
 20
-100.4853393303474
 30
0.0
 10
71.62095131673018
 20
-100.0829521776702
 30
0.0
 10
71.11279973265583
 20
-100.0829521776702
 30
0.0
 10
70.56261798366143
 20
-100.0829521776702
 30
0.0
 10
70.11802841128994
 20
-100.527714004816
 30
0.0
 10
70.11802841128994
 20
-101.0778957538104
 30
0.0
 10
70.11802841128994
 20
-101.6070624203448
 30
0.0
 10
70.56261798366143
 20
-102.0728393299505
 30
0.0
 10
71.11279973265583
 20
-102.0728393299505
 30
0.0
 10
71.66315373642449
 20
-102.0728393299505
 30
0.0
 10
72.10774330879599
 20
-101.6070624203448
 30
0.0
 10
72.10774330879599
 20
-101.0778957538104
 30
0.0
 10
72.10774330879599
 20
-101.0568806713504
 30
0.0
 10
72.10774330879599
 20
-101.0355210793418
 30
0.0
 10
72.0865559715617
 20
-101.0145059968818
 30
0.0
  0
SPLINE
  5
4E1
330
174
100
AcDbEntity
  8
Ebene 1
 62
   179
420
  1709851
370
    18
100
AcDbSpline
210
0.0
220
0.0
230
1.0
 70
     8
 71
     3
 72
    23
 73
    19
 74
     0
 42
0.0000000001
 43
0.0000000001
 40
0.0
 40
0.0
 40
0.0
 40
0.0
 40
1.0
 40
1.0
 40
1.0
 40
2.0
 40
2.0
 40
2.0
 40
3.0
 40
3.0
 40
3.0
 40
4.0
 40
4.0
 40
4.0
 40
5.0
 40
5.0
 40
5.0
 40
6.0
 40
6.0
 40
6.0
 40
6.0
 10
71.40925019916158
 20
-101.0778957538104
 30
0.0
 10
71.40925019916158
 20
-101.0778957538104
 30
0.0
 10
71.40925019916158
 20
-101.0568806713504
 30
0.0
 10
71.40925019916158
 20
-101.0568806713504
 30
0.0
 10
71.3880628619273
 20
-100.8873819734761
 30
0.0
 10
71.26111109329584
 20
-100.7816175420789
 30
0.0
 10
71.11279973265583
 20
-100.7816175420789
 30
0.0
 10
70.9434732895558
 20
-100.7816175420789
 30
0.0
 10
70.81652152092434
 20
-100.9087415654846
 30
0.0
 10
70.81652152092434
 20
-101.0778957538104
 30
0.0
 10
70.81652152092434
 20
-101.2260348596761
 30
0.0
 10
70.9434732895558
 20
-101.3741739655419
 30
0.0
 10
71.11279973265583
 20
-101.3741739655419
 30
0.0
 10
71.26111109329584
 20
-101.3741739655419
 30
0.0
 10
71.40925019916158
 20
-101.2260348596761
 30
0.0
 10
71.40925019916158
 20
-101.0778957538104
 30
0.0
 10
71.40925019916158
 20
-101.0778957538104
 30
0.0
 10
71.40925019916158
 20
-101.0568806713504
 30
0.0
 10
71.40925019916158
 20
-101.0568806713504
 30
0.0
  0
SPLINE
  5
4E2
330
174
100
AcDbEntity
  8
Ebene 1
 62
   179
420
  1709851
370
    18
100
AcDbSpline
210
0.0
220
0.0
230
1.0
 70
     8
 71
     3
 72
    23
 73
    19
 74
     0
 42
0.0000000001
 43
0.0000000001
 40
0.0
 40
0.0
 40
0.0
 40
0.0
 40
1.0
 40
1.0
 40
1.0
 40
2.0
 40
2.0
 40
2.0
 40
3.0
 40
3.0
 40
3.0
 40
4.0
 40
4.0
 40
4.0
 40
5.0
 40
5.0
 40
5.0
 40
6.0
 40
6.0
 40
6.0
 40
6.0
 10
72.10774330879599
 20
-93.07700599886617
 30
0.0
 10
72.10774330879599
 20
-93.07700599886617
 30
0.0
 10
72.0865559715617
 20
-93.01327173238904
 30
0.0
 10
72.0865559715617
 20
-93.01327173238904
 30
0.0
 10
72.06536863432741
 20
-92.48410506585468
 30
0.0
 10
71.62095131673018
 20
-92.08206242272601
 30
0.0
 10
71.11279973265583
 20
-92.08206242272601
 30
0.0
 10
70.56261798366143
 20
-92.08206242272601
 30
0.0
 10
70.11802841128994
 20
-92.52647974032324
 30
0.0
 10
70.11802841128994
 20
-93.07700599886617
 30
0.0
 10
70.11802841128994
 20
-93.60617266540055
 30
0.0
 10
70.56261798366143
 20
-94.0716050654578
 30
0.0
 10
71.11279973265583
 20
-94.0716050654578
 30
0.0
 10
71.66315373642449
 20
-94.0716050654578
 30
0.0
 10
72.10774330879599
 20
-93.60617266540055
 30
0.0
 10
72.10774330879599
 20
-93.07700599886617
 30
0.0
 10
72.10774330879599
 20
-93.05564640685762
 30
0.0
 10
72.10774330879599
 20
-93.0346313243976
 30
0.0
 10
72.0865559715617
 20
-93.01327173238904
 30
0.0
  0
SPLINE
  5
4E3
330
174
100
AcDbEntity
  8
Ebene 1
 62
   179
420
  1709851
370
    18
100
AcDbSpline
210
0.0
220
0.0
230
1.0
 70
     8
 71
     3
 72
    23
 73
    19
 74
     0
 42
0.0000000001
 43
0.0000000001
 40
0.0
 40
0.0
 40
0.0
 40
0.0
 40
1.0
 40
1.0
 40
1.0
 40
2.0
 40
2.0
 40
2.0
 40
3.0
 40
3.0
 40
3.0
 40
4.0
 40
4.0
 40
4.0
 40
5.0
 40
5.0
 40
5.0
 40
6.0
 40
6.0
 40
6.0
 40
6.0
 10
71.40925019916158
 20
-93.07700599886617
 30
0.0
 10
71.40925019916158
 20
-93.07700599886617
 30
0.0
 10
71.40925019916158
 20
-93.05564640685762
 30
0.0
 10
71.40925019916158
 20
-93.05564640685762
 30
0.0
 10
71.3880628619273
 20
-92.88649221853186
 30
0.0
 10
71.26111109329584
 20
-92.78072778713468
 30
0.0
 10
71.11279973265583
 20
-92.78072778713468
 30
0.0
 10
70.9434732895558
 20
-92.78072778713468
 30
0.0
 10
70.81652152092434
 20
-92.90750730099188
 30
0.0
 10
70.81652152092434
 20
-93.07700599886617
 30
0.0
 10
70.81652152092434
 20
-93.22514510473191
 30
0.0
 10
70.9434732895558
 20
-93.37328421059766
 30
0.0
 10
71.11279973265583
 20
-93.37328421059766
 30
0.0
 10
71.26111109329584
 20
-93.37328421059766
 30
0.0
 10
71.40925019916158
 20
-93.22514510473191
 30
0.0
 10
71.40925019916158
 20
-93.07700599886617
 30
0.0
 10
71.40925019916158
 20
-93.07700599886617
 30
0.0
 10
71.40925019916158
 20
-93.05564640685762
 30
0.0
 10
71.40925019916158
 20
-93.05564640685762
 30
0.0
  0
POLYLINE
  5
4E4
330
174
100
AcDbEntity
  8
Ebene 1
 62
   179
420
  1709851
370
    18
100
AcDb2dPolyline
 66
     1
 10
0.0
 20
0.0
 30
0.0
  0
VERTEX
  5
4E5
330
4E4
100
AcDbEntity
  8
Ebene 1
 62
   179
420
  1709851
370
    18
100
AcDbVertex
100
AcDb2dVertex
 10
76.61616751556818
 20
-89.07656112139406
 30
0.0
  0
VERTEX
  5
4E6
330
4E4
100
AcDbEntity
  8
Ebene 1
 62
   179
420
  1709851
370
    18
100
AcDbVertex
100
AcDb2dVertex
 10
71.49382729332446
 20
-87.46770152978239
 30
0.0
  0
SEQEND
  5
4E7
330
4E4
100
AcDbEntity
  8
Ebene 1
370
    18
  0
POLYLINE
  5
4E8
330
174
100
AcDbEntity
  8
Ebene 1
 62
   179
420
  1709851
370
    18
100
AcDb2dPolyline
 66
     1
 10
0.0
 20
0.0
 30
0.0
  0
VERTEX
  5
4E9
330
4E8
100
AcDbEntity
  8
Ebene 1
 62
   179
420
  1709851
370
    18
100
AcDbVertex
100
AcDb2dVertex
 10
79.00809731097715
 20
-229.7286132238179
 30
0.0
  0
VERTEX
  5
4EA
330
4E8
100
AcDbEntity
  8
Ebene 1
 62
   179
420
  1709851
370
    18
100
AcDbVertex
100
AcDb2dVertex
 10
87.49595131276143
 20
-227.0621093182345
 30
0.0
  0
SEQEND
  5
4EB
330
4E8
100
AcDbEntity
  8
Ebene 1
370
    18
  0
POLYLINE
  5
4EC
330
174
100
AcDbEntity
  8
Ebene 1
 62
   179
420
  1709851
370
    18
100
AcDb2dPolyline
 66
     1
 10
0.0
 20
0.0
 30
0.0
  0
VERTEX
  5
4ED
330
4EC
100
AcDbEntity
  8
Ebene 1
 62
   179
420
  1709851
370
    18
100
AcDbVertex
100
AcDb2dVertex
 10
87.49595131276143
 20
-227.0621093182345
 30
0.0
  0
VERTEX
  5
4EE
330
4EC
100
AcDbEntity
  8
Ebene 1
 62
   179
420
  1709851
370
    18
100
AcDbVertex
100
AcDb2dVertex
 10
71.49382729332446
 20
-222.0660318455252
 30
0.0
  0
VERTEX
  5
4EF
330
4EC
100
AcDbEntity
  8
Ebene 1
 62
   179
420
  1709851
370
    18
100
AcDbVertex
100
AcDb2dVertex
 10
87.49595131276143
 20
-217.07133241101
 30
0.0
  0
SEQEND
  5
4F0
330
4EC
100
AcDbEntity
  8
Ebene 1
370
    18
  0
POLYLINE
  5
4F1
330
174
100
AcDbEntity
  8
Ebene 1
 62
   179
420
  1709851
370
    18
100
AcDb2dPolyline
 66
     1
 10
0.0
 20
0.0
 30
0.0
  0
VERTEX
  5
4F2
330
4F1
100
AcDbEntity
  8
Ebene 1
 62
   179
420
  1709851
370
    18
100
AcDbVertex
100
AcDb2dVertex
 10
87.49595131276143
 20
-217.07133241101
 30
0.0
  0
VERTEX
  5
4F3
330
4F1
100
AcDbEntity
  8
Ebene 1
 62
   179
420
  1709851
370
    18
100
AcDbVertex
100
AcDb2dVertex
 10
71.49382729332446
 20
-212.0759439573977
 30
0.0
  0
VERTEX
  5
4F4
330
4F1
100
AcDbEntity
  8
Ebene 1
 62
   179
420
  1709851
370
    18
100
AcDbVertex
100
AcDb2dVertex
 10
87.49595131276143
 20
-207.0591959117769
 30
0.0
  0
SEQEND
  5
4F5
330
4F1
100
AcDbEntity
  8
Ebene 1
370
    18
  0
POLYLINE
  5
4F6
330
174
100
AcDbEntity
  8
Ebene 1
 62
   179
420
  1709851
370
    18
100
AcDb2dPolyline
 66
     1
 10
0.0
 20
0.0
 30
0.0
  0
VERTEX
  5
4F7
330
4F6
100
AcDbEntity
  8
Ebene 1
 62
   179
420
  1709851
370
    18
100
AcDbVertex
100
AcDb2dVertex
 10
87.49595131276143
 20
-207.0591959117769
 30
0.0
  0
VERTEX
  5
4F8
330
4F6
100
AcDbEntity
  8
Ebene 1
 62
   179
420
  1709851
370
    18
100
AcDbVertex
100
AcDb2dVertex
 10
71.49382729332446
 20
-202.0638074581646
 30
0.0
  0
VERTEX
  5
4F9
330
4F6
100
AcDbEntity
  8
Ebene 1
 62
   179
420
  1709851
370
    18
100
AcDbVertex
100
AcDb2dVertex
 10
87.49595131276143
 20
-197.0684190045523
 30
0.0
  0
SEQEND
  5
4FA
330
4F6
100
AcDbEntity
  8
Ebene 1
370
    18
  0
POLYLINE
  5
4FB
330
174
100
AcDbEntity
  8
Ebene 1
 62
   179
420
  1709851
370
    18
100
AcDb2dPolyline
 66
     1
 10
0.0
 20
0.0
 30
0.0
  0
VERTEX
  5
4FC
330
4FB
100
AcDbEntity
  8
Ebene 1
 62
   179
420
  1709851
370
    18
100
AcDbVertex
100
AcDb2dVertex
 10
87.49595131276143
 20
-165.0641709656784
 30
0.0
  0
VERTEX
  5
4FD
330
4FB
100
AcDbEntity
  8
Ebene 1
 62
   179
420
  1709851
370
    18
100
AcDbVertex
100
AcDb2dVertex
 10
71.49382729332446
 20
-160.0694715311632
 30
0.0
  0
VERTEX
  5
4FE
330
4FB
100
AcDbEntity
  8
Ebene 1
 62
   179
420
  1709851
370
    18
100
AcDbVertex
100
AcDb2dVertex
 10
87.49595131276143
 20
-155.0740830775509
 30
0.0
  0
SEQEND
  5
4FF
330
4FB
100
AcDbEntity
  8
Ebene 1
370
    18
  0
POLYLINE
  5
500
330
174
100
AcDbEntity
  8
Ebene 1
 62
   179
420
  1709851
370
    18
100
AcDb2dPolyline
 66
     1
 10
0.0
 20
0.0
 30
0.0
  0
VERTEX
  5
501
330
500
100
AcDbEntity
  8
Ebene 1
 62
   179
420
  1709851
370
    18
100
AcDbVertex
100
AcDb2dVertex
 10
87.49595131276143
 20
-155.0740830775509
 30
0.0
  0
VERTEX
  5
502
330
500
100
AcDbEntity
  8
Ebene 1
 62
   179
420
  1709851
370
    18
100
AcDbVertex
100
AcDb2dVertex
 10
71.49382729332446
 20
-150.0786946239387
 30
0.0
  0
VERTEX
  5
503
330
500
100
AcDbEntity
  8
Ebene 1
 62
   179
420
  1709851
370
    18
100
AcDbVertex
100
AcDb2dVertex
 10
87.49595131276143
 20
-145.0621188330921
 30
0.0
  0
SEQEND
  5
504
330
500
100
AcDbEntity
  8
Ebene 1
370
    18
  0
POLYLINE
  5
505
330
174
100
AcDbEntity
  8
Ebene 1
 62
   179
420
  1709851
370
    18
100
AcDb2dPolyline
 66
     1
 10
0.0
 20
0.0
 30
0.0
  0
VERTEX
  5
506
330
505
100
AcDbEntity
  8
Ebene 1
 62
   179
420
  1709851
370
    18
100
AcDbVertex
100
AcDb2dVertex
 10
87.49595131276143
 20
-145.0621188330921
 30
0.0
  0
VERTEX
  5
507
330
505
100
AcDbEntity
  8
Ebene 1
 62
   179
420
  1709851
370
    18
100
AcDbVertex
100
AcDb2dVertex
 10
71.49382729332446
 20
-140.0670748890284
 30
0.0
  0
VERTEX
  5
508
330
505
100
AcDbEntity
  8
Ebene 1
 62
   179
420
  1709851
370
    18
100
AcDbVertex
100
AcDb2dVertex
 10
87.49595131276143
 20
-135.0716864354161
 30
0.0
  0
SEQEND
  5
509
330
505
100
AcDbEntity
  8
Ebene 1
370
    18
  0
POLYLINE
  5
50A
330
174
100
AcDbEntity
  8
Ebene 1
 62
   179
420
  1709851
370
    18
100
AcDb2dPolyline
 66
     1
 10
0.0
 20
0.0
 30
0.0
  0
VERTEX
  5
50B
330
50A
100
AcDbEntity
  8
Ebene 1
 62
   179
420
  1709851
370
    18
100
AcDbVertex
100
AcDb2dVertex
 10
87.49595131276143
 20
-135.0716864354161
 30
0.0
  0
VERTEX
  5
50C
330
50A
100
AcDbEntity
  8
Ebene 1
 62
   179
420
  1709851
370
    18
100
AcDbVertex
100
AcDb2dVertex
 10
71.49382729332446
 20
-130.0762979818039
 30
0.0
  0
VERTEX
  5
50D
330
50A
100
AcDbEntity
  8
Ebene 1
 62
   179
420
  1709851
370
    18
100
AcDbVertex
100
AcDb2dVertex
 10
87.49595131276143
 20
-125.0809095281916
 30
0.0
  0
SEQEND
  5
50E
330
50A
100
AcDbEntity
  8
Ebene 1
370
    18
  0
POLYLINE
  5
50F
330
174
100
AcDbEntity
  8
Ebene 1
 62
   179
420
  1709851
370
    18
100
AcDb2dPolyline
 66
     1
 10
0.0
 20
0.0
 30
0.0
  0
VERTEX
  5
510
330
50F
100
AcDbEntity
  8
Ebene 1
 62
   179
420
  1709851
370
    18
100
AcDbVertex
100
AcDb2dVertex
 10
87.49595131276143
 20
-125.0809095281916
 30
0.0
  0
VERTEX
  5
511
330
50F
100
AcDbEntity
  8
Ebene 1
 62
   179
420
  1709851
370
    18
100
AcDbVertex
100
AcDb2dVertex
 10
71.49382729332446
 20
-120.0645059921193
 30
0.0
  0
VERTEX
  5
512
330
50F
100
AcDbEntity
  8
Ebene 1
 62
   179
420
  1709851
370
    18
100
AcDbVertex
100
AcDb2dVertex
 10
87.49595131276143
 20
-115.069117538507
 30
0.0
  0
SEQEND
  5
513
330
50F
100
AcDbEntity
  8
Ebene 1
370
    18
  0
POLYLINE
  5
514
330
174
100
AcDbEntity
  8
Ebene 1
 62
   179
420
  1709851
370
    18
100
AcDb2dPolyline
 66
     1
 10
0.0
 20
0.0
 30
0.0
  0
VERTEX
  5
515
330
514
100
AcDbEntity
  8
Ebene 1
 62
   179
420
  1709851
370
    18
100
AcDbVertex
100
AcDb2dVertex
 10
87.49595131276143
 20
-115.069117538507
 30
0.0
  0
VERTEX
  5
516
330
514
100
AcDbEntity
  8
Ebene 1
 62
   179
420
  1709851
370
    18
100
AcDbVertex
100
AcDb2dVertex
 10
71.49382729332446
 20
-110.0737290848948
 30
0.0
  0
VERTEX
  5
517
330
514
100
AcDbEntity
  8
Ebene 1
 62
   179
420
  1709851
370
    18
100
AcDbVertex
100
AcDb2dVertex
 10
87.49595131276143
 20
-105.0783406312825
 30
0.0
  0
SEQEND
  5
518
330
514
100
AcDbEntity
  8
Ebene 1
370
    18
  0
POLYLINE
  5
519
330
174
100
AcDbEntity
  8
Ebene 1
 62
   179
420
  1709851
370
    18
100
AcDb2dPolyline
 66
     1
 10
0.0
 20
0.0
 30
0.0
  0
VERTEX
  5
51A
330
519
100
AcDbEntity
  8
Ebene 1
 62
   179
420
  1709851
370
    18
100
AcDbVertex
100
AcDb2dVertex
 10
71.49382729332446
 20
-87.46770152978239
 30
0.0
  0
VERTEX
  5
51B
330
519
100
AcDbEntity
  8
Ebene 1
 62
   179
420
  1709851
370
    18
100
AcDbVertex
100
AcDb2dVertex
 10
87.49595131276143
 20
-82.47231307617012
 30
0.0
  0
SEQEND
  5
51C
330
519
100
AcDbEntity
  8
Ebene 1
370
    18
  0
POLYLINE
  5
51D
330
174
100
AcDbEntity
  8
Ebene 1
 62
   179
420
  1709851
370
    18
100
AcDb2dPolyline
 66
     1
 10
0.0
 20
0.0
 30
0.0
  0
VERTEX
  5
51E
330
51D
100
AcDbEntity
  8
Ebene 1
 62
   179
420
  1709851
370
    18
100
AcDbVertex
100
AcDb2dVertex
 10
87.49595131276143
 20
-82.47231307617012
 30
0.0
  0
VERTEX
  5
51F
330
51D
100
AcDbEntity
  8
Ebene 1
 62
   179
420
  1709851
370
    18
100
AcDbVertex
100
AcDb2dVertex
 10
71.49382729332446
 20
-77.47709687733212
 30
0.0
  0
VERTEX
  5
520
330
51D
100
AcDbEntity
  8
Ebene 1
 62
   179
420
  1709851
370
    18
100
AcDbVertex
100
AcDb2dVertex
 10
87.49595131276143
 20
-72.48170842371985
 30
0.0
  0
SEQEND
  5
521
330
51D
100
AcDbEntity
  8
Ebene 1
370
    18
  0
POLYLINE
  5
522
330
174
100
AcDbEntity
  8
Ebene 1
 62
   179
420
  1709851
370
    18
100
AcDb2dPolyline
 66
     1
 10
0.0
 20
0.0
 30
0.0
  0
VERTEX
  5
523
330
522
100
AcDbEntity
  8
Ebene 1
 62
   179
420
  1709851
370
    18
100
AcDbVertex
100
AcDb2dVertex
 10
61.31270886053988
 20
-135.6008531019505
 30
0.0
  0
VERTEX
  5
524
330
522
100
AcDbEntity
  8
Ebene 1
 62
   179
420
  1709851
370
    18
100
AcDbVertex
100
AcDb2dVertex
 10
61.16456975467414
 20
-135.6432277764191
 30
0.0
  0
VERTEX
  5
525
330
522
100
AcDbEntity
  8
Ebene 1
 62
   179
420
  1709851
370
    18
100
AcDbVertex
100
AcDb2dVertex
 10
61.05863306850271
 20
-135.7489922078162
 30
0.0
  0
VERTEX
  5
526
330
522
100
AcDbEntity
  8
Ebene 1
 62
   179
420
  1709851
370
    18
100
AcDbVertex
100
AcDb2dVertex
 10
61.0164306488084
 20
-135.897131313682
 30
0.0
  0
SEQEND
  5
527
330
522
100
AcDbEntity
  8
Ebene 1
370
    18
  0
POLYLINE
  5
528
330
174
100
AcDbEntity
  8
Ebene 1
 62
   179
420
  1709851
370
    18
100
AcDb2dPolyline
 66
     1
 10
0.0
 20
0.0
 30
0.0
  0
VERTEX
  5
529
330
528
100
AcDbEntity
  8
Ebene 1
 62
   179
420
  1709851
370
    18
100
AcDbVertex
100
AcDb2dVertex
 10
62.22290308774289
 20
-135.8337415567534
 30
0.0
  0
VERTEX
  5
52A
330
528
100
AcDbEntity
  8
Ebene 1
 62
   179
420
  1709851
370
    18
100
AcDbVertex
100
AcDb2dVertex
 10
61.46084796640562
 20
-135.8337415567534
 30
0.0
  0
SEQEND
  5
52B
330
528
100
AcDbEntity
  8
Ebene 1
370
    18
  0
POLYLINE
  5
52C
330
174
100
AcDbEntity
  8
Ebene 1
 62
   179
420
  1709851
370
    18
100
AcDb2dPolyline
 66
     1
 10
0.0
 20
0.0
 30
0.0
  0
VERTEX
  5
52D
330
52C
100
AcDbEntity
  8
Ebene 1
 62
   179
420
  1709851
370
    18
100
AcDbVertex
100
AcDb2dVertex
 10
61.31270886053988
 20
-135.6008531019505
 30
0.0
  0
VERTEX
  5
52E
330
52C
100
AcDbEntity
  8
Ebene 1
 62
   179
420
  1709851
370
    18
100
AcDbVertex
100
AcDb2dVertex
 10
62.22290308774289
 20
-135.6008531019505
 30
0.0
  0
SEQEND
  5
52F
330
52C
100
AcDbEntity
  8
Ebene 1
370
    18
  0
POLYLINE
  5
530
330
174
100
AcDbEntity
  8
Ebene 1
 62
   179
420
  1709851
370
    18
100
AcDb2dPolyline
 66
     1
 10
0.0
 20
0.0
 30
0.0
  0
VERTEX
  5
531
330
530
100
AcDbEntity
  8
Ebene 1
 62
   179
420
  1709851
370
    18
100
AcDbVertex
100
AcDb2dVertex
 10
61.24914684883702
 20
-136.0452704195477
 30
0.0
  0
VERTEX
  5
532
330
530
100
AcDbEntity
  8
Ebene 1
 62
   179
420
  1709851
370
    18
100
AcDbVertex
100
AcDb2dVertex
 10
61.27033418607131
 20
-137.9924383878109
 30
0.0
  0
SEQEND
  5
533
330
530
100
AcDbEntity
  8
Ebene 1
370
    18
  0
POLYLINE
  5
534
330
174
100
AcDbEntity
  8
Ebene 1
 62
   179
420
  1709851
370
    18
100
AcDb2dPolyline
 66
     1
 10
0.0
 20
0.0
 30
0.0
  0
VERTEX
  5
535
330
534
100
AcDbEntity
  8
Ebene 1
 62
   179
420
  1709851
370
    18
100
AcDbVertex
100
AcDb2dVertex
 10
61.0164306488084
 20
-137.9924383878109
 30
0.0
  0
VERTEX
  5
536
330
534
100
AcDbEntity
  8
Ebene 1
 62
   179
420
  1709851
370
    18
100
AcDbVertex
100
AcDb2dVertex
 10
61.0164306488084
 20
-135.897131313682
 30
0.0
  0
SEQEND
  5
537
330
534
100
AcDbEntity
  8
Ebene 1
370
    18
  0
POLYLINE
  5
538
330
174
100
AcDbEntity
  8
Ebene 1
 62
   179
420
  1709851
370
    18
100
AcDb2dPolyline
 66
     1
 10
0.0
 20
0.0
 30
0.0
  0
VERTEX
  5
539
330
538
100
AcDbEntity
  8
Ebene 1
 62
   179
420
  1709851
370
    18
100
AcDbVertex
100
AcDb2dVertex
 10
61.46084796640562
 20
-135.8337415567534
 30
0.0
  0
VERTEX
  5
53A
330
538
100
AcDbEntity
  8
Ebene 1
 62
   179
420
  1709851
370
    18
100
AcDbVertex
100
AcDb2dVertex
 10
61.33389619777417
 20
-135.8757717216734
 30
0.0
  0
VERTEX
  5
53B
330
538
100
AcDbEntity
  8
Ebene 1
 62
   179
420
  1709851
370
    18
100
AcDbVertex
100
AcDb2dVertex
 10
61.24914684883702
 20
-135.9818806626191
 30
0.0
  0
VERTEX
  5
53C
330
538
100
AcDbEntity
  8
Ebene 1
 62
   179
420
  1709851
370
    18
100
AcDbVertex
100
AcDb2dVertex
 10
61.24914684883702
 20
-136.0452704195477
 30
0.0
  0
SEQEND
  5
53D
330
538
100
AcDbEntity
  8
Ebene 1
370
    18
  0
POLYLINE
  5
53E
330
174
100
AcDbEntity
  8
Ebene 1
 62
   179
420
  1709851
370
    18
100
AcDb2dPolyline
 66
     1
 10
0.0
 20
0.0
 30
0.0
  0
VERTEX
  5
53F
330
53E
100
AcDbEntity
  8
Ebene 1
 62
   179
420
  1709851
370
    18
100
AcDbVertex
100
AcDb2dVertex
 10
61.27033418607131
 20
-137.9924383878109
 30
0.0
  0
VERTEX
  5
540
330
53E
100
AcDbEntity
  8
Ebene 1
 62
   179
420
  1709851
370
    18
100
AcDbVertex
100
AcDb2dVertex
 10
61.0164306488084
 20
-137.9924383878109
 30
0.0
  0
SEQEND
  5
541
330
53E
100
AcDbEntity
  8
Ebene 1
370
    18
  0
POLYLINE
  5
542
330
174
100
AcDbEntity
  8
Ebene 1
 62
   179
420
  1709851
370
    18
100
AcDb2dPolyline
 66
     1
 10
0.0
 20
0.0
 30
0.0
  0
VERTEX
  5
543
330
542
100
AcDbEntity
  8
Ebene 1
 62
   179
420
  1709851
370
    18
100
AcDbVertex
100
AcDb2dVertex
 10
63.13309731494589
 20
-135.6008531019505
 30
0.0
  0
VERTEX
  5
544
330
542
100
AcDbEntity
  8
Ebene 1
 62
   179
420
  1709851
370
    18
100
AcDbVertex
100
AcDb2dVertex
 10
63.28123642081164
 20
-135.6432277764191
 30
0.0
  0
VERTEX
  5
545
330
542
100
AcDbEntity
  8
Ebene 1
 62
   179
420
  1709851
370
    18
100
AcDbVertex
100
AcDb2dVertex
 10
63.42937552667738
 20
-135.6218681844105
 30
0.0
  0
VERTEX
  5
546
330
542
100
AcDbEntity
  8
Ebene 1
 62
   179
420
  1709851
370
    18
100
AcDbVertex
100
AcDb2dVertex
 10
63.49293753838024
 20
-135.6008531019505
 30
0.0
  0
SEQEND
  5
547
330
542
100
AcDbEntity
  8
Ebene 1
370
    18
  0
POLYLINE
  5
548
330
174
100
AcDbEntity
  8
Ebene 1
 62
   179
420
  1709851
370
    18
100
AcDb2dPolyline
 66
     1
 10
0.0
 20
0.0
 30
0.0
  0
VERTEX
  5
549
330
548
100
AcDbEntity
  8
Ebene 1
 62
   179
420
  1709851
370
    18
100
AcDbVertex
100
AcDb2dVertex
 10
63.51412487561453
 20
-144.7448255389006
 30
0.0
  0
VERTEX
  5
54A
330
548
100
AcDbEntity
  8
Ebene 1
 62
   179
420
  1709851
370
    18
100
AcDbVertex
100
AcDb2dVertex
 10
63.30242375804593
 20
-144.8505899702978
 30
0.0
  0
VERTEX
  5
54B
330
548
100
AcDbEntity
  8
Ebene 1
 62
   179
420
  1709851
370
    18
100
AcDbVertex
100
AcDb2dVertex
 10
63.17529973464021
 20
-145.0197441586236
 30
0.0
  0
VERTEX
  5
54C
330
548
100
AcDbEntity
  8
Ebene 1
 62
   179
420
  1709851
370
    18
100
AcDbVertex
100
AcDb2dVertex
 10
63.11190997771161
 20
-145.2316175309664
 30
0.0
  0
VERTEX
  5
54D
330
548
100
AcDbEntity
  8
Ebene 1
 62
   179
420
  1709851
370
    18
100
AcDbVertex
100
AcDb2dVertex
 10
63.13309731494589
 20
-145.4645059857693
 30
0.0
  0
VERTEX
  5
54E
330
548
100
AcDbEntity
  8
Ebene 1
 62
   179
420
  1709851
370
    18
100
AcDbVertex
100
AcDb2dVertex
 10
63.21767440910878
 20
-145.6550197661036
 30
0.0
  0
VERTEX
  5
54F
330
548
100
AcDbEntity
  8
Ebene 1
 62
   179
420
  1709851
370
    18
100
AcDbVertex
100
AcDb2dVertex
 10
63.38700085220881
 20
-145.8241739544294
 30
0.0
  0
VERTEX
  5
550
330
548
100
AcDbEntity
  8
Ebene 1
 62
   179
420
  1709851
370
    18
100
AcDbVertex
100
AcDb2dVertex
 10
63.51412487561453
 20
-145.866548628898
 30
0.0
  0
SEQEND
  5
551
330
548
100
AcDbEntity
  8
Ebene 1
370
    18
  0
POLYLINE
  5
552
330
174
100
AcDbEntity
  8
Ebene 1
 62
   179
420
  1709851
370
    18
100
AcDb2dPolyline
 66
     1
 10
0.0
 20
0.0
 30
0.0
  0
VERTEX
  5
553
330
552
100
AcDbEntity
  8
Ebene 1
 62
   179
420
  1709851
370
    18
100
AcDbVertex
100
AcDb2dVertex
 10
63.23886174634306
 20
-141.4640611082972
 30
0.0
  0
VERTEX
  5
554
330
552
100
AcDbEntity
  8
Ebene 1
 62
   179
420
  1709851
370
    18
100
AcDbVertex
100
AcDb2dVertex
 10
63.28123642081164
 20
-141.633215296623
 30
0.0
  0
VERTEX
  5
555
330
552
100
AcDbEntity
  8
Ebene 1
 62
   179
420
  1709851
370
    18
100
AcDbVertex
100
AcDb2dVertex
 10
63.40818818944309
 20
-141.7389797280201
 30
0.0
  0
VERTEX
  5
556
330
552
100
AcDbEntity
  8
Ebene 1
 62
   179
420
  1709851
370
    18
100
AcDbVertex
100
AcDb2dVertex
 10
63.51412487561453
 20
-141.7603393200287
 30
0.0
  0
SEQEND
  5
557
330
552
100
AcDbEntity
  8
Ebene 1
370
    18
  0
POLYLINE
  5
558
330
174
100
AcDbEntity
  8
Ebene 1
 62
   179
420
  1709851
370
    18
100
AcDb2dPolyline
 66
     1
 10
0.0
 20
0.0
 30
0.0
  0
VERTEX
  5
559
330
558
100
AcDbEntity
  8
Ebene 1
 62
   179
420
  1709851
370
    18
100
AcDbVertex
100
AcDb2dVertex
 10
63.23886174634306
 20
-141.4640611082972
 30
0.0
  0
VERTEX
  5
55A
330
558
100
AcDbEntity
  8
Ebene 1
 62
   179
420
  1709851
370
    18
100
AcDbVertex
100
AcDb2dVertex
 10
63.23886174634306
 20
-138.2253268426138
 30
0.0
  0
SEQEND
  5
55B
330
558
100
AcDbEntity
  8
Ebene 1
370
    18
  0
POLYLINE
  5
55C
330
174
100
AcDbEntity
  8
Ebene 1
 62
   179
420
  1709851
370
    18
100
AcDb2dPolyline
 66
     1
 10
0.0
 20
0.0
 30
0.0
  0
VERTEX
  5
55D
330
55C
100
AcDbEntity
  8
Ebene 1
 62
   179
420
  1709851
370
    18
100
AcDbVertex
100
AcDb2dVertex
 10
63.51412487561453
 20
-137.9290486308823
 30
0.0
  0
VERTEX
  5
55E
330
55C
100
AcDbEntity
  8
Ebene 1
 62
   179
420
  1709851
370
    18
100
AcDbVertex
100
AcDb2dVertex
 10
63.36581351497452
 20
-137.9924383878109
 30
0.0
  0
VERTEX
  5
55F
330
55C
100
AcDbEntity
  8
Ebene 1
 62
   179
420
  1709851
370
    18
100
AcDbVertex
100
AcDb2dVertex
 10
63.26004908357735
 20
-138.1195624112166
 30
0.0
  0
VERTEX
  5
560
330
55C
100
AcDbEntity
  8
Ebene 1
 62
   179
420
  1709851
370
    18
100
AcDbVertex
100
AcDb2dVertex
 10
63.23886174634306
 20
-138.2253268426138
 30
0.0
  0
SEQEND
  5
561
330
55C
100
AcDbEntity
  8
Ebene 1
370
    18
  0
POLYLINE
  5
562
330
174
100
AcDbEntity
  8
Ebene 1
 62
   179
420
  1709851
370
    18
100
AcDb2dPolyline
 66
     1
 10
0.0
 20
0.0
 30
0.0
  0
VERTEX
  5
563
330
562
100
AcDbEntity
  8
Ebene 1
 62
   179
420
  1709851
370
    18
100
AcDbVertex
100
AcDb2dVertex
 10
63.97972953044604
 20
-138.056172654288
 30
0.0
  0
VERTEX
  5
564
330
562
100
AcDbEntity
  8
Ebene 1
 62
   179
420
  1709851
370
    18
100
AcDbVertex
100
AcDb2dVertex
 10
64.0432915421489
 20
-137.9080335484223
 30
0.0
  0
VERTEX
  5
565
330
562
100
AcDbEntity
  8
Ebene 1
 62
   179
420
  1709851
370
    18
100
AcDbVertex
100
AcDb2dVertex
 10
64.0432915421489
 20
-137.8656588739537
 30
0.0
  0
SEQEND
  5
566
330
562
100
AcDbEntity
  8
Ebene 1
370
    18
  0
POLYLINE
  5
567
330
174
100
AcDbEntity
  8
Ebene 1
 62
   179
420
  1709851
370
    18
100
AcDb2dPolyline
 66
     1
 10
0.0
 20
0.0
 30
0.0
  0
VERTEX
  5
568
330
567
100
AcDbEntity
  8
Ebene 1
 62
   179
420
  1709851
370
    18
100
AcDbVertex
100
AcDb2dVertex
 10
63.81040308734601
 20
-135.9395059881506
 30
0.0
  0
VERTEX
  5
569
330
567
100
AcDbEntity
  8
Ebene 1
 62
   179
420
  1709851
370
    18
100
AcDbVertex
100
AcDb2dVertex
 10
63.76802841287744
 20
-135.8547566392134
 30
0.0
  0
VERTEX
  5
56A
330
567
100
AcDbEntity
  8
Ebene 1
 62
   179
420
  1709851
370
    18
100
AcDbVertex
100
AcDb2dVertex
 10
63.70446640117458
 20
-135.8337415567534
 30
0.0
  0
SEQEND
  5
56B
330
567
100
AcDbEntity
  8
Ebene 1
370
    18
  0
POLYLINE
  5
56C
330
174
100
AcDbEntity
  8
Ebene 1
 62
   179
420
  1709851
370
    18
100
AcDb2dPolyline
 66
     1
 10
0.0
 20
0.0
 30
0.0
  0
VERTEX
  5
56D
330
56C
100
AcDbEntity
  8
Ebene 1
 62
   179
420
  1709851
370
    18
100
AcDbVertex
100
AcDb2dVertex
 10
63.51412487561453
 20
-136.3415486312792
 30
0.0
  0
VERTEX
  5
56E
330
56C
100
AcDbEntity
  8
Ebene 1
 62
   179
420
  1709851
370
    18
100
AcDbVertex
100
AcDb2dVertex
 10
63.30242375804593
 20
-136.4473130626764
 30
0.0
  0
VERTEX
  5
56F
330
56C
100
AcDbEntity
  8
Ebene 1
 62
   179
420
  1709851
370
    18
100
AcDbVertex
100
AcDb2dVertex
 10
63.17529973464021
 20
-136.6168117605507
 30
0.0
  0
VERTEX
  5
570
330
56C
100
AcDbEntity
  8
Ebene 1
 62
   179
420
  1709851
370
    18
100
AcDbVertex
100
AcDb2dVertex
 10
63.11190997771161
 20
-136.8497002153536
 30
0.0
  0
VERTEX
  5
571
330
56C
100
AcDbEntity
  8
Ebene 1
 62
   179
420
  1709851
370
    18
100
AcDbVertex
100
AcDb2dVertex
 10
63.13309731494589
 20
-137.0612290781479
 30
0.0
  0
VERTEX
  5
572
330
56C
100
AcDbEntity
  8
Ebene 1
 62
   179
420
  1709851
370
    18
100
AcDbVertex
100
AcDb2dVertex
 10
63.21767440910878
 20
-137.2727579409422
 30
0.0
  0
VERTEX
  5
573
330
56C
100
AcDbEntity
  8
Ebene 1
 62
   179
420
  1709851
370
    18
100
AcDbVertex
100
AcDb2dVertex
 10
63.38700085220881
 20
-137.4212415563565
 30
0.0
  0
VERTEX
  5
574
330
56C
100
AcDbEntity
  8
Ebene 1
 62
   179
420
  1709851
370
    18
100
AcDbVertex
100
AcDb2dVertex
 10
63.51412487561453
 20
-137.4632717212766
 30
0.0
  0
SEQEND
  5
575
330
56C
100
AcDbEntity
  8
Ebene 1
370
    18
  0
POLYLINE
  5
576
330
174
100
AcDbEntity
  8
Ebene 1
 62
   179
420
  1709851
370
    18
100
AcDb2dPolyline
 66
     1
 10
0.0
 20
0.0
 30
0.0
  0
VERTEX
  5
577
330
576
100
AcDbEntity
  8
Ebene 1
 62
   179
420
  1709851
370
    18
100
AcDbVertex
100
AcDb2dVertex
 10
63.81040308734601
 20
-136.1086601764763
 30
0.0
  0
VERTEX
  5
578
330
576
100
AcDbEntity
  8
Ebene 1
 62
   179
420
  1709851
370
    18
100
AcDbVertex
100
AcDb2dVertex
 10
63.81040308734601
 20
-135.9395059881506
 30
0.0
  0
SEQEND
  5
579
330
576
100
AcDbEntity
  8
Ebene 1
370
    18
  0
POLYLINE
  5
57A
330
174
100
AcDbEntity
  8
Ebene 1
 62
   179
420
  1709851
370
    18
100
AcDb2dPolyline
 66
     1
 10
0.0
 20
0.0
 30
0.0
  0
VERTEX
  5
57B
330
57A
100
AcDbEntity
  8
Ebene 1
 62
   179
420
  1709851
370
    18
100
AcDbVertex
100
AcDb2dVertex
 10
63.51412487561453
 20
-135.9395059881506
 30
0.0
  0
VERTEX
  5
57C
330
57A
100
AcDbEntity
  8
Ebene 1
 62
   179
420
  1709851
370
    18
100
AcDbVertex
100
AcDb2dVertex
 10
63.74684107564315
 20
-136.4686726546849
 30
0.0
  0
SEQEND
  5
57D
330
57A
100
AcDbEntity
  8
Ebene 1
370
    18
  0
POLYLINE
  5
57E
330
174
100
AcDbEntity
  8
Ebene 1
 62
   179
420
  1709851
370
    18
100
AcDb2dPolyline
 66
     1
 10
0.0
 20
0.0
 30
0.0
  0
VERTEX
  5
57F
330
57E
100
AcDbEntity
  8
Ebene 1
 62
   179
420
  1709851
370
    18
100
AcDbVertex
100
AcDb2dVertex
 10
63.70446640117458
 20
-135.897131313682
 30
0.0
  0
VERTEX
  5
580
330
57E
100
AcDbEntity
  8
Ebene 1
 62
   179
420
  1709851
370
    18
100
AcDbVertex
100
AcDb2dVertex
 10
63.97972953044604
 20
-136.5110473291535
 30
0.0
  0
SEQEND
  5
581
330
57E
100
AcDbEntity
  8
Ebene 1
370
    18
  0
POLYLINE
  5
582
330
174
100
AcDbEntity
  8
Ebene 1
 62
   179
420
  1709851
370
    18
100
AcDb2dPolyline
 66
     1
 10
0.0
 20
0.0
 30
0.0
  0
VERTEX
  5
583
330
582
100
AcDbEntity
  8
Ebene 1
 62
   179
420
  1709851
370
    18
100
AcDbVertex
100
AcDb2dVertex
 10
64.0432915421489
 20
-135.897131313682
 30
0.0
  0
VERTEX
  5
584
330
582
100
AcDbEntity
  8
Ebene 1
 62
   179
420
  1709851
370
    18
100
AcDbVertex
100
AcDb2dVertex
 10
64.0432915421489
 20
-137.8656588739537
 30
0.0
  0
SEQEND
  5
585
330
582
100
AcDbEntity
  8
Ebene 1
370
    18
  0
POLYLINE
  5
586
330
174
100
AcDbEntity
  8
Ebene 1
 62
   179
420
  1709851
370
    18
100
AcDb2dPolyline
 66
     1
 10
0.0
 20
0.0
 30
0.0
  0
VERTEX
  5
587
330
586
100
AcDbEntity
  8
Ebene 1
 62
   179
420
  1709851
370
    18
100
AcDbVertex
100
AcDb2dVertex
 10
63.70446640117458
 20
-146.3109659464952
 30
0.0
  0
VERTEX
  5
588
330
586
100
AcDbEntity
  8
Ebene 1
 62
   179
420
  1709851
370
    18
100
AcDbVertex
100
AcDb2dVertex
 10
63.97972953044604
 20
-145.6973944405722
 30
0.0
  0
VERTEX
  5
589
330
586
100
AcDbEntity
  8
Ebene 1
 62
   179
420
  1709851
370
    18
100
AcDbVertex
100
AcDb2dVertex
 10
63.97972953044604
 20
-136.5110473291535
 30
0.0
  0
SEQEND
  5
58A
330
586
100
AcDbEntity
  8
Ebene 1
370
    18
  0
POLYLINE
  5
58B
330
174
100
AcDbEntity
  8
Ebene 1
 62
   179
420
  1709851
370
    18
100
AcDb2dPolyline
 66
     1
 10
0.0
 20
0.0
 30
0.0
  0
VERTEX
  5
58C
330
58B
100
AcDbEntity
  8
Ebene 1
 62
   179
420
  1709851
370
    18
100
AcDbVertex
100
AcDb2dVertex
 10
63.70446640117458
 20
-146.3109659464952
 30
0.0
  0
VERTEX
  5
58D
330
58B
100
AcDbEntity
  8
Ebene 1
 62
   179
420
  1709851
370
    18
100
AcDbVertex
100
AcDb2dVertex
 10
63.51412487561453
 20
-146.3109659464952
 30
0.0
  0
SEQEND
  5
58E
330
58B
100
AcDbEntity
  8
Ebene 1
370
    18
  0
POLYLINE
  5
58F
330
174
100
AcDbEntity
  8
Ebene 1
 62
   179
420
  1709851
370
    18
100
AcDb2dPolyline
 66
     1
 10
0.0
 20
0.0
 30
0.0
  0
VERTEX
  5
590
330
58F
100
AcDbEntity
  8
Ebene 1
 62
   179
420
  1709851
370
    18
100
AcDbVertex
100
AcDb2dVertex
 10
63.51412487561453
 20
-146.2475761895666
 30
0.0
  0
VERTEX
  5
591
330
58F
100
AcDbEntity
  8
Ebene 1
 62
   179
420
  1709851
370
    18
100
AcDbVertex
100
AcDb2dVertex
 10
63.74684107564315
 20
-145.7394246054922
 30
0.0
  0
SEQEND
  5
592
330
58F
100
AcDbEntity
  8
Ebene 1
370
    18
  0
POLYLINE
  5
593
330
174
100
AcDbEntity
  8
Ebene 1
 62
   179
420
  1709851
370
    18
100
AcDb2dPolyline
 66
     1
 10
0.0
 20
0.0
 30
0.0
  0
VERTEX
  5
594
330
593
100
AcDbEntity
  8
Ebene 1
 62
   179
420
  1709851
370
    18
100
AcDbVertex
100
AcDb2dVertex
 10
63.74684107564315
 20
-145.7394246054922
 30
0.0
  0
VERTEX
  5
595
330
593
100
AcDbEntity
  8
Ebene 1
 62
   179
420
  1709851
370
    18
100
AcDbVertex
100
AcDb2dVertex
 10
63.74684107564315
 20
-136.4686726546849
 30
0.0
  0
SEQEND
  5
596
330
593
100
AcDbEntity
  8
Ebene 1
370
    18
  0
POLYLINE
  5
597
330
174
100
AcDbEntity
  8
Ebene 1
 62
   179
420
  1709851
370
    18
100
AcDb2dPolyline
 66
     1
 10
0.0
 20
0.0
 30
0.0
  0
VERTEX
  5
598
330
597
100
AcDbEntity
  8
Ebene 1
 62
   179
420
  1709851
370
    18
100
AcDbVertex
100
AcDb2dVertex
 10
63.51412487561453
 20
-135.897131313682
 30
0.0
  0
VERTEX
  5
599
330
597
100
AcDbEntity
  8
Ebene 1
 62
   179
420
  1709851
370
    18
100
AcDbVertex
100
AcDb2dVertex
 10
63.51412487561453
 20
-146.3109659464952
 30
0.0
  0
SEQEND
  5
59A
330
597
100
AcDbEntity
  8
Ebene 1
370
    18
  0
POLYLINE
  5
59B
330
174
100
AcDbEntity
  8
Ebene 1
 62
   179
420
  1709851
370
    18
100
AcDb2dPolyline
 66
     1
 10
0.0
 20
0.0
 30
0.0
  0
VERTEX
  5
59C
330
59B
100
AcDbEntity
  8
Ebene 1
 62
   179
420
  1709851
370
    18
100
AcDbVertex
100
AcDb2dVertex
 10
63.70446640117458
 20
-135.8337415567534
 30
0.0
  0
VERTEX
  5
59D
330
59B
100
AcDbEntity
  8
Ebene 1
 62
   179
420
  1709851
370
    18
100
AcDbVertex
100
AcDb2dVertex
 10
63.49293753838024
 20
-135.8337415567534
 30
0.0
  0
SEQEND
  5
59E
330
59B
100
AcDbEntity
  8
Ebene 1
370
    18
  0
POLYLINE
  5
59F
330
174
100
AcDbEntity
  8
Ebene 1
 62
   179
420
  1709851
370
    18
100
AcDb2dPolyline
 66
     1
 10
0.0
 20
0.0
 30
0.0
  0
VERTEX
  5
5A0
330
59F
100
AcDbEntity
  8
Ebene 1
 62
   179
420
  1709851
370
    18
100
AcDbVertex
100
AcDb2dVertex
 10
63.13309731494589
 20
-135.8337415567534
 30
0.0
  0
VERTEX
  5
5A1
330
59F
100
AcDbEntity
  8
Ebene 1
 62
   179
420
  1709851
370
    18
100
AcDbVertex
100
AcDb2dVertex
 10
63.28123642081164
 20
-135.897131313682
 30
0.0
  0
VERTEX
  5
5A2
330
59F
100
AcDbEntity
  8
Ebene 1
 62
   179
420
  1709851
370
    18
100
AcDbVertex
100
AcDb2dVertex
 10
63.42937552667738
 20
-135.8757717216734
 30
0.0
  0
VERTEX
  5
5A3
330
59F
100
AcDbEntity
  8
Ebene 1
 62
   179
420
  1709851
370
    18
100
AcDbVertex
100
AcDb2dVertex
 10
63.49293753838024
 20
-135.8337415567534
 30
0.0
  0
SEQEND
  5
5A4
330
59F
100
AcDbEntity
  8
Ebene 1
370
    18
  0
POLYLINE
  5
5A5
330
174
100
AcDbEntity
  8
Ebene 1
 62
   179
420
  1709851
370
    18
100
AcDb2dPolyline
 66
     1
 10
0.0
 20
0.0
 30
0.0
  0
VERTEX
  5
5A6
330
5A5
100
AcDbEntity
  8
Ebene 1
 62
   179
420
  1709851
370
    18
100
AcDbVertex
100
AcDb2dVertex
 10
63.13309731494589
 20
-135.8337415567534
 30
0.0
  0
VERTEX
  5
5A7
330
5A5
100
AcDbEntity
  8
Ebene 1
 62
   179
420
  1709851
370
    18
100
AcDbVertex
100
AcDb2dVertex
 10
62.22290308774289
 20
-135.8337415567534
 30
0.0
  0
SEQEND
  5
5A8
330
5A5
100
AcDbEntity
  8
Ebene 1
370
    18
  0
POLYLINE
  5
5A9
330
174
100
AcDbEntity
  8
Ebene 1
 62
   179
420
  1709851
370
    18
100
AcDb2dPolyline
 66
     1
 10
0.0
 20
0.0
 30
0.0
  0
VERTEX
  5
5AA
330
5A9
100
AcDbEntity
  8
Ebene 1
 62
   179
420
  1709851
370
    18
100
AcDbVertex
100
AcDb2dVertex
 10
62.22290308774289
 20
-135.6008531019505
 30
0.0
  0
VERTEX
  5
5AB
330
5A9
100
AcDbEntity
  8
Ebene 1
 62
   179
420
  1709851
370
    18
100
AcDbVertex
100
AcDb2dVertex
 10
63.13309731494589
 20
-135.6008531019505
 30
0.0
  0
SEQEND
  5
5AC
330
5A9
100
AcDbEntity
  8
Ebene 1
370
    18
  0
POLYLINE
  5
5AD
330
174
100
AcDbEntity
  8
Ebene 1
 62
   179
420
  1709851
370
    18
100
AcDb2dPolyline
 66
     1
 10
0.0
 20
0.0
 30
0.0
  0
VERTEX
  5
5AE
330
5AD
100
AcDbEntity
  8
Ebene 1
 62
   179
420
  1709851
370
    18
100
AcDbVertex
100
AcDb2dVertex
 10
63.49293753838024
 20
-135.6008531019505
 30
0.0
  0
VERTEX
  5
5AF
330
5AD
100
AcDbEntity
  8
Ebene 1
 62
   179
420
  1709851
370
    18
100
AcDbVertex
100
AcDb2dVertex
 10
63.74684107564315
 20
-135.6008531019505
 30
0.0
  0
SEQEND
  5
5B0
330
5AD
100
AcDbEntity
  8
Ebene 1
370
    18
  0
POLYLINE
  5
5B1
330
174
100
AcDbEntity
  8
Ebene 1
 62
   179
420
  1709851
370
    18
100
AcDb2dPolyline
 66
     1
 10
0.0
 20
0.0
 30
0.0
  0
VERTEX
  5
5B2
330
5B1
100
AcDbEntity
  8
Ebene 1
 62
   179
420
  1709851
370
    18
100
AcDbVertex
100
AcDb2dVertex
 10
64.0432915421489
 20
-135.897131313682
 30
0.0
  0
VERTEX
  5
5B3
330
5B1
100
AcDbEntity
  8
Ebene 1
 62
   179
420
  1709851
370
    18
100
AcDbVertex
100
AcDb2dVertex
 10
64.00091686768033
 20
-135.7489922078162
 30
0.0
  0
VERTEX
  5
5B4
330
5B1
100
AcDbEntity
  8
Ebene 1
 62
   179
420
  1709851
370
    18
100
AcDbVertex
100
AcDb2dVertex
 10
63.8949801815089
 20
-135.6218681844105
 30
0.0
  0
VERTEX
  5
5B5
330
5B1
100
AcDbEntity
  8
Ebene 1
 62
   179
420
  1709851
370
    18
100
AcDbVertex
100
AcDb2dVertex
 10
63.74684107564315
 20
-135.6008531019505
 30
0.0
  0
SEQEND
  5
5B6
330
5B1
100
AcDbEntity
  8
Ebene 1
370
    18
  0
POLYLINE
  5
5B7
330
174
100
AcDbEntity
  8
Ebene 1
 62
   179
420
  1709851
370
    18
100
AcDb2dPolyline
 66
     1
 10
0.0
 20
0.0
 30
0.0
  0
VERTEX
  5
5B8
330
5B7
100
AcDbEntity
  8
Ebene 1
 62
   179
420
  1709851
370
    18
100
AcDbVertex
100
AcDb2dVertex
 10
63.70446640117458
 20
-135.897131313682
 30
0.0
  0
VERTEX
  5
5B9
330
5B7
100
AcDbEntity
  8
Ebene 1
 62
   179
420
  1709851
370
    18
100
AcDbVertex
100
AcDb2dVertex
 10
63.51412487561453
 20
-135.897131313682
 30
0.0
  0
SEQEND
  5
5BA
330
5B7
100
AcDbEntity
  8
Ebene 1
370
    18
  0
POLYLINE
  5
5BB
330
174
100
AcDbEntity
  8
Ebene 1
 62
   179
420
  1709851
370
    18
100
AcDb2dPolyline
 66
     1
 10
0.0
 20
0.0
 30
0.0
  0
VERTEX
  5
5BC
330
5BB
100
AcDbEntity
  8
Ebene 1
 62
   179
420
  1709851
370
    18
100
AcDbVertex
100
AcDb2dVertex
 10
61.0164306488084
 20
-134.1825072906731
 30
0.0
  0
VERTEX
  5
5BD
330
5BB
100
AcDbEntity
  8
Ebene 1
 62
   179
420
  1709851
370
    18
100
AcDbVertex
100
AcDb2dVertex
 10
61.05863306850271
 20
-134.3306463965389
 30
0.0
  0
VERTEX
  5
5BE
330
5BB
100
AcDbEntity
  8
Ebene 1
 62
   179
420
  1709851
370
    18
100
AcDbVertex
100
AcDb2dVertex
 10
61.16456975467414
 20
-134.4577704199446
 30
0.0
  0
VERTEX
  5
5BF
330
5BB
100
AcDbEntity
  8
Ebene 1
 62
   179
420
  1709851
370
    18
100
AcDbVertex
100
AcDb2dVertex
 10
61.31270886053988
 20
-134.4787855024046
 30
0.0
  0
SEQEND
  5
5C0
330
5BB
100
AcDbEntity
  8
Ebene 1
370
    18
  0
POLYLINE
  5
5C1
330
174
100
AcDbEntity
  8
Ebene 1
 62
   179
420
  1709851
370
    18
100
AcDb2dPolyline
 66
     1
 10
0.0
 20
0.0
 30
0.0
  0
VERTEX
  5
5C2
330
5C1
100
AcDbEntity
  8
Ebene 1
 62
   179
420
  1709851
370
    18
100
AcDbVertex
100
AcDb2dVertex
 10
62.22290308774289
 20
-134.2462415571503
 30
0.0
  0
VERTEX
  5
5C3
330
5C1
100
AcDbEntity
  8
Ebene 1
 62
   179
420
  1709851
370
    18
100
AcDbVertex
100
AcDb2dVertex
 10
61.46084796640562
 20
-134.2462415571503
 30
0.0
  0
SEQEND
  5
5C4
330
5C1
100
AcDbEntity
  8
Ebene 1
370
    18
  0
POLYLINE
  5
5C5
330
174
100
AcDbEntity
  8
Ebene 1
370
     0
100
AcDb2dPolyline
 66
     1
 10
0.0
 20
0.0
 30
0.0
  0
VERTEX
  5
5C6
330
5C5
100
AcDbEntity
  8
Ebene 1
370
     0
100
AcDbVertex
100
AcDb2dVertex
 10
57.50277776340209
 20
-229.9725259841736
 30
0.0
  0
VERTEX
  5
5C7
330
5C5
100
AcDbEntity
  8
Ebene 1
370
     0
100
AcDbVertex
100
AcDb2dVertex
 10
151.5886799751237
 20
-229.9725259841736
 30
0.0
  0
VERTEX
  5
5C8
330
5C5
100
AcDbEntity
  8
Ebene 1
370
     0
100
AcDbVertex
100
AcDb2dVertex
 10
151.5886799751237
 20
-62.2265204380024
 30
0.0
  0
VERTEX
  5
5C9
330
5C5
100
AcDbEntity
  8
Ebene 1
370
     0
100
AcDbVertex
100
AcDb2dVertex
 10
57.50277776340209
 20
-62.2265204380024
 30
0.0
  0
VERTEX
  5
5CA
330
5C5
100
AcDbEntity
  8
Ebene 1
370
     0
100
AcDbVertex
100
AcDb2dVertex
 10
57.50277776340209
 20
-229.9725259841736
 30
0.0
  0
SEQEND
  5
5CB
330
5C5
100
AcDbEntity
  8
Ebene 1
370
     0
  0
ENDBLK
  5
177
330
174
100
AcDbEntity
  8
0
100
AcDbBlockEnd
  0
ENDSEC
  0
SECTION
  2
ENTITIES
  0
INSERT
  5
3D
330
1F
100
AcDbEntity
  8
Ebene 1
100
AcDbBlockReference
  2
block 2
 10
0.0
 20
0.0
 30
0.0
  0
POLYLINE
  5
C7
330
1F
100
AcDbEntity
  8
Ebene 1
370
     0
100
AcDb2dPolyline
 66
     1
 10
0.0
 20
0.0
 30
0.0
  0
VERTEX
  5
C8
330
C7
100
AcDbEntity
  8
Ebene 1
370
     0
100
AcDbVertex
100
AcDb2dVertex
 10
61.5032226408742
 20
-136.0662855020077
 30
0.0
  0
VERTEX
  5
C9
330
C7
100
AcDbEntity
  8
Ebene 1
370
     0
100
AcDbVertex
100
AcDb2dVertex
 10
61.5032226408742
 20
-229.7286132238179
 30
0.0
  0
VERTEX
  5
CA
330
C7
100
AcDbEntity
  8
Ebene 1
370
     0
100
AcDbVertex
100
AcDb2dVertex
 10
63.11190997771161
 20
-136.0662855020077
 30
0.0
  0
VERTEX
  5
CB
330
C7
100
AcDbEntity
  8
Ebene 1
370
     0
100
AcDbVertex
100
AcDb2dVertex
 10
61.5032226408742
 20
-136.0662855020077
 30
0.0
  0
SEQEND
  5
CC
330
C7
100
AcDbEntity
  8
Ebene 1
370
     0
  0
HATCH
  5
CD
330
1F
100
AcDbEntity
  8
Ebene 1
 62
   254
420
 14803683
100
AcDbHatch
 10
0.0
 20
0.0
 30
0.0
210
0.0
220
0.0
230
1.0
  2
SOLID
 70
     1
 71
     0
 91
        1
 92
        1
 93
        3
 72
     1
 10
61.5032226408742
 20
-136.0662855020077
 11
61.5032226408742
 21
-229.7286132238179
 72
     1
 10
61.5032226408742
 20
-229.7286132238179
 11
63.11190997771161
 21
-136.0662855020077
 72
     1
 10
63.11190997771161
 20
-136.0662855020077
 11
61.5032226408742
 21
-136.0662855020077
 97
        0
 75
     2
 76
     1
 98
        0
  0
POLYLINE
  5
CE
330
1F
100
AcDbEntity
  8
Ebene 1
370
     0
100
AcDb2dPolyline
 66
     1
 10
0.0
 20
0.0
 30
0.0
  0
VERTEX
  5
CF
330
CE
100
AcDbEntity
  8
Ebene 1
370
     0
100
AcDbVertex
100
AcDb2dVertex
 10
61.5032226408742
 20
-229.7286132238179
 30
0.0
  0
VERTEX
  5
D0
330
CE
100
AcDbEntity
  8
Ebene 1
370
     0
100
AcDbVertex
100
AcDb2dVertex
 10
63.11190997771161
 20
-229.7286132238179
 30
0.0
  0
VERTEX
  5
D1
330
CE
100
AcDbEntity
  8
Ebene 1
370
     0
100
AcDbVertex
100
AcDb2dVertex
 10
63.11190997771161
 20
-136.0662855020077
 30
0.0
  0
VERTEX
  5
D2
330
CE
100
AcDbEntity
  8
Ebene 1
370
     0
100
AcDbVertex
100
AcDb2dVertex
 10
61.5032226408742
 20
-229.7286132238179
 30
0.0
  0
SEQEND
  5
D3
330
CE
100
AcDbEntity
  8
Ebene 1
370
     0
  0
HATCH
  5
D4
330
1F
100
AcDbEntity
  8
Ebene 1
 62
   254
420
 14803683
100
AcDbHatch
 10
0.0
 20
0.0
 30
0.0
210
0.0
220
0.0
230
1.0
  2
SOLID
 70
     1
 71
     0
 91
        1
 92
        1
 93
        3
 72
     1
 10
61.5032226408742
 20
-229.7286132238179
 11
63.11190997771161
 21
-229.7286132238179
 72
     1
 10
63.11190997771161
 20
-229.7286132238179
 11
63.11190997771161
 21
-136.0662855020077
 72
     1
 10
63.11190997771161
 20
-136.0662855020077
 11
61.5032226408742
 21
-229.7286132238179
 97
        0
 75
     2
 76
     1
 98
        0
  0
POLYLINE
  5
D5
330
1F
100
AcDbEntity
  8
Ebene 1
370
     0
100
AcDb2dPolyline
 66
     1
 10
0.0
 20
0.0
 30
0.0
  0
VERTEX
  5
D6
330
D5
100
AcDbEntity
  8
Ebene 1
370
     0
100
AcDbVertex
100
AcDb2dVertex
 10
63.11190997771161
 20
-62.46991643403531
 30
0.0
  0
VERTEX
  5
D7
330
D5
100
AcDbEntity
  8
Ebene 1
370
     0
100
AcDbVertex
100
AcDb2dVertex
 10
61.5032226408742
 20
-134.076742859276
 30
0.0
  0
VERTEX
  5
D8
330
D5
100
AcDbEntity
  8
Ebene 1
370
     0
100
AcDbVertex
100
AcDb2dVertex
 10
61.5032226408742
 20
-62.46991643403531
 30
0.0
  0
VERTEX
  5
D9
330
D5
100
AcDbEntity
  8
Ebene 1
370
     0
100
AcDbVertex
100
AcDb2dVertex
 10
63.11190997771161
 20
-62.46991643403531
 30
0.0
  0
SEQEND
  5
DA
330
D5
100
AcDbEntity
  8
Ebene 1
370
     0
  0
HATCH
  5
DB
330
1F
100
AcDbEntity
  8
Ebene 1
 62
   254
420
 14803683
100
AcDbHatch
 10
0.0
 20
0.0
 30
0.0
210
0.0
220
0.0
230
1.0
  2
SOLID
 70
     1
 71
     0
 91
        1
 92
        1
 93
        3
 72
     1
 10
63.11190997771161
 20
-62.46991643403531
 11
61.5032226408742
 21
-134.076742859276
 72
     1
 10
61.5032226408742
 20
-134.076742859276
 11
61.5032226408742
 21
-62.4699164340353
 72
     1
 10
61.5032226408742
 20
-62.46991643403531
 11
63.11190997771161
 21
-62.46991643403531
 97
        0
 75
     2
 76
     1
 98
        0
  0
POLYLINE
  5
DC
330
1F
100
AcDbEntity
  8
Ebene 1
370
     0
100
AcDb2dPolyline
 66
     1
 10
0.0
 20
0.0
 30
0.0
  0
VERTEX
  5
DD
330
DC
100
AcDbEntity
  8
Ebene 1
370
     0
100
AcDbVertex
100
AcDb2dVertex
 10
61.5032226408742
 20
-134.076742859276
 30
0.0
  0
VERTEX
  5
DE
330
DC
100
AcDbEntity
  8
Ebene 1
370
     0
100
AcDbVertex
100
AcDb2dVertex
 10
63.11190997771161
 20
-62.46991643403531
 30
0.0
  0
VERTEX
  5
DF
330
DC
100
AcDbEntity
  8
Ebene 1
370
     0
100
AcDbVertex
100
AcDb2dVertex
 10
63.11190997771161
 20
-134.076742859276
 30
0.0
  0
VERTEX
  5
E0
330
DC
100
AcDbEntity
  8
Ebene 1
370
     0
100
AcDbVertex
100
AcDb2dVertex
 10
61.5032226408742
 20
-134.076742859276
 30
0.0
  0
SEQEND
  5
E1
330
DC
100
AcDbEntity
  8
Ebene 1
370
     0
  0
HATCH
  5
E2
330
1F
100
AcDbEntity
  8
Ebene 1
 62
   254
420
 14803683
100
AcDbHatch
 10
0.0
 20
0.0
 30
0.0
210
0.0
220
0.0
230
1.0
  2
SOLID
 70
     1
 71
     0
 91
        1
 92
        1
 93
        3
 72
     1
 10
61.5032226408742
 20
-134.076742859276
 11
63.11190997771161
 21
-62.4699164340353
 72
     1
 10
63.11190997771161
 20
-62.46991643403531
 11
63.11190997771161
 21
-134.076742859276
 72
     1
 10
63.11190997771161
 20
-134.076742859276
 11
61.5032226408742
 21
-134.076742859276
 97
        0
 75
     2
 76
     1
 98
        0
  0
POLYLINE
  5
E3
330
1F
100
AcDbEntity
  8
Ebene 1
370
     0
100
AcDb2dPolyline
 66
     1
 10
0.0
 20
0.0
 30
0.0
  0
VERTEX
  5
E4
330
E3
100
AcDbEntity
  8
Ebene 1
370
     0
100
AcDbVertex
100
AcDb2dVertex
 10
63.97972953044604
 20
-149.6763074712615
 30
0.0
  0
VERTEX
  5
E5
330
E3
100
AcDbEntity
  8
Ebene 1
370
     0
100
AcDbVertex
100
AcDb2dVertex
 10
63.11190997771161
 20
-155.6666395010139
 30
0.0
  0
VERTEX
  5
E6
330
E3
100
AcDbEntity
  8
Ebene 1
370
     0
100
AcDbVertex
100
AcDb2dVertex
 10
63.11190997771161
 20
-149.6763074712615
 30
0.0
  0
VERTEX
  5
E7
330
E3
100
AcDbEntity
  8
Ebene 1
370
     0
100
AcDbVertex
100
AcDb2dVertex
 10
63.97972953044604
 20
-149.6763074712615
 30
0.0
  0
SEQEND
  5
E8
330
E3
100
AcDbEntity
  8
Ebene 1
370
     0
  0
HATCH
  5
E9
330
1F
100
AcDbEntity
  8
Ebene 1
 62
     9
420
 12435136
100
AcDbHatch
 10
0.0
 20
0.0
 30
0.0
210
0.0
220
0.0
230
1.0
  2
SOLID
 70
     1
 71
     0
 91
        1
 92
        1
 93
        3
 72
     1
 10
63.97972953044604
 20
-149.6763074712615
 11
63.11190997771161
 21
-155.6666395010139
 72
     1
 10
63.11190997771161
 20
-155.6666395010139
 11
63.11190997771161
 21
-149.6763074712615
 72
     1
 10
63.11190997771161
 20
-149.6763074712615
 11
63.97972953044604
 21
-149.6763074712615
 97
        0
 75
     2
 76
     1
 98
        0
  0
POLYLINE
  5
EA
330
1F
100
AcDbEntity
  8
Ebene 1
370
     0
100
AcDb2dPolyline
 66
     1
 10
0.0
 20
0.0
 30
0.0
  0
VERTEX
  5
EB
330
EA
100
AcDbEntity
  8
Ebene 1
370
     0
100
AcDbVertex
100
AcDb2dVertex
 10
63.11190997771161
 20
-155.6666395010139
 30
0.0
  0
VERTEX
  5
EC
330
EA
100
AcDbEntity
  8
Ebene 1
370
     0
100
AcDbVertex
100
AcDb2dVertex
 10
63.97972953044604
 20
-149.6763074712615
 30
0.0
  0
VERTEX
  5
ED
330
EA
100
AcDbEntity
  8
Ebene 1
370
     0
100
AcDbVertex
100
AcDb2dVertex
 10
63.97972953044604
 20
-155.6666395010139
 30
0.0
  0
VERTEX
  5
EE
330
EA
100
AcDbEntity
  8
Ebene 1
370
     0
100
AcDbVertex
100
AcDb2dVertex
 10
63.11190997771161
 20
-155.6666395010139
 30
0.0
  0
SEQEND
  5
EF
330
EA
100
AcDbEntity
  8
Ebene 1
370
     0
  0
HATCH
  5
F0
330
1F
100
AcDbEntity
  8
Ebene 1
 62
     9
420
 12435136
100
AcDbHatch
 10
0.0
 20
0.0
 30
0.0
210
0.0
220
0.0
230
1.0
  2
SOLID
 70
     1
 71
     0
 91
        1
 92
        1
 93
        3
 72
     1
 10
63.11190997771161
 20
-155.6666395010139
 11
63.97972953044604
 21
-149.6763074712615
 72
     1
 10
63.97972953044604
 20
-149.6763074712615
 11
63.97972953044604
 21
-155.6666395010139
 72
     1
 10
63.97972953044604
 20
-155.6666395010139
 11
63.11190997771161
 21
-155.6666395010139
 97
        0
 75
     2
 76
     1
 98
        0
  0
POLYLINE
  5
F1
330
1F
100
AcDbEntity
  8
Ebene 1
370
     0
100
AcDb2dPolyline
 66
     1
 10
0.0
 20
0.0
 30
0.0
  0
VERTEX
  5
F2
330
F1
100
AcDbEntity
  8
Ebene 1
370
     0
100
AcDbVertex
100
AcDb2dVertex
 10
63.97972953044604
 20
-114.4762166054955
 30
0.0
  0
VERTEX
  5
F3
330
F1
100
AcDbEntity
  8
Ebene 1
370
     0
100
AcDbVertex
100
AcDb2dVertex
 10
63.11190997771161
 20
-120.4665486352479
 30
0.0
  0
VERTEX
  5
F4
330
F1
100
AcDbEntity
  8
Ebene 1
370
     0
100
AcDbVertex
100
AcDb2dVertex
 10
63.11190997771161
 20
-114.4762166054955
 30
0.0
  0
VERTEX
  5
F5
330
F1
100
AcDbEntity
  8
Ebene 1
370
     0
100
AcDbVertex
100
AcDb2dVertex
 10
63.97972953044604
 20
-114.4762166054955
 30
0.0
  0
SEQEND
  5
F6
330
F1
100
AcDbEntity
  8
Ebene 1
370
     0
  0
HATCH
  5
F7
330
1F
100
AcDbEntity
  8
Ebene 1
 62
     9
420
 12435136
100
AcDbHatch
 10
0.0
 20
0.0
 30
0.0
210
0.0
220
0.0
230
1.0
  2
SOLID
 70
     1
 71
     0
 91
        1
 92
        1
 93
        3
 72
     1
 10
63.97972953044604
 20
-114.4762166054955
 11
63.11190997771161
 21
-120.4665486352479
 72
     1
 10
63.11190997771161
 20
-120.4665486352479
 11
63.11190997771161
 21
-114.4762166054955
 72
     1
 10
63.11190997771161
 20
-114.4762166054955
 11
63.97972953044604
 21
-114.4762166054955
 97
        0
 75
     2
 76
     1
 98
        0
  0
POLYLINE
  5
F8
330
1F
100
AcDbEntity
  8
Ebene 1
370
     0
100
AcDb2dPolyline
 66
     1
 10
0.0
 20
0.0
 30
0.0
  0
VERTEX
  5
F9
330
F8
100
AcDbEntity
  8
Ebene 1
370
     0
100
AcDbVertex
100
AcDb2dVertex
 10
63.11190997771161
 20
-120.4665486352479
 30
0.0
  0
VERTEX
  5
FA
330
F8
100
AcDbEntity
  8
Ebene 1
370
     0
100
AcDbVertex
100
AcDb2dVertex
 10
63.97972953044604
 20
-114.4762166054955
 30
0.0
  0
VERTEX
  5
FB
330
F8
100
AcDbEntity
  8
Ebene 1
370
     0
100
AcDbVertex
100
AcDb2dVertex
 10
63.97972953044604
 20
-120.4665486352479
 30
0.0
  0
VERTEX
  5
FC
330
F8
100
AcDbEntity
  8
Ebene 1
370
     0
100
AcDbVertex
100
AcDb2dVertex
 10
63.11190997771161
 20
-120.4665486352479
 30
0.0
  0
SEQEND
  5
FD
330
F8
100
AcDbEntity
  8
Ebene 1
370
     0
  0
HATCH
  5
FE
330
1F
100
AcDbEntity
  8
Ebene 1
 62
     9
420
 12435136
100
AcDbHatch
 10
0.0
 20
0.0
 30
0.0
210
0.0
220
0.0
230
1.0
  2
SOLID
 70
     1
 71
     0
 91
        1
 92
        1
 93
        3
 72
     1
 10
63.11190997771161
 20
-120.4665486352479
 11
63.97972953044604
 21
-114.4762166054955
 72
     1
 10
63.97972953044604
 20
-114.4762166054955
 11
63.97972953044604
 21
-120.4665486352479
 72
     1
 10
63.97972953044604
 20
-120.4665486352479
 11
63.11190997771161
 21
-120.4665486352479
 97
        0
 75
     2
 76
     1
 98
        0
  0
INSERT
  5
100
330
1F
100
AcDbEntity
  8
Ebene 1
100
AcDbBlockReference
  2
block 3
 10
0.0
 20
0.0
 30
0.0
  0
POLYLINE
  5
12A
330
1F
100
AcDbEntity
  8
Ebene 1
 62
   179
420
  1709851
370
    18
100
AcDb2dPolyline
 66
     1
 10
0.0
 20
0.0
 30
0.0
  0
VERTEX
  5
12B
330
12A
100
AcDbEntity
  8
Ebene 1
 62
   179
420
  1709851
370
    18
100
AcDbVertex
100
AcDb2dVertex
 10
86.50100773662128
 20
-197.0684190045523
 30
0.0
  0
VERTEX
  5
12C
330
12A
100
AcDbEntity
  8
Ebene 1
 62
   179
420
  1709851
370
    18
100
AcDbVertex
100
AcDb2dVertex
 10
86.50100773662128
 20
-165.0641709656784
 30
0.0
  0
SEQEND
  5
12D
330
12A
100
AcDbEntity
  8
Ebene 1
370
    18
  0
POLYLINE
  5
12E
330
1F
100
AcDbEntity
  8
Ebene 1
 62
   179
420
  1709851
370
    35
100
AcDb2dPolyline
 66
     1
 10
0.0
 20
0.0
 30
0.0
  0
VERTEX
  5
12F
330
12E
100
AcDbEntity
  8
Ebene 1
 62
   179
420
  1709851
370
    35
100
AcDbVertex
100
AcDb2dVertex
 10
100.1535766351179
 20
-170.9704426655907
 30
0.0
  0
VERTEX
  5
130
330
12E
100
AcDbEntity
  8
Ebene 1
 62
   179
420
  1709851
370
    35
100
AcDbVertex
100
AcDb2dVertex
 10
107.1383354766876
 20
-170.9704426655907
 30
0.0
  0
SEQEND
  5
131
330
12E
100
AcDbEntity
  8
Ebene 1
370
    35
  0
POLYLINE
  5
132
330
1F
100
AcDbEntity
  8
Ebene 1
 62
   179
420
  1709851
370
    35
100
AcDb2dPolyline
 66
     1
 10
0.0
 20
0.0
 30
0.0
  0
VERTEX
  5
133
330
132
100
AcDbEntity
  8
Ebene 1
 62
   179
420
  1709851
370
    35
100
AcDbVertex
100
AcDb2dVertex
 10
98.14267440037753
 20
-170.9704426655907
 30
0.0
  0
VERTEX
  5
134
330
132
100
AcDbEntity
  8
Ebene 1
 62
   179
420
  1709851
370
    35
100
AcDbVertex
100
AcDb2dVertex
 10
99.13761797651769
 20
-170.9704426655907
 30
0.0
  0
SEQEND
  5
135
330
132
100
AcDbEntity
  8
Ebene 1
370
    35
  0
POLYLINE
  5
136
330
1F
100
AcDbEntity
  8
Ebene 1
 62
   179
420
  1709851
370
    35
100
AcDb2dPolyline
 66
     1
 10
0.0
 20
0.0
 30
0.0
  0
VERTEX
  5
137
330
136
100
AcDbEntity
  8
Ebene 1
 62
   179
420
  1709851
370
    35
100
AcDbVertex
100
AcDb2dVertex
 10
90.1417846454333
 20
-170.9704426655907
 30
0.0
  0
VERTEX
  5
138
330
136
100
AcDbEntity
  8
Ebene 1
 62
   179
420
  1709851
370
    35
100
AcDbVertex
100
AcDb2dVertex
 10
97.14790307901164
 20
-170.9704426655907
 30
0.0
  0
SEQEND
  5
139
330
136
100
AcDbEntity
  8
Ebene 1
370
    35
  0
POLYLINE
  5
13A
330
1F
100
AcDbEntity
  8
Ebene 1
 62
   179
420
  1709851
370
    35
100
AcDb2dPolyline
 66
     1
 10
0.0
 20
0.0
 30
0.0
  0
VERTEX
  5
13B
330
13A
100
AcDbEntity
  8
Ebene 1
 62
   179
420
  1709851
370
    35
100
AcDbVertex
100
AcDb2dVertex
 10
88.15206974792727
 20
-170.9704426655907
 30
0.0
  0
VERTEX
  5
13C
330
13A
100
AcDbEntity
  8
Ebene 1
 62
   179
420
  1709851
370
    35
100
AcDbVertex
100
AcDb2dVertex
 10
89.14684106929316
 20
-170.9704426655907
 30
0.0
  0
SEQEND
  5
13D
330
13A
100
AcDbEntity
  8
Ebene 1
370
    35
  0
POLYLINE
  5
13E
330
1F
100
AcDbEntity
  8
Ebene 1
 62
   179
420
  1709851
370
    35
100
AcDb2dPolyline
 66
     1
 10
0.0
 20
0.0
 30
0.0
  0
VERTEX
  5
13F
330
13E
100
AcDbEntity
  8
Ebene 1
 62
   179
420
  1709851
370
    35
100
AcDbVertex
100
AcDb2dVertex
 10
83.89754907841798
 20
-170.9704426655907
 30
0.0
  0
VERTEX
  5
140
330
13E
100
AcDbEntity
  8
Ebene 1
 62
   179
420
  1709851
370
    35
100
AcDbVertex
100
AcDb2dVertex
 10
87.15712617178711
 20
-170.9704426655907
 30
0.0
  0
SEQEND
  5
141
330
13E
100
AcDbEntity
  8
Ebene 1
370
    35
  0
POLYLINE
  5
142
330
1F
100
AcDbEntity
  8
Ebene 1
 62
   179
420
  1709851
370
    35
100
AcDb2dPolyline
 66
     1
 10
0.0
 20
0.0
 30
0.0
  0
VERTEX
  5
143
330
142
100
AcDbEntity
  8
Ebene 1
 62
   179
420
  1709851
370
    35
100
AcDbVertex
100
AcDb2dVertex
 10
100.1535766351179
 20
-191.1628363237371
 30
0.0
  0
VERTEX
  5
144
330
142
100
AcDbEntity
  8
Ebene 1
 62
   179
420
  1709851
370
    35
100
AcDbVertex
100
AcDb2dVertex
 10
107.1383354766876
 20
-191.1628363237371
 30
0.0
  0
SEQEND
  5
145
330
142
100
AcDbEntity
  8
Ebene 1
370
    35
  0
POLYLINE
  5
146
330
1F
100
AcDbEntity
  8
Ebene 1
 62
   179
420
  1709851
370
    35
100
AcDb2dPolyline
 66
     1
 10
0.0
 20
0.0
 30
0.0
  0
VERTEX
  5
147
330
146
100
AcDbEntity
  8
Ebene 1
 62
   179
420
  1709851
370
    35
100
AcDbVertex
100
AcDb2dVertex
 10
98.14267440037753
 20
-191.1628363237371
 30
0.0
  0
VERTEX
  5
148
330
146
100
AcDbEntity
  8
Ebene 1
 62
   179
420
  1709851
370
    35
100
AcDbVertex
100
AcDb2dVertex
 10
99.13761797651769
 20
-191.1628363237371
 30
0.0
  0
SEQEND
  5
149
330
146
100
AcDbEntity
  8
Ebene 1
370
    35
  0
POLYLINE
  5
14A
330
1F
100
AcDbEntity
  8
Ebene 1
 62
   179
420
  1709851
370
    35
100
AcDb2dPolyline
 66
     1
 10
0.0
 20
0.0
 30
0.0
  0
VERTEX
  5
14B
330
14A
100
AcDbEntity
  8
Ebene 1
 62
   179
420
  1709851
370
    35
100
AcDbVertex
100
AcDb2dVertex
 10
90.1417846454333
 20
-191.1628363237371
 30
0.0
  0
VERTEX
  5
14C
330
14A
100
AcDbEntity
  8
Ebene 1
 62
   179
420
  1709851
370
    35
100
AcDbVertex
100
AcDb2dVertex
 10
97.14790307901164
 20
-191.1628363237371
 30
0.0
  0
SEQEND
  5
14D
330
14A
100
AcDbEntity
  8
Ebene 1
370
    35
  0
POLYLINE
  5
14E
330
1F
100
AcDbEntity
  8
Ebene 1
 62
   179
420
  1709851
370
    35
100
AcDb2dPolyline
 66
     1
 10
0.0
 20
0.0
 30
0.0
  0
VERTEX
  5
14F
330
14E
100
AcDbEntity
  8
Ebene 1
 62
   179
420
  1709851
370
    35
100
AcDbVertex
100
AcDb2dVertex
 10
88.15206974792727
 20
-191.1628363237371
 30
0.0
  0
VERTEX
  5
150
330
14E
100
AcDbEntity
  8
Ebene 1
 62
   179
420
  1709851
370
    35
100
AcDbVertex
100
AcDb2dVertex
 10
89.14684106929316
 20
-191.1628363237371
 30
0.0
  0
SEQEND
  5
151
330
14E
100
AcDbEntity
  8
Ebene 1
370
    35
  0
POLYLINE
  5
152
330
1F
100
AcDbEntity
  8
Ebene 1
 62
   179
420
  1709851
370
    35
100
AcDb2dPolyline
 66
     1
 10
0.0
 20
0.0
 30
0.0
  0
VERTEX
  5
153
330
152
100
AcDbEntity
  8
Ebene 1
 62
   179
420
  1709851
370
    35
100
AcDbVertex
100
AcDb2dVertex
 10
83.89754907841798
 20
-191.1628363237371
 30
0.0
  0
VERTEX
  5
154
330
152
100
AcDbEntity
  8
Ebene 1
 62
   179
420
  1709851
370
    35
100
AcDbVertex
100
AcDb2dVertex
 10
87.15712617178711
 20
-191.1628363237371
 30
0.0
  0
SEQEND
  5
155
330
152
100
AcDbEntity
  8
Ebene 1
370
    35
  0
POLYLINE
  5
156
330
1F
100
AcDbEntity
  8
Ebene 1
 62
   179
420
  1709851
370
    18
100
AcDb2dPolyline
 66
     1
 10
0.0
 20
0.0
 30
0.0
  0
VERTEX
  5
157
330
156
100
AcDbEntity
  8
Ebene 1
 62
   179
420
  1709851
370
    18
100
AcDbVertex
100
AcDb2dVertex
 10
87.49577905798716
 20
-165.0641709656784
 30
0.0
  0
VERTEX
  5
158
330
156
100
AcDbEntity
  8
Ebene 1
 62
   179
420
  1709851
370
    18
100
AcDbVertex
100
AcDb2dVertex
 10
68.50934107445254
 20
-165.0641709656784
 30
0.0
  0
VERTEX
  5
159
330
156
100
AcDbEntity
  8
Ebene 1
 62
   179
420
  1709851
370
    18
100
AcDbVertex
100
AcDb2dVertex
 10
68.50934107445254
 20
-197.0684190045523
 30
0.0
  0
SEQEND
  5
15A
330
156
100
AcDbEntity
  8
Ebene 1
370
    18
  0
POLYLINE
  5
15B
330
1F
100
AcDbEntity
  8
Ebene 1
 62
   179
420
  1709851
370
    18
100
AcDb2dPolyline
 66
     1
 10
0.0
 20
0.0
 30
0.0
  0
VERTEX
  5
15C
330
15B
100
AcDbEntity
  8
Ebene 1
 62
   179
420
  1709851
370
    18
100
AcDbVertex
100
AcDb2dVertex
 10
68.50934107445254
 20
-197.0684190045523
 30
0.0
  0
VERTEX
  5
15D
330
15B
100
AcDbEntity
  8
Ebene 1
 62
   179
420
  1709851
370
    18
100
AcDbVertex
100
AcDb2dVertex
 10
87.49577905798716
 20
-197.0684190045523
 30
0.0
  0
SEQEND
  5
15E
330
15B
100
AcDbEntity
  8
Ebene 1
370
    18
  0
POLYLINE
  5
15F
330
1F
100
AcDbEntity
  8
Ebene 1
 62
   179
420
  1709851
370
    35
100
AcDb2dPolyline
 66
     1
 10
0.0
 20
0.0
 30
0.0
  0
VERTEX
  5
160
330
15F
100
AcDbEntity
  8
Ebene 1
 62
   179
420
  1709851
370
    35
100
AcDbVertex
100
AcDb2dVertex
 10
100.1537488898921
 20
-97.07710636678975
 30
0.0
  0
VERTEX
  5
161
330
15F
100
AcDbEntity
  8
Ebene 1
 62
   179
420
  1709851
370
    35
100
AcDbVertex
100
AcDb2dVertex
 10
107.1383354766876
 20
-97.07710636678975
 30
0.0
  0
SEQEND
  5
162
330
15F
100
AcDbEntity
  8
Ebene 1
370
    35
  0
POLYLINE
  5
163
330
1F
100
AcDbEntity
  8
Ebene 1
 62
   179
420
  1709851
370
    35
100
AcDb2dPolyline
 66
     1
 10
0.0
 20
0.0
 30
0.0
  0
VERTEX
  5
164
330
163
100
AcDbEntity
  8
Ebene 1
 62
   179
420
  1709851
370
    35
100
AcDbVertex
100
AcDb2dVertex
 10
98.14250214560327
 20
-97.07710636678975
 30
0.0
  0
VERTEX
  5
165
330
163
100
AcDbEntity
  8
Ebene 1
 62
   179
420
  1709851
370
    35
100
AcDbVertex
100
AcDb2dVertex
 10
99.13761797651769
 20
-97.07710636678975
 30
0.0
  0
SEQEND
  5
166
330
163
100
AcDbEntity
  8
Ebene 1
370
    35
  0
POLYLINE
  5
167
330
1F
100
AcDbEntity
  8
Ebene 1
 62
   179
420
  1709851
370
    35
100
AcDb2dPolyline
 66
     1
 10
0.0
 20
0.0
 30
0.0
  0
VERTEX
  5
168
330
167
100
AcDbEntity
  8
Ebene 1
 62
   179
420
  1709851
370
    35
100
AcDbVertex
100
AcDb2dVertex
 10
90.1417846454333
 20
-97.07710636678975
 30
0.0
  0
VERTEX
  5
169
330
167
100
AcDbEntity
  8
Ebene 1
 62
   179
420
  1709851
370
    35
100
AcDbVertex
100
AcDb2dVertex
 10
97.1480753337859
 20
-97.07710636678975
 30
0.0
  0
SEQEND
  5
16A
330
167
100
AcDbEntity
  8
Ebene 1
370
    35
  0
POLYLINE
  5
16B
330
1F
100
AcDbEntity
  8
Ebene 1
 62
   179
420
  1709851
370
    35
100
AcDb2dPolyline
 66
     1
 10
0.0
 20
0.0
 30
0.0
  0
VERTEX
  5
16C
330
16B
100
AcDbEntity
  8
Ebene 1
 62
   179
420
  1709851
370
    35
100
AcDbVertex
100
AcDb2dVertex
 10
88.15224200270153
 20
-97.07710636678975
 30
0.0
  0
VERTEX
  5
16D
330
16B
100
AcDbEntity
  8
Ebene 1
 62
   179
420
  1709851
370
    35
100
AcDbVertex
100
AcDb2dVertex
 10
89.14666881451889
 20
-97.07710636678975
 30
0.0
  0
SEQEND
  5
16E
330
16B
100
AcDbEntity
  8
Ebene 1
370
    35
  0
POLYLINE
  5
16F
330
1F
100
AcDbEntity
  8
Ebene 1
 62
   179
420
  1709851
370
    35
100
AcDb2dPolyline
 66
     1
 10
0.0
 20
0.0
 30
0.0
  0
VERTEX
  5
170
330
16F
100
AcDbEntity
  8
Ebene 1
 62
   179
420
  1709851
370
    35
100
AcDbVertex
100
AcDb2dVertex
 10
81.90800643568619
 20
-97.07710636678975
 30
0.0
  0
VERTEX
  5
171
330
16F
100
AcDbEntity
  8
Ebene 1
 62
   179
420
  1709851
370
    35
100
AcDbVertex
100
AcDb2dVertex
 10
81.90800643568619
 20
-97.07710636678975
 30
0.0
  0
VERTEX
  5
172
330
16F
100
AcDbEntity
  8
Ebene 1
 62
   179
420
  1709851
370
    35
100
AcDbVertex
100
AcDb2dVertex
 10
87.15729842656137
 20
-97.07710636678975
 30
0.0
  0
SEQEND
  5
173
330
16F
100
AcDbEntity
  8
Ebene 1
370
    35
  0
INSERT
  5
175
330
1F
100
AcDbEntity
  8
Ebene 1
100
AcDbBlockReference
  2
block 4
 10
0.0
 20
0.0
 30
0.0
  0
ENDSEC
  0
SECTION
  2
OBJECTS
  0
DICTIONARY
  5
C
330
0
100
AcDbDictionary
281
     1
  3
ACAD_GROUP
350
D
  3
ACAD_LAYOUT
350
1A
  3
ACAD_MLINESTYLE
350
17
  3
ACAD_PLOTSETTINGS
350
19
  3
ACAD_PLOTSTYLENAME
350
E
  3
ACAD_TABLESTYLE
350
5CC
  3
ACAD_VISUALSTYLE
350
2A
  0
DICTIONARY
  5
D
102
{ACAD_REACTORS
330
C
102
}
330
C
100
AcDbDictionary
281
     1
  0
DICTIONARY
  5
1A
102
{ACAD_REACTORS
330
C
102
}
330
C
100
AcDbDictionary
281
     1
  3
Layout1
350
1E
  3
Layout2
350
26
  3
Model
350
22
  0
DICTIONARY
  5
17
102
{ACAD_REACTORS
330
C
102
}
330
C
100
AcDbDictionary
281
     1
  3
Standard
350
18
  0
DICTIONARY
  5
19
102
{ACAD_REACTORS
330
C
102
}
330
C
100
AcDbDictionary
281
     1
  0
ACDBDICTIONARYWDFLT
  5
E
102
{ACAD_REACTORS
330
C
102
}
330
C
100
AcDbDictionary
281
     1
  3
Normal
350
F
100
AcDbDictionaryWithDefault
340
F
  0
DICTIONARY
  5
5CC
102
{ACAD_REACTORS
330
C
102
}
330
C
100
AcDbDictionary
281
     1
  0
DICTIONARY
  5
2A
102
{ACAD_REACTORS
330
C
102
}
330
C
100
AcDbDictionary
281
     1
  3
2dWireframe
350
2F
  3
3D Hidden
350
31
  3
3dWireframe
350
30
  3
Basic
350
32
  3
Brighten
350
36
  3
ColorChange
350
3A
  3
Conceptual
350
34
  3
Dim
350
35
  3
Facepattern
350
39
  3
Flat
350
2B
  3
FlatWithEdges
350
2C
  3
Gouraud
350
2D
  3
GouraudWithEdges
350
2E
  3
Linepattern
350
38
  3
Realistic
350
33
  3
Thicken
350
37
  0
LAYOUT
  5
1E
102
{ACAD_REACTORS
330
1A
102
}
330
1A
100
AcDbPlotSettings
  1

  2
none_device
  4

  6

 40
0.0
 41
0.0
 42
0.0
 43
0.0
 44
0.0
 45
0.0
 46
0.0
 47
0.0
 48
0.0
 49
0.0
140
0.0
141
0.0
142
1.0
143
1.0
 70
   688
 72
     0
 73
     0
 74
     5
  7

 75
    16
 76
     0
 77
     2
 78
   300
147
1.0
148
0.0
149
0.0
100
AcDbLayout
  1
Layout1
 70
     1
 71
     1
 10
0.0
 20
0.0
 11
12.0
 21
9.0
 12
0.0
 22
0.0
 32
0.0
 14
1.000000000000000E+20
 24
1.000000000000000E+20
 34
1.000000000000000E+20
 15
-1.000000000000000E+20
 25
-1.000000000000000E+20
 35
-1.000000000000000E+20
146
0.0
 13
0.0
 23
0.0
 33
0.0
 16
1.0
 26
0.0
 36
0.0
 17
0.0
 27
1.0
 37
0.0
 76
     0
330
1B
  0
LAYOUT
  5
26
102
{ACAD_REACTORS
330
1A
102
}
330
1A
100
AcDbPlotSettings
  1

  2
none_device
  4

  6

 40
0.0
 41
0.0
 42
0.0
 43
0.0
 44
0.0
 45
0.0
 46
0.0
 47
0.0
 48
0.0
 49
0.0
140
0.0
141
0.0
142
1.0
143
1.0
 70
   688
 72
     0
 73
     0
 74
     5
  7

 75
    16
 76
     0
 77
     2
 78
   300
147
1.0
148
0.0
149
0.0
100
AcDbLayout
  1
Layout2
 70
     1
 71
     2
 10
0.0
 20
0.0
 11
0.0
 21
0.0
 12
0.0
 22
0.0
 32
0.0
 14
0.0
 24
0.0
 34
0.0
 15
0.0
 25
0.0
 35
0.0
146
0.0
 13
0.0
 23
0.0
 33
0.0
 16
1.0
 26
0.0
 36
0.0
 17
0.0
 27
1.0
 37
0.0
 76
     0
330
23
  0
LAYOUT
  5
22
102
{ACAD_REACTORS
330
1A
102
}
330
1A
100
AcDbPlotSettings
  1

  2
none_device
  4

  6

 40
0.0
 41
0.0
 42
0.0
 43
0.0
 44
0.0
 45
0.0
 46
0.0
 47
0.0
 48
0.0
 49
0.0
140
0.0
141
0.0
142
1.0
143
1.0
 70
  1712
 72
     0
 73
     0
 74
     0
  7

 75
     0
 76
     0
 77
     2
 78
   300
147
1.0
148
0.0
149
0.0
100
AcDbLayout
  1
Model
 70
     1
 71
     0
 10
0.0
 20
0.0
 11
12.0
 21
9.0
 12
0.0
 22
0.0
 32
0.0
 14
1.000000000000000E+20
 24
1.000000000000000E+20
 34
1.000000000000000E+20
 15
-1.000000000000000E+20
 25
-1.000000000000000E+20
 35
-1.000000000000000E+20
146
0.0
 13
0.0
 23
0.0
 33
0.0
 16
1.0
 26
0.0
 36
0.0
 17
0.0
 27
1.0
 37
0.0
 76
     0
330
1F
331
29
  0
MLINESTYLE
  5
18
102
{ACAD_REACTORS
330
17
102
}
330
17
100
AcDbMlineStyle
  2
Standard
 70
     0
  3

 62
   256
 51
90.0
 52
90.0
 71
     2
 49
0.5
 62
   256
  6
BYLAYER
 49
-0.5
 62
   256
  6
BYLAYER
  0
ACDBPLACEHOLDER
  5
F
102
{ACAD_REACTORS
330
E
102
}
330
E
  0
VISUALSTYLE
  5
2F
102
{ACAD_REACTORS
330
2A
102
}
330
2A
100
AcDbVisualStyle
  2
2dWireframe
 70
     4
 71
     0
 72
     2
 73
     0
 90
        0
 40
-0.6
 41
-30.0
 62
     5
 63
     7
421
 16777215
 74
     1
 91
        4
 64
     7
 65
   257
 75
     1
175
     1
 42
1.0
 92
        0
 66
   257
 43
1.0
 76
     1
 77
     6
 78
     2
 67
     7
 79
     5
170
     0
171
     0
290
     0
174
     0
 93
        1
 44
0.0
173
     0
291
     0
 45
0.0
1001
ACAD
1000
AcDbSavedByObjectVersion
1070
     0
  0
VISUALSTYLE
  5
31
102
{ACAD_REACTORS
330
2A
102
}
330
2A
100
AcDbVisualStyle
  2
3D Hidden
 70
     6
 71
     1
 72
     2
 73
     2
 90
        0
 40
-0.6
 41
-30.0
 62
     5
 63
     7
421
 16777215
 74
     2
 91
        2
 64
     7
 65
   257
 75
     2
175
     1
 42
40.0
 92
        0
 66
   257
 43
1.0
 76
     1
 77
     6
 78
     2
 67
     7
 79
     3
170
     0
171
     0
290
     0
174
     0
 93
        1
 44
0.0
173
     0
291
     0
 45
0.0
1001
ACAD
1000
AcDbSavedByObjectVersion
1070
     0
  0
VISUALSTYLE
  5
30
102
{ACAD_REACTORS
330
2A
102
}
330
2A
100
AcDbVisualStyle
  2
3dWireframe
 70
     5
 71
     0
 72
     2
 73
     0
 90
        0
 40
-0.6
 41
-30.0
 62
     5
 63
     7
421
 16777215
 74
     1
 91
        4
 64
     7
 65
   257
 75
     1
175
     1
 42
1.0
 92
        0
 66
   257
 43
1.0
 76
     1
 77
     6
 78
     2
 67
     7
 79
     5
170
     0
171
     0
290
     0
174
     0
 93
        1
 44
0.0
173
     0
291
     0
 45
0.0
1001
ACAD
1000
AcDbSavedByObjectVersion
1070
     0
  0
VISUALSTYLE
  5
32
102
{ACAD_REACTORS
330
2A
102
}
330
2A
100
AcDbVisualStyle
  2
Basic
 70
     7
 71
     1
 72
     0
 73
     1
 90
        0
 40
-0.6
 41
-30.0
 62
     5
 63
     7
421
 16777215
 74
     0
 91
        4
 64
     7
 65
   257
 75
     1
175
     1
 42
1.0
 92
        8
 66
     7
 43
1.0
 76
     1
 77
     6
 78
     2
 67
     7
 79
     5
170
     0
171
     0
290
     0
174
     0
 93
        1
 44
0.0
173
     0
291
     1
 45
0.0
1001
ACAD
1000
AcDbSavedByObjectVersion
1070
     0
  0
VISUALSTYLE
  5
36
102
{ACAD_REACTORS
330
2A
102
}
330
2A
100
AcDbVisualStyle
  2
Brighten
 70
    12
 71
     2
 72
     2
 73
     0
 90
        0
 40
-0.6
 41
-30.0
 62
     5
 63
     7
421
 16777215
 74
     1
 91
        4
 64
     7
 65
   257
 75
     1
175
     1
 42
1.0
 92
        8
 66
     7
 43
1.0
 76
     1
 77
     6
 78
     2
 67
     7
 79
     5
170
     0
171
     0
290
     0
174
     0
 93
        1
 44
50.0
173
     0
291
     1
 45
0.0
1001
ACAD
1000
AcDbSavedByObjectVersion
1070
     0
  0
VISUALSTYLE
  5
3A
102
{ACAD_REACTORS
330
2A
102
}
330
2A
100
AcDbVisualStyle
  2
ColorChange
 70
    16
 71
     2
 72
     2
 73
     3
 90
        0
 40
-0.6
 41
-30.0
 62
     5
 63
     8
421
  8421504
 74
     1
 91
        4
 64
     7
 65
   257
 75
     1
175
     1
 42
1.0
 92
        8
 66
     8
424
  8421504
 43
1.0
 76
     1
 77
     6
 78
     2
 67
     7
 79
     5
170
     0
171
     0
290
     0
174
     0
 93
        1
 44
0.0
173
     0
291
     1
 45
0.0
1001
ACAD
1000
AcDbSavedByObjectVersion
1070
     0
  0
VISUALSTYLE
  5
34
102
{ACAD_REACTORS
330
2A
102
}
330
2A
100
AcDbVisualStyle
  2
Conceptual
 70
     9
 71
     3
 72
     2
 73
     0
 90
        0
 40
-0.6
 41
-30.0
 62
     5
 63
     7
421
 16777215
 74
     2
 91
        2
 64
     7
 65
   257
 75
     1
175
     1
 42
40.0
 92
        8
 66
     7
 43
1.0
 76
     1
 77
     6
 78
     2
 67
     7
 79
     3
170
     0
171
     0
290
     0
174
     0
 93
        1
 44
0.0
173
     0
291
     0
 45
0.0
1001
ACAD
1000
AcDbSavedByObjectVersion
1070
     0
  0
VISUALSTYLE
  5
35
102
{ACAD_REACTORS
330
2A
102
}
330
2A
100
AcDbVisualStyle
  2
Dim
 70
    11
 71
     2
 72
     2
 73
     0
 90
        0
 40
-0.6
 41
-30.0
 62
     5
 63
     7
421
 16777215
 74
     1
 91
        4
 64
     7
 65
   257
 75
     1
175
     1
 42
1.0
 92
        8
 66
     7
 43
1.0
 76
     1
 77
     6
 78
     2
 67
     7
 79
     5
170
     0
171
     0
290
     0
174
     0
 93
        1
 44
-50.0
173
     0
291
     1
 45
0.0
1001
ACAD
1000
AcDbSavedByObjectVersion
1070
     0
  0
VISUALSTYLE
  5
39
102
{ACAD_REACTORS
330
2A
102
}
330
2A
100
AcDbVisualStyle
  2
Facepattern
 70
    15
 71
     2
 72
     2
 73
     0
 90
        0
 40
-0.6
 41
-30.0
 62
     5
 63
     7
421
 16777215
 74
     1
 91
        4
 64
     7
 65
   257
 75
     1
175
     1
 42
1.0
 92
        8
 66
     7
 43
1.0
 76
     1
 77
     6
 78
     2
 67
     7
 79
     5
170
     0
171
     0
290
     0
174
     0
 93
        1
 44
0.0
173
     0
291
     1
 45
0.0
1001
ACAD
1000
AcDbSavedByObjectVersion
1070
     0
  0
VISUALSTYLE
  5
2B
102
{ACAD_REACTORS
330
2A
102
}
330
2A
100
AcDbVisualStyle
  2
Flat
 70
     0
 71
     2
 72
     1
 73
     1
 90
        2
 40
-0.6
 41
30.0
 62
     5
 63
     7
421
 16777215
 74
     0
 91
        4
 64
     7
 65
   257
 75
     1
175
     1
 42
1.0
 92
        8
 66
     7
 43
1.0
 76
     1
 77
     6
 78
     2
 67
     7
 79
     5
170
     0
171
     0
290
     0
174
     0
 93
       13
 44
0.0
173
     0
291
     1
 45
0.0
1001
ACAD
1000
AcDbSavedByObjectVersion
1070
     0
  0
VISUALSTYLE
  5
2C
102
{ACAD_REACTORS
330
2A
102
}
330
2A
100
AcDbVisualStyle
  2
FlatWithEdges
 70
     1
 71
     2
 72
     1
 73
     1
 90
        2
 40
-0.6
 41
30.0
 62
     5
 63
     7
421
 16777215
 74
     1
 91
        4
 64
     7
 65
   257
 75
     1
175
     1
 42
1.0
 92
        0
 66
   257
 43
1.0
 76
     1
 77
     6
 78
     2
 67
     7
 79
     5
170
     0
171
     0
290
     0
174
     0
 93
       13
 44
0.0
173
     0
291
     1
 45
0.0
1001
ACAD
1000
AcDbSavedByObjectVersion
1070
     0
  0
VISUALSTYLE
  5
2D
102
{ACAD_REACTORS
330
2A
102
}
330
2A
100
AcDbVisualStyle
  2
Gouraud
 70
     2
 71
     2
 72
     2
 73
     1
 90
        2
 40
-0.6
 41
30.0
 62
     5
 63
     7
421
 16777215
 74
     0
 91
        4
 64
     7
 65
   257
 75
     1
175
     1
 42
1.0
 92
        0
 66
     7
 43
1.0
 76
     1
 77
     6
 78
     2
 67
     7
 79
     5
170
     0
171
     0
290
     0
174
     0
 93
       13
 44
0.0
173
     0
291
     1
 45
0.0
1001
ACAD
1000
AcDbSavedByObjectVersion
1070
     0
  0
VISUALSTYLE
  5
2E
102
{ACAD_REACTORS
330
2A
102
}
330
2A
100
AcDbVisualStyle
  2
GouraudWithEdges
 70
     3
 71
     2
 72
     2
 73
     1
 90
        2
 40
-0.6
 41
30.0
 62
     5
 63
     7
421
 16777215
 74
     1
 91
        4
 64
     7
 65
   257
 75
     1
175
     1
 42
1.0
 92
        0
 66
   257
 43
1.0
 76
     1
 77
     6
 78
     2
 67
     7
 79
     5
170
     0
171
     0
290
     0
174
     0
 93
       13
 44
0.0
173
     0
291
     1
 45
0.0
1001
ACAD
1000
AcDbSavedByObjectVersion
1070
     0
  0
VISUALSTYLE
  5
38
102
{ACAD_REACTORS
330
2A
102
}
330
2A
100
AcDbVisualStyle
  2
Linepattern
 70
    14
 71
     2
 72
     2
 73
     0
 90
        0
 40
-0.6
 41
-30.0
 62
     5
 63
     7
421
 16777215
 74
     1
 91
        4
 64
     7
 65
   257
 75
     7
175
     7
 42
1.0
 92
        8
 66
     7
 43
1.0
 76
     1
 77
     6
 78
     2
 67
     7
 79
     5
170
     0
171
     0
290
     0
174
     0
 93
        1
 44
0.0
173
     0
291
     1
 45
0.0
1001
ACAD
1000
AcDbSavedByObjectVersion
1070
     0
  0
VISUALSTYLE
  5
33
102
{ACAD_REACTORS
330
2A
102
}
330
2A
100
AcDbVisualStyle
  2
Realistic
 70
     8
 71
     2
 72
     2
 73
     0
 90
        0
 40
-0.6
 41
-30.0
 62
     5
 63
     7
421
 16777215
 74
     1
 91
        0
 64
     7
 65
   257
 75
     1
175
     1
 42
1.0
 92
        8
 66
     8
424
  7895160
 43
1.0
 76
     1
 77
     6
 78
     2
 67
     7
 79
     5
170
     0
171
     0
290
     0
174
     0
 93
       13
 44
0.0
173
     0
291
     0
 45
0.0
1001
ACAD
1000
AcDbSavedByObjectVersion
1070
     0
  0
VISUALSTYLE
  5
37
102
{ACAD_REACTORS
330
2A
102
}
330
2A
100
AcDbVisualStyle
  2
Thicken
 70
    13
 71
     2
 72
     2
 73
     0
 90
        0
 40
-0.6
 41
-30.0
 62
     5
 63
     7
421
 16777215
 74
     1
 91
        4
 64
     7
 65
   257
 75
     1
175
     1
 42
1.0
 92
       12
 66
     7
 43
1.0
 76
     1
 77
     6
 78
     2
 67
     7
 79
     5
170
     0
171
     0
290
     0
174
     0
 93
        1
 44
0.0
173
     0
291
     1
 45
0.0
1001
ACAD
1000
AcDbSavedByObjectVersion
1070
     0
  0
ENDSEC
  0
EOF
