  0
SECTION
  2
HEADER
  9
$ACADVER
  1
AC1018
  9
$ACADMAINTVER
 70
     0
  9
$DWGCODEPAGE
  3
ANSI_932
  9
$INSBASE
 10
0.0
 20
0.0
 30
0.0
  9
$EXTMIN
 10
1.000000000000000E+20
 20
1.000000000000000E+20
 30
1.000000000000000E+20
  9
$EXTMAX
 10
-1.000000000000000E+20
 20
-1.000000000000000E+20
 30
-1.000000000000000E+20
  9
$LIMMIN
 10
0.0
 20
0.0
  9
$LIMMAX
 10
12.0
 20
9.0
  9
$ORTHOMODE
 70
     0
  9
$REGENMODE
 70
     1
  9
$FILLMODE
 70
     1
  9
$QTEXTMODE
 70
     0
  9
$MIRRTEXT
 70
     1
  9
$LTSCALE
 40
1.0
  9
$ATTMODE
 70
     1
  9
$TEXTSIZE
 40
0.2
  9
$TRACEWID
 40
0.05
  9
$TEXTSTYLE
  7
Standard
  9
$CLAYER
  8
0
  9
$CELTYPE
  6
ByLayer
  9
$CECOLOR
 62
   256
  9
$CELTSCALE
 40
1.0
  9
$DISPSILH
 70
     0
  9
$DIMSCALE
 40
1.0
  9
$DIMASZ
 40
0.18
  9
$DIMEXO
 40
0.0625
  9
$DIMDLI
 40
0.38
  9
$DIMRND
 40
0.0
  9
$DIMDLE
 40
0.0
  9
$DIMEXE
 40
0.18
  9
$DIMTP
 40
0.0
  9
$DIMTM
 40
0.0
  9
$DIMTXT
 40
0.18
  9
$DIMCEN
 40
0.09
  9
$DIMTSZ
 40
0.0
  9
$DIMTOL
 70
     0
  9
$DIMLIM
 70
     0
  9
$DIMTIH
 70
     1
  9
$DIMTOH
 70
     1
  9
$DIMSE1
 70
     0
  9
$DIMSE2
 70
     0
  9
$DIMTAD
 70
     0
  9
$DIMZIN
 70
     0
  9
$DIMBLK
  1

  9
$DIMASO
 70
     1
  9
$DIMSHO
 70
     1
  9
$DIMPOST
  1

  9
$DIMAPOST
  1

  9
$DIMALT
 70
     0
  9
$DIMALTD
 70
     2
  9
$DIMALTF
 40
25.4
  9
$DIMLFAC
 40
1.0
  9
$DIMTOFL
 70
     0
  9
$DIMTVP
 40
0.0
  9
$DIMTIX
 70
     0
  9
$DIMSOXD
 70
     0
  9
$DIMSAH
 70
     0
  9
$DIMBLK1
  1

  9
$DIMBLK2
  1

  9
$DIMSTYLE
  2
Standard
  9
$DIMCLRD
 70
     0
  9
$DIMCLRE
 70
     0
  9
$DIMCLRT
 70
     0
  9
$DIMTFAC
 40
1.0
  9
$DIMGAP
 40
0.09
  9
$DIMJUST
 70
     0
  9
$DIMSD1
 70
     0
  9
$DIMSD2
 70
     0
  9
$DIMTOLJ
 70
     1
  9
$DIMTZIN
 70
     0
  9
$DIMALTZ
 70
     0
  9
$DIMALTTZ
 70
     0
  9
$DIMUPT
 70
     0
  9
$DIMDEC
 70
     4
  9
$DIMTDEC
 70
     4
  9
$DIMALTU
 70
     2
  9
$DIMALTTD
 70
     2
  9
$DIMTXSTY
  7
Standard
  9
$DIMAUNIT
 70
     0
  9
$DIMADEC
 70
     0
  9
$DIMALTRND
 40
0.0
  9
$DIMAZIN
 70
     0
  9
$DIMDSEP
 70
    46
  9
$DIMATFIT
 70
     3
  9
$DIMFRAC
 70
     0
  9
$DIMLDRBLK
  1

  9
$DIMLUNIT
 70
     2
  9
$DIMLWD
 70
    -2
  9
$DIMLWE
 70
    -2
  9
$DIMTMOVE
 70
     0
  9
$LUNITS
 70
     2
  9
$LUPREC
 70
     4
  9
$SKETCHINC
 40
0.1
  9
$FILLETRAD
 40
0.5
  9
$AUNITS
 70
     0
  9
$AUPREC
 70
     0
  9
$MENU
  1
.
  9
$ELEVATION
 40
0.0
  9
$PELEVATION
 40
0.0
  9
$THICKNESS
 40
0.0
  9
$LIMCHECK
 70
     0
  9
$CHAMFERA
 40
0.5
  9
$CHAMFERB
 40
0.5
  9
$CHAMFERC
 40
1.0
  9
$CHAMFERD
 40
0.0
  9
$SKPOLY
 70
     0
  9
$TDCREATE
 40
2456077.614027778
  9
$TDUCREATE
 40
2456077.572361111
  9
$TDUPDATE
 40
2456077.614027789
  9
$TDUUPDATE
 40
2456077.572361123
  9
$TDINDWG
 40
0.0000000116
  9
$TDUSRTIMER
 40
0.0000000116
  9
$USRTIMER
 70
     1
  9
$ANGBASE
 50
0.0
  9
$ANGDIR
 70
     0
  9
$PDMODE
 70
     0
  9
$PDSIZE
 40
0.0
  9
$PLINEWID
 40
0.0
  9
$SPLFRAME
 70
     0
  9
$SPLINETYPE
 70
     6
  9
$SPLINESEGS
 70
     8
  9
$HANDSEED
  5
682
  9
$SURFTAB1
 70
     6
  9
$SURFTAB2
 70
     6
  9
$SURFTYPE
 70
     6
  9
$SURFU
 70
     6
  9
$SURFV
 70
     6
  9
$UCSBASE
  2

  9
$UCSNAME
  2

  9
$UCSORG
 10
0.0
 20
0.0
 30
0.0
  9
$UCSXDIR
 10
1.0
 20
0.0
 30
0.0
  9
$UCSYDIR
 10
0.0
 20
1.0
 30
0.0
  9
$UCSORTHOREF
  2

  9
$UCSORTHOVIEW
 70
     0
  9
$UCSORGTOP
 10
0.0
 20
0.0
 30
0.0
  9
$UCSORGBOTTOM
 10
0.0
 20
0.0
 30
0.0
  9
$UCSORGLEFT
 10
0.0
 20
0.0
 30
0.0
  9
$UCSORGRIGHT
 10
0.0
 20
0.0
 30
0.0
  9
$UCSORGFRONT
 10
0.0
 20
0.0
 30
0.0
  9
$UCSORGBACK
 10
0.0
 20
0.0
 30
0.0
  9
$PUCSBASE
  2

  9
$PUCSNAME
  2

  9
$PUCSORG
 10
0.0
 20
0.0
 30
0.0
  9
$PUCSXDIR
 10
1.0
 20
0.0
 30
0.0
  9
$PUCSYDIR
 10
0.0
 20
1.0
 30
0.0
  9
$PUCSORTHOREF
  2

  9
$PUCSORTHOVIEW
 70
     0
  9
$PUCSORGTOP
 10
0.0
 20
0.0
 30
0.0
  9
$PUCSORGBOTTOM
 10
0.0
 20
0.0
 30
0.0
  9
$PUCSORGLEFT
 10
0.0
 20
0.0
 30
0.0
  9
$PUCSORGRIGHT
 10
0.0
 20
0.0
 30
0.0
  9
$PUCSORGFRONT
 10
0.0
 20
0.0
 30
0.0
  9
$PUCSORGBACK
 10
0.0
 20
0.0
 30
0.0
  9
$USERI1
 70
     0
  9
$USERI2
 70
     0
  9
$USERI3
 70
     0
  9
$USERI4
 70
     0
  9
$USERI5
 70
     0
  9
$USERR1
 40
0.0
  9
$USERR2
 40
0.0
  9
$USERR3
 40
0.0
  9
$USERR4
 40
0.0
  9
$USERR5
 40
0.0
  9
$WORLDVIEW
 70
     1
  9
$SHADEDGE
 70
     3
  9
$SHADEDIF
 70
    70
  9
$TILEMODE
 70
     1
  9
$MAXACTVP
 70
    64
  9
$PINSBASE
 10
0.0
 20
0.0
 30
0.0
  9
$PLIMCHECK
 70
     0
  9
$PEXTMIN
 10
1.000000000000000E+20
 20
1.000000000000000E+20
 30
1.000000000000000E+20
  9
$PEXTMAX
 10
-1.000000000000000E+20
 20
-1.000000000000000E+20
 30
-1.000000000000000E+20
  9
$PLIMMIN
 10
0.0
 20
0.0
  9
$PLIMMAX
 10
12.0
 20
9.0
  9
$UNITMODE
 70
     0
  9
$VISRETAIN
 70
     1
  9
$PLINEGEN
 70
     0
  9
$PSLTSCALE
 70
     1
  9
$TREEDEPTH
 70
  3020
  9
$CMLSTYLE
  2
Standard
  9
$CMLJUST
 70
     0
  9
$CMLSCALE
 40
1.0
  9
$PROXYGRAPHICS
 70
     1
  9
$MEASUREMENT
 70
     0
  9
$CELWEIGHT
370
    -1
  9
$ENDCAPS
280
     0
  9
$JOINSTYLE
280
     0
  9
$LWDISPLAY
290
     1
  9
$INSUNITS
 70
     1
  9
$HYPERLINKBASE
  1

  9
$STYLESHEET
  1

  9
$XEDIT
290
     1
  9
$CEPSNTYPE
380
     0
  9
$PSTYLEMODE
290
     1
  9
$FINGERPRINTGUID
  2
{E8751F50-539B-6413-3EE9-69A205EE4618}
  9
$VERSIONGUID
  2
{FAEB1C32-E019-11D5-929B-00C0DF256EC4}
  9
$EXTNAMES
290
     1
  9
$PSVPSCALE
 40
0.0
  9
$OLESTARTUP
290
     0
  9
$SORTENTS
280
   127
  9
$INDEXCTL
280
     0
  9
$HIDETEXT
280
     1
  9
$XCLIPFRAME
290
     0
  9
$HALOGAP
280
     0
  9
$OBSCOLOR
 70
   257
  9
$OBSLTYPE
280
     0
  9
$INTERSECTIONDISPLAY
280
     0
  9
$INTERSECTIONCOLOR
 70
   257
  9
$DIMASSOC
280
     2
  9
$PROJECTNAME
  1

  0
ENDSEC
  0
SECTION
  2
CLASSES
  0
CLASS
  1
ACDBDICTIONARYWDFLT
  2
AcDbDictionaryWithDefault
  3
ObjectDBX Classes
 90
        0
 91
        3
280
     0
281
     0
  0
CLASS
  1
VISUALSTYLE
  2
AcDbVisualStyle
  3
ObjectDBX Classes
 90
     4095
 91
        3
280
     0
281
     0
  0
ENDSEC
  0
SECTION
  2
TABLES
  0
TABLE
  2
VPORT
  5
8
330
0
100
AcDbSymbolTable
 70
     1
  0
VPORT
  5
29
330
8
100
AcDbSymbolTableRecord
100
AcDbViewportTableRecord
  2
*Active
 70
     0
 10
0.0
 20
0.0
 11
1.0
 21
1.0
 12
0.0
 22
0.0
 13
0.0
 23
0.0
 14
0.5
 24
0.5
 15
0.5
 25
0.5
 16
0.0
 26
0.0
 36
1.0
 17
105.0008259828644
 27
-148.4999796178229
 37
0.0
 40
296.9999592356459
 41
0.7070763662937379
 42
50.0
 43
0.0
 44
0.0
 50
0.0
 51
0.0
 71
     0
 72
   100
 73
     1
 74
     3
 75
     0
 76
     0
 77
     0
 78
     0
281
     0
 65
     1
110
0.0
120
0.0
130
0.0
111
1.0
121
0.0
131
0.0
112
0.0
122
1.0
132
0.0
 79
     0
146
0.0
  0
ENDTAB
  0
TABLE
  2
LTYPE
  5
5
330
0
100
AcDbSymbolTable
 70
     1
  0
LTYPE
  5
14
330
5
100
AcDbSymbolTableRecord
100
AcDbLinetypeTableRecord
  2
ByBlock
 70
     0
  3

 72
    65
 73
     0
 40
0.0
  0
LTYPE
  5
15
330
5
100
AcDbSymbolTableRecord
100
AcDbLinetypeTableRecord
  2
ByLayer
 70
     0
  3

 72
    65
 73
     0
 40
0.0
  0
LTYPE
  5
16
330
5
100
AcDbSymbolTableRecord
100
AcDbLinetypeTableRecord
  2
Continuous
 70
     0
  3
Solid line
 72
    65
 73
     0
 40
0.0
  0
ENDTAB
  0
TABLE
  2
LAYER
  5
2
330
0
100
AcDbSymbolTable
 70
     2
  0
LAYER
  5
10
330
2
100
AcDbSymbolTableRecord
100
AcDbLayerTableRecord
  2
0
 70
     0
 62
     7
  6
Continuous
370
    -3
390
F
  0
LAYER
  5
3B
330
2
100
AcDbSymbolTableRecord
100
AcDbLayerTableRecord
  2
Ebene 1
 70
     0
 62
     7
  6
Continuous
370
    -3
390
F
  0
ENDTAB
  0
TABLE
  2
STYLE
  5
3
330
0
100
AcDbSymbolTable
 70
     1
  0
STYLE
  5
11
330
3
100
AcDbSymbolTableRecord
100
AcDbTextStyleTableRecord
  2
Standard
 70
     0
 40
0.0
 41
1.0
 50
0.0
 71
     0
 42
0.2
  3
txt
  4

  0
ENDTAB
  0
TABLE
  2
VIEW
  5
6
330
0
100
AcDbSymbolTable
 70
     0
  0
ENDTAB
  0
TABLE
  2
UCS
  5
7
330
0
100
AcDbSymbolTable
 70
     0
  0
ENDTAB
  0
TABLE
  2
APPID
  5
9
330
0
100
AcDbSymbolTable
 70
     1
  0
APPID
  5
12
330
9
100
AcDbSymbolTableRecord
100
AcDbRegAppTableRecord
  2
ACAD
 70
     0
  0
ENDTAB
  0
TABLE
  2
DIMSTYLE
  5
A
330
0
100
AcDbSymbolTable
 70
     1
100
AcDbDimStyleTable
  0
DIMSTYLE
105
27
330
A
100
AcDbSymbolTableRecord
100
AcDbDimStyleTableRecord
  2
Standard
 70
     0
340
11
  0
ENDTAB
  0
TABLE
  2
BLOCK_RECORD
  5
1
330
0
100
AcDbSymbolTable
 70
     6
  0
BLOCK_RECORD
  5
1F
330
1
100
AcDbSymbolTableRecord
100
AcDbBlockTableRecord
  2
*Model_Space
340
22
  0
BLOCK_RECORD
  5
1B
330
1
100
AcDbSymbolTableRecord
100
AcDbBlockTableRecord
  2
*Paper_Space
340
1E
  0
BLOCK_RECORD
  5
23
330
1
100
AcDbSymbolTableRecord
100
AcDbBlockTableRecord
  2
*Paper_Space0
340
26
  0
BLOCK_RECORD
  5
90
330
1
100
AcDbSymbolTableRecord
100
AcDbBlockTableRecord
  2
block 2
340
0
102
{BLKREFS
331
91
102
}
  0
BLOCK_RECORD
  5
137
330
1
100
AcDbSymbolTableRecord
100
AcDbBlockTableRecord
  2
block 3
340
0
102
{BLKREFS
331
138
102
}
  0
BLOCK_RECORD
  5
198
330
1
100
AcDbSymbolTableRecord
100
AcDbBlockTableRecord
  2
block 4
340
0
102
{BLKREFS
331
199
102
}
  0
BLOCK_RECORD
  5
483
330
1
100
AcDbSymbolTableRecord
100
AcDbBlockTableRecord
  2
block 5
340
0
102
{BLKREFS
331
484
102
}
  0
BLOCK_RECORD
  5
66A
330
1
100
AcDbSymbolTableRecord
100
AcDbBlockTableRecord
  2
block 6
340
0
102
{BLKREFS
331
66B
102
}
  0
ENDTAB
  0
ENDSEC
  0
SECTION
  2
BLOCKS
  0
BLOCK
  5
20
330
1F
100
AcDbEntity
  8
0
100
AcDbBlockBegin
  2
*Model_Space
 70
     0
 71
     0
 10
0.0
 20
0.0
 30
0.0
  3
*Model_Space
  1

  0
ENDBLK
  5
21
330
1F
100
AcDbEntity
  8
0
100
AcDbBlockEnd
  0
BLOCK
  5
1C
330
1B
100
AcDbEntity
 67
     1
  8
0
100
AcDbBlockBegin
  2
*Paper_Space
 70
     0
 71
     0
 10
0.0
 20
0.0
 30
0.0
  3
*Paper_Space
  1

  0
ENDBLK
  5
1D
330
1B
100
AcDbEntity
 67
     1
  8
0
100
AcDbBlockEnd
  0
BLOCK
  5
24
330
23
100
AcDbEntity
  8
0
100
AcDbBlockBegin
  2
*Paper_Space0
 70
     0
 71
     0
 10
0.0
 20
0.0
 30
0.0
  3
*Paper_Space0
  1

  0
ENDBLK
  5
25
330
23
100
AcDbEntity
  8
0
100
AcDbBlockEnd
  0
BLOCK
  5
92
330
90
100
AcDbEntity
  8
0
100
AcDbBlockBegin
  2
block 2
 70
     0
 71
     0
 10
0.0
 20
0.0
 30
0.0
  3
block 2
  1

  0
POLYLINE
  5
94
330
90
100
AcDbEntity
  8
Ebene 1
 62
   179
420
  1709851
370
    18
100
AcDb2dPolyline
 66
     1
 10
0.0
 20
0.0
 30
0.0
  0
VERTEX
  5
95
330
94
100
AcDbEntity
  8
Ebene 1
 62
   179
420
  1709851
370
    18
100
AcDbVertex
100
AcDb2dVertex
 10
95.25706242193226
 20
-68.79838458566499
 30
0.0
  0
VERTEX
  5
96
330
94
100
AcDbEntity
  8
Ebene 1
 62
   179
420
  1709851
370
    18
100
AcDbVertex
100
AcDb2dVertex
 10
98.30511065250705
 20
-65.77152369232448
 30
0.0
  0
SEQEND
  5
97
330
94
100
AcDbEntity
  8
Ebene 1
370
    18
  0
POLYLINE
  5
98
330
90
100
AcDbEntity
  8
Ebene 1
 62
   179
420
  1709851
370
    18
100
AcDb2dPolyline
 66
     1
 10
0.0
 20
0.0
 30
0.0
  0
VERTEX
  5
99
330
98
100
AcDbEntity
  8
Ebene 1
 62
   179
420
  1709851
370
    18
100
AcDbVertex
100
AcDb2dVertex
 10
95.25706242193226
 20
-82.93774547622738
 30
0.0
  0
VERTEX
  5
9A
330
98
100
AcDbEntity
  8
Ebene 1
 62
   179
420
  1709851
370
    18
100
AcDbVertex
100
AcDb2dVertex
 10
112.4444715430694
 20
-65.77152369232448
 30
0.0
  0
SEQEND
  5
9B
330
98
100
AcDbEntity
  8
Ebene 1
370
    18
  0
POLYLINE
  5
9C
330
90
100
AcDbEntity
  8
Ebene 1
 62
   179
420
  1709851
370
    18
100
AcDb2dPolyline
 66
     1
 10
0.0
 20
0.0
 30
0.0
  0
VERTEX
  5
9D
330
9C
100
AcDbEntity
  8
Ebene 1
 62
   179
420
  1709851
370
    18
100
AcDbVertex
100
AcDb2dVertex
 10
95.25706242193226
 20
-97.07710636678975
 30
0.0
  0
VERTEX
  5
9E
330
9C
100
AcDbEntity
  8
Ebene 1
 62
   179
420
  1709851
370
    18
100
AcDbVertex
100
AcDb2dVertex
 10
126.5838324336318
 20
-65.77152369232448
 30
0.0
  0
SEQEND
  5
9F
330
9C
100
AcDbEntity
  8
Ebene 1
370
    18
  0
POLYLINE
  5
A0
330
90
100
AcDbEntity
  8
Ebene 1
 62
   179
420
  1709851
370
    18
100
AcDb2dPolyline
 66
     1
 10
0.0
 20
0.0
 30
0.0
  0
VERTEX
  5
A1
330
A0
100
AcDbEntity
  8
Ebene 1
 62
   179
420
  1709851
370
    18
100
AcDbVertex
100
AcDb2dVertex
 10
95.25706242193226
 20
-111.2378268493607
 30
0.0
  0
VERTEX
  5
A2
330
A0
100
AcDbEntity
  8
Ebene 1
 62
   179
420
  1709851
370
    18
100
AcDbVertex
100
AcDb2dVertex
 10
140.7231933241942
 20
-65.77152369232448
 30
0.0
  0
SEQEND
  5
A3
330
A0
100
AcDbEntity
  8
Ebene 1
370
    18
  0
POLYLINE
  5
A4
330
90
100
AcDbEntity
  8
Ebene 1
 62
   179
420
  1709851
370
    18
100
AcDb2dPolyline
 66
     1
 10
0.0
 20
0.0
 30
0.0
  0
VERTEX
  5
A5
330
A4
100
AcDbEntity
  8
Ebene 1
 62
   179
420
  1709851
370
    18
100
AcDbVertex
100
AcDb2dVertex
 10
95.25706242193226
 20
-125.3768432303745
 30
0.0
  0
VERTEX
  5
A6
330
A4
100
AcDbEntity
  8
Ebene 1
 62
   179
420
  1709851
370
    18
100
AcDbVertex
100
AcDb2dVertex
 10
154.8625542147566
 20
-65.77152369232448
 30
0.0
  0
SEQEND
  5
A7
330
A4
100
AcDbEntity
  8
Ebene 1
370
    18
  0
POLYLINE
  5
A8
330
90
100
AcDbEntity
  8
Ebene 1
 62
   179
420
  1709851
370
    18
100
AcDb2dPolyline
 66
     1
 10
0.0
 20
0.0
 30
0.0
  0
VERTEX
  5
A9
330
A8
100
AcDbEntity
  8
Ebene 1
 62
   179
420
  1709851
370
    18
100
AcDbVertex
100
AcDb2dVertex
 10
95.25706242193226
 20
-139.5162041209369
 30
0.0
  0
VERTEX
  5
AA
330
A8
100
AcDbEntity
  8
Ebene 1
 62
   179
420
  1709851
370
    18
100
AcDbVertex
100
AcDb2dVertex
 10
155.2645968578852
 20
-79.50918644930674
 30
0.0
  0
SEQEND
  5
AB
330
A8
100
AcDbEntity
  8
Ebene 1
370
    18
  0
POLYLINE
  5
AC
330
90
100
AcDbEntity
  8
Ebene 1
 62
   179
420
  1709851
370
    18
100
AcDb2dPolyline
 66
     1
 10
0.0
 20
0.0
 30
0.0
  0
VERTEX
  5
AD
330
AC
100
AcDbEntity
  8
Ebene 1
 62
   179
420
  1709851
370
    18
100
AcDbVertex
100
AcDb2dVertex
 10
95.25706242193226
 20
-153.655392756725
 30
0.0
  0
VERTEX
  5
AE
330
AC
100
AcDbEntity
  8
Ebene 1
 62
   179
420
  1709851
370
    18
100
AcDbVertex
100
AcDb2dVertex
 10
155.2645968578852
 20
-93.64854733986911
 30
0.0
  0
SEQEND
  5
AF
330
AC
100
AcDbEntity
  8
Ebene 1
370
    18
  0
POLYLINE
  5
B0
330
90
100
AcDbEntity
  8
Ebene 1
 62
   179
420
  1709851
370
    18
100
AcDb2dPolyline
 66
     1
 10
0.0
 20
0.0
 30
0.0
  0
VERTEX
  5
B1
330
B0
100
AcDbEntity
  8
Ebene 1
 62
   179
420
  1709851
370
    18
100
AcDbVertex
100
AcDb2dVertex
 10
95.25706242193226
 20
-167.7947536472874
 30
0.0
  0
VERTEX
  5
B2
330
B0
100
AcDbEntity
  8
Ebene 1
 62
   179
420
  1709851
370
    18
100
AcDbVertex
100
AcDb2dVertex
 10
155.2645968578852
 20
-107.787563720883
 30
0.0
  0
SEQEND
  5
B3
330
B0
100
AcDbEntity
  8
Ebene 1
370
    18
  0
POLYLINE
  5
B4
330
90
100
AcDbEntity
  8
Ebene 1
 62
   179
420
  1709851
370
    18
100
AcDb2dPolyline
 66
     1
 10
0.0
 20
0.0
 30
0.0
  0
VERTEX
  5
B5
330
B4
100
AcDbEntity
  8
Ebene 1
 62
   179
420
  1709851
370
    18
100
AcDbVertex
100
AcDb2dVertex
 10
95.25706242193226
 20
-181.9341145378498
 30
0.0
  0
VERTEX
  5
B6
330
B4
100
AcDbEntity
  8
Ebene 1
 62
   179
420
  1709851
370
    18
100
AcDbVertex
100
AcDb2dVertex
 10
155.2645968578852
 20
-121.9479396939054
 30
0.0
  0
SEQEND
  5
B7
330
B4
100
AcDbEntity
  8
Ebene 1
370
    18
  0
POLYLINE
  5
B8
330
90
100
AcDbEntity
  8
Ebene 1
 62
   179
420
  1709851
370
    18
100
AcDb2dPolyline
 66
     1
 10
0.0
 20
0.0
 30
0.0
  0
VERTEX
  5
B9
330
B8
100
AcDbEntity
  8
Ebene 1
 62
   179
420
  1709851
370
    18
100
AcDbVertex
100
AcDb2dVertex
 10
95.25706242193226
 20
-196.0741644475092
 30
0.0
  0
VERTEX
  5
BA
330
B8
100
AcDbEntity
  8
Ebene 1
 62
   179
420
  1709851
370
    18
100
AcDbVertex
100
AcDb2dVertex
 10
155.2645968578852
 20
-136.0876450940163
 30
0.0
  0
SEQEND
  5
BB
330
B8
100
AcDbEntity
  8
Ebene 1
370
    18
  0
POLYLINE
  5
BC
330
90
100
AcDbEntity
  8
Ebene 1
 62
   179
420
  1709851
370
    18
100
AcDb2dPolyline
 66
     1
 10
0.0
 20
0.0
 30
0.0
  0
VERTEX
  5
BD
330
BC
100
AcDbEntity
  8
Ebene 1
 62
   179
420
  1709851
370
    18
100
AcDbVertex
100
AcDb2dVertex
 10
95.25706242193226
 20
-210.2135253380716
 30
0.0
  0
VERTEX
  5
BE
330
BC
100
AcDbEntity
  8
Ebene 1
 62
   179
420
  1709851
370
    18
100
AcDbVertex
100
AcDb2dVertex
 10
155.2645968578852
 20
-150.2268337298044
 30
0.0
  0
SEQEND
  5
BF
330
BC
100
AcDbEntity
  8
Ebene 1
370
    18
  0
POLYLINE
  5
C0
330
90
100
AcDbEntity
  8
Ebene 1
 62
   179
420
  1709851
370
    18
100
AcDb2dPolyline
 66
     1
 10
0.0
 20
0.0
 30
0.0
  0
VERTEX
  5
C1
330
C0
100
AcDbEntity
  8
Ebene 1
 62
   179
420
  1709851
370
    18
100
AcDbVertex
100
AcDb2dVertex
 10
95.25706242193226
 20
-224.352886228634
 30
0.0
  0
VERTEX
  5
C2
330
C0
100
AcDbEntity
  8
Ebene 1
 62
   179
420
  1709851
370
    18
100
AcDbVertex
100
AcDb2dVertex
 10
155.2645968578852
 20
-164.3661946203668
 30
0.0
  0
SEQEND
  5
C3
330
C0
100
AcDbEntity
  8
Ebene 1
370
    18
  0
POLYLINE
  5
C4
330
90
100
AcDbEntity
  8
Ebene 1
 62
   179
420
  1709851
370
    18
100
AcDb2dPolyline
 66
     1
 10
0.0
 20
0.0
 30
0.0
  0
VERTEX
  5
C5
330
C4
100
AcDbEntity
  8
Ebene 1
 62
   179
420
  1709851
370
    18
100
AcDbVertex
100
AcDb2dVertex
 10
98.7495279701043
 20
-235.0202798891616
 30
0.0
  0
VERTEX
  5
C6
330
C4
100
AcDbEntity
  8
Ebene 1
 62
   179
420
  1709851
370
    18
100
AcDbVertex
100
AcDb2dVertex
 10
155.2645968578852
 20
-178.5055555109292
 30
0.0
  0
SEQEND
  5
C7
330
C4
100
AcDbEntity
  8
Ebene 1
370
    18
  0
POLYLINE
  5
C8
330
90
100
AcDbEntity
  8
Ebene 1
 62
   179
420
  1709851
370
    18
100
AcDb2dPolyline
 66
     1
 10
0.0
 20
0.0
 30
0.0
  0
VERTEX
  5
C9
330
C8
100
AcDbEntity
  8
Ebene 1
 62
   179
420
  1709851
370
    18
100
AcDbVertex
100
AcDb2dVertex
 10
112.8888888606667
 20
-235.0202798891616
 30
0.0
  0
VERTEX
  5
CA
330
C8
100
AcDbEntity
  8
Ebene 1
 62
   179
420
  1709851
370
    18
100
AcDbVertex
100
AcDb2dVertex
 10
155.2645968578852
 20
-192.6449164014916
 30
0.0
  0
SEQEND
  5
CB
330
C8
100
AcDbEntity
  8
Ebene 1
370
    18
  0
POLYLINE
  5
CC
330
90
100
AcDbEntity
  8
Ebene 1
 62
   179
420
  1709851
370
    18
100
AcDb2dPolyline
 66
     1
 10
0.0
 20
0.0
 30
0.0
  0
VERTEX
  5
CD
330
CC
100
AcDbEntity
  8
Ebene 1
 62
   179
420
  1709851
370
    18
100
AcDbVertex
100
AcDb2dVertex
 10
127.0282497512291
 20
-235.0202798891616
 30
0.0
  0
VERTEX
  5
CE
330
CC
100
AcDbEntity
  8
Ebene 1
 62
   179
420
  1709851
370
    18
100
AcDbVertex
100
AcDb2dVertex
 10
155.2645968578852
 20
-206.7842772920539
 30
0.0
  0
SEQEND
  5
CF
330
CC
100
AcDbEntity
  8
Ebene 1
370
    18
  0
POLYLINE
  5
D0
330
90
100
AcDbEntity
  8
Ebene 1
 62
   179
420
  1709851
370
    18
100
AcDb2dPolyline
 66
     1
 10
0.0
 20
0.0
 30
0.0
  0
VERTEX
  5
D1
330
D0
100
AcDbEntity
  8
Ebene 1
 62
   179
420
  1709851
370
    18
100
AcDbVertex
100
AcDb2dVertex
 10
141.1676106417914
 20
-235.0202798891616
 30
0.0
  0
VERTEX
  5
D2
330
D0
100
AcDbEntity
  8
Ebene 1
 62
   179
420
  1709851
370
    18
100
AcDbVertex
100
AcDb2dVertex
 10
155.2645968578852
 20
-220.9236381826163
 30
0.0
  0
SEQEND
  5
D3
330
D0
100
AcDbEntity
  8
Ebene 1
370
    18
  0
POLYLINE
  5
D4
330
90
100
AcDbEntity
  8
Ebene 1
 62
   179
420
  1709851
370
    18
100
AcDb2dPolyline
 66
     1
 10
0.0
 20
0.0
 30
0.0
  0
VERTEX
  5
D5
330
D4
100
AcDbEntity
  8
Ebene 1
 62
   179
420
  1709851
370
    18
100
AcDbVertex
100
AcDb2dVertex
 10
95.25706242193226
 20
-75.86806503094618
 30
0.0
  0
VERTEX
  5
D6
330
D4
100
AcDbEntity
  8
Ebene 1
 62
   179
420
  1709851
370
    18
100
AcDbVertex
100
AcDb2dVertex
 10
105.3747910977882
 20
-65.771868201873
 30
0.0
  0
SEQEND
  5
D7
330
D4
100
AcDbEntity
  8
Ebene 1
370
    18
  0
POLYLINE
  5
D8
330
90
100
AcDbEntity
  8
Ebene 1
 62
   179
420
  1709851
370
    18
100
AcDb2dPolyline
 66
     1
 10
0.0
 20
0.0
 30
0.0
  0
VERTEX
  5
D9
330
D8
100
AcDbEntity
  8
Ebene 1
 62
   179
420
  1709851
370
    18
100
AcDbVertex
100
AcDb2dVertex
 10
95.25706242193226
 20
-90.00777043105708
 30
0.0
  0
VERTEX
  5
DA
330
D8
100
AcDbEntity
  8
Ebene 1
 62
   179
420
  1709851
370
    18
100
AcDbVertex
100
AcDb2dVertex
 10
119.5138074788021
 20
-65.771868201873
 30
0.0
  0
SEQEND
  5
DB
330
D8
100
AcDbEntity
  8
Ebene 1
370
    18
  0
POLYLINE
  5
DC
330
90
100
AcDbEntity
  8
Ebene 1
 62
   179
420
  1709851
370
    18
100
AcDb2dPolyline
 66
     1
 10
0.0
 20
0.0
 30
0.0
  0
VERTEX
  5
DD
330
DC
100
AcDbEntity
  8
Ebene 1
 62
   179
420
  1709851
370
    18
100
AcDbVertex
100
AcDb2dVertex
 10
95.25706242193226
 20
-104.1467868120709
 30
0.0
  0
VERTEX
  5
DE
330
DC
100
AcDbEntity
  8
Ebene 1
 62
   179
420
  1709851
370
    18
100
AcDbVertex
100
AcDb2dVertex
 10
133.6531683693645
 20
-65.771868201873
 30
0.0
  0
SEQEND
  5
DF
330
DC
100
AcDbEntity
  8
Ebene 1
370
    18
  0
POLYLINE
  5
E0
330
90
100
AcDbEntity
  8
Ebene 1
 62
   179
420
  1709851
370
    18
100
AcDb2dPolyline
 66
     1
 10
0.0
 20
0.0
 30
0.0
  0
VERTEX
  5
E1
330
E0
100
AcDbEntity
  8
Ebene 1
 62
   179
420
  1709851
370
    18
100
AcDbVertex
100
AcDb2dVertex
 10
95.25706242193226
 20
-118.3075072946419
 30
0.0
  0
VERTEX
  5
E2
330
E0
100
AcDbEntity
  8
Ebene 1
 62
   179
420
  1709851
370
    18
100
AcDbVertex
100
AcDb2dVertex
 10
147.7925292599269
 20
-65.771868201873
 30
0.0
  0
SEQEND
  5
E3
330
E0
100
AcDbEntity
  8
Ebene 1
370
    18
  0
POLYLINE
  5
E4
330
90
100
AcDbEntity
  8
Ebene 1
 62
   179
420
  1709851
370
    18
100
AcDb2dPolyline
 66
     1
 10
0.0
 20
0.0
 30
0.0
  0
VERTEX
  5
E5
330
E4
100
AcDbEntity
  8
Ebene 1
 62
   179
420
  1709851
370
    18
100
AcDbVertex
100
AcDb2dVertex
 10
95.25706242193226
 20
-132.4468681852043
 30
0.0
  0
VERTEX
  5
E6
330
E4
100
AcDbEntity
  8
Ebene 1
 62
   179
420
  1709851
370
    18
100
AcDbVertex
100
AcDb2dVertex
 10
155.2645968578852
 20
-72.43950600402555
 30
0.0
  0
SEQEND
  5
E7
330
E4
100
AcDbEntity
  8
Ebene 1
370
    18
  0
POLYLINE
  5
E8
330
90
100
AcDbEntity
  8
Ebene 1
 62
   179
420
  1709851
370
    18
100
AcDb2dPolyline
 66
     1
 10
0.0
 20
0.0
 30
0.0
  0
VERTEX
  5
E9
330
E8
100
AcDbEntity
  8
Ebene 1
 62
   179
420
  1709851
370
    18
100
AcDbVertex
100
AcDb2dVertex
 10
95.25706242193226
 20
-146.5862290757667
 30
0.0
  0
VERTEX
  5
EA
330
E8
100
AcDbEntity
  8
Ebene 1
 62
   179
420
  1709851
370
    18
100
AcDbVertex
100
AcDb2dVertex
 10
155.2645968578852
 20
-86.57886689458793
 30
0.0
  0
SEQEND
  5
EB
330
E8
100
AcDbEntity
  8
Ebene 1
370
    18
  0
POLYLINE
  5
EC
330
90
100
AcDbEntity
  8
Ebene 1
 62
   179
420
  1709851
370
    18
100
AcDb2dPolyline
 66
     1
 10
0.0
 20
0.0
 30
0.0
  0
VERTEX
  5
ED
330
EC
100
AcDbEntity
  8
Ebene 1
 62
   179
420
  1709851
370
    18
100
AcDbVertex
100
AcDb2dVertex
 10
95.25706242193226
 20
-160.7254177115548
 30
0.0
  0
VERTEX
  5
EE
330
EC
100
AcDbEntity
  8
Ebene 1
 62
   179
420
  1709851
370
    18
100
AcDbVertex
100
AcDb2dVertex
 10
155.2645968578852
 20
-100.7182277851503
 30
0.0
  0
SEQEND
  5
EF
330
EC
100
AcDbEntity
  8
Ebene 1
370
    18
  0
POLYLINE
  5
F0
330
90
100
AcDbEntity
  8
Ebene 1
 62
   179
420
  1709851
370
    18
100
AcDb2dPolyline
 66
     1
 10
0.0
 20
0.0
 30
0.0
  0
VERTEX
  5
F1
330
F0
100
AcDbEntity
  8
Ebene 1
 62
   179
420
  1709851
370
    18
100
AcDbVertex
100
AcDb2dVertex
 10
95.25706242193226
 20
-174.8647786021172
 30
0.0
  0
VERTEX
  5
F2
330
F0
100
AcDbEntity
  8
Ebene 1
 62
   179
420
  1709851
370
    18
100
AcDbVertex
100
AcDb2dVertex
 10
155.2645968578852
 20
-114.8575886757127
 30
0.0
  0
SEQEND
  5
F3
330
F0
100
AcDbEntity
  8
Ebene 1
370
    18
  0
POLYLINE
  5
F4
330
90
100
AcDbEntity
  8
Ebene 1
 62
   179
420
  1709851
370
    18
100
AcDb2dPolyline
 66
     1
 10
0.0
 20
0.0
 30
0.0
  0
VERTEX
  5
F5
330
F4
100
AcDbEntity
  8
Ebene 1
 62
   179
420
  1709851
370
    18
100
AcDbVertex
100
AcDb2dVertex
 10
95.25706242193226
 20
-189.0041394926795
 30
0.0
  0
VERTEX
  5
F6
330
F4
100
AcDbEntity
  8
Ebene 1
 62
   179
420
  1709851
370
    18
100
AcDbVertex
100
AcDb2dVertex
 10
155.2645968578852
 20
-129.0179646487351
 30
0.0
  0
SEQEND
  5
F7
330
F4
100
AcDbEntity
  8
Ebene 1
370
    18
  0
POLYLINE
  5
F8
330
90
100
AcDbEntity
  8
Ebene 1
 62
   179
420
  1709851
370
    18
100
AcDb2dPolyline
 66
     1
 10
0.0
 20
0.0
 30
0.0
  0
VERTEX
  5
F9
330
F8
100
AcDbEntity
  8
Ebene 1
 62
   179
420
  1709851
370
    18
100
AcDbVertex
100
AcDb2dVertex
 10
95.25706242193226
 20
-203.1435003832419
 30
0.0
  0
VERTEX
  5
FA
330
F8
100
AcDbEntity
  8
Ebene 1
 62
   179
420
  1709851
370
    18
100
AcDbVertex
100
AcDb2dVertex
 10
155.2645968578852
 20
-143.1573255392975
 30
0.0
  0
SEQEND
  5
FB
330
F8
100
AcDbEntity
  8
Ebene 1
370
    18
  0
POLYLINE
  5
FC
330
90
100
AcDbEntity
  8
Ebene 1
 62
   179
420
  1709851
370
    18
100
AcDb2dPolyline
 66
     1
 10
0.0
 20
0.0
 30
0.0
  0
VERTEX
  5
FD
330
FC
100
AcDbEntity
  8
Ebene 1
 62
   179
420
  1709851
370
    18
100
AcDbVertex
100
AcDb2dVertex
 10
95.25706242193226
 20
-217.2828612738043
 30
0.0
  0
VERTEX
  5
FE
330
FC
100
AcDbEntity
  8
Ebene 1
 62
   179
420
  1709851
370
    18
100
AcDbVertex
100
AcDb2dVertex
 10
155.2645968578852
 20
-157.2968586846341
 30
0.0
  0
SEQEND
  5
FF
330
FC
100
AcDbEntity
  8
Ebene 1
370
    18
  0
POLYLINE
  5
100
330
90
100
AcDbEntity
  8
Ebene 1
 62
   179
420
  1709851
370
    18
100
AcDb2dPolyline
 66
     1
 10
0.0
 20
0.0
 30
0.0
  0
VERTEX
  5
101
330
100
100
AcDbEntity
  8
Ebene 1
 62
   179
420
  1709851
370
    18
100
AcDbVertex
100
AcDb2dVertex
 10
95.25706242193226
 20
-231.4222221643667
 30
0.0
  0
VERTEX
  5
102
330
100
100
AcDbEntity
  8
Ebene 1
 62
   179
420
  1709851
370
    18
100
AcDbVertex
100
AcDb2dVertex
 10
155.2645968578852
 20
-171.4362195751965
 30
0.0
  0
SEQEND
  5
103
330
100
100
AcDbEntity
  8
Ebene 1
370
    18
  0
POLYLINE
  5
104
330
90
100
AcDbEntity
  8
Ebene 1
 62
   179
420
  1709851
370
    18
100
AcDb2dPolyline
 66
     1
 10
0.0
 20
0.0
 30
0.0
  0
VERTEX
  5
105
330
104
100
AcDbEntity
  8
Ebene 1
 62
   179
420
  1709851
370
    18
100
AcDbVertex
100
AcDb2dVertex
 10
105.8192084153855
 20
-235.0202798891616
 30
0.0
  0
VERTEX
  5
106
330
104
100
AcDbEntity
  8
Ebene 1
 62
   179
420
  1709851
370
    18
100
AcDbVertex
100
AcDb2dVertex
 10
155.2645968578852
 20
-185.5755804657589
 30
0.0
  0
SEQEND
  5
107
330
104
100
AcDbEntity
  8
Ebene 1
370
    18
  0
POLYLINE
  5
108
330
90
100
AcDbEntity
  8
Ebene 1
 62
   179
420
  1709851
370
    18
100
AcDb2dPolyline
 66
     1
 10
0.0
 20
0.0
 30
0.0
  0
VERTEX
  5
109
330
108
100
AcDbEntity
  8
Ebene 1
 62
   179
420
  1709851
370
    18
100
AcDbVertex
100
AcDb2dVertex
 10
119.9585693059479
 20
-235.0202798891616
 30
0.0
  0
VERTEX
  5
10A
330
108
100
AcDbEntity
  8
Ebene 1
 62
   179
420
  1709851
370
    18
100
AcDbVertex
100
AcDb2dVertex
 10
155.2645968578852
 20
-199.7149413563213
 30
0.0
  0
SEQEND
  5
10B
330
108
100
AcDbEntity
  8
Ebene 1
370
    18
  0
POLYLINE
  5
10C
330
90
100
AcDbEntity
  8
Ebene 1
 62
   179
420
  1709851
370
    18
100
AcDb2dPolyline
 66
     1
 10
0.0
 20
0.0
 30
0.0
  0
VERTEX
  5
10D
330
10C
100
AcDbEntity
  8
Ebene 1
 62
   179
420
  1709851
370
    18
100
AcDbVertex
100
AcDb2dVertex
 10
134.0979301965102
 20
-235.0202798891616
 30
0.0
  0
VERTEX
  5
10E
330
10C
100
AcDbEntity
  8
Ebene 1
 62
   179
420
  1709851
370
    18
100
AcDbVertex
100
AcDb2dVertex
 10
155.2645968578852
 20
-213.8536132277866
 30
0.0
  0
SEQEND
  5
10F
330
10C
100
AcDbEntity
  8
Ebene 1
370
    18
  0
POLYLINE
  5
110
330
90
100
AcDbEntity
  8
Ebene 1
 62
   179
420
  1709851
370
    18
100
AcDb2dPolyline
 66
     1
 10
0.0
 20
0.0
 30
0.0
  0
VERTEX
  5
111
330
110
100
AcDbEntity
  8
Ebene 1
 62
   179
420
  1709851
370
    18
100
AcDbVertex
100
AcDb2dVertex
 10
148.2372910870726
 20
-235.0202798891616
 30
0.0
  0
VERTEX
  5
112
330
110
100
AcDbEntity
  8
Ebene 1
 62
   179
420
  1709851
370
    18
100
AcDbVertex
100
AcDb2dVertex
 10
155.2645968578852
 20
-227.992974118349
 30
0.0
  0
SEQEND
  5
113
330
110
100
AcDbEntity
  8
Ebene 1
370
    18
  0
POLYLINE
  5
114
330
90
100
AcDbEntity
  8
Ebene 1
370
     0
100
AcDb2dPolyline
 66
     1
 10
0.0
 20
0.0
 30
0.0
  0
VERTEX
  5
115
330
114
100
AcDbEntity
  8
Ebene 1
370
     0
100
AcDbVertex
100
AcDb2dVertex
 10
65.26388887257292
 20
-235.2641926495173
 30
0.0
  0
VERTEX
  5
116
330
114
100
AcDbEntity
  8
Ebene 1
370
     0
100
AcDbVertex
100
AcDb2dVertex
 10
159.350135593843
 20
-235.2641926495173
 30
0.0
  0
VERTEX
  5
117
330
114
100
AcDbEntity
  8
Ebene 1
370
     0
100
AcDbVertex
100
AcDb2dVertex
 10
159.350135593843
 20
-65.5284722058401
 30
0.0
  0
VERTEX
  5
118
330
114
100
AcDbEntity
  8
Ebene 1
370
     0
100
AcDbVertex
100
AcDb2dVertex
 10
65.26388887257292
 20
-65.5284722058401
 30
0.0
  0
VERTEX
  5
119
330
114
100
AcDbEntity
  8
Ebene 1
370
     0
100
AcDbVertex
100
AcDb2dVertex
 10
65.26388887257292
 20
-235.2641926495173
 30
0.0
  0
SEQEND
  5
11A
330
114
100
AcDbEntity
  8
Ebene 1
370
     0
  0
ENDBLK
  5
93
330
90
100
AcDbEntity
  8
0
100
AcDbBlockEnd
  0
BLOCK
  5
139
330
137
100
AcDbEntity
  8
0
100
AcDbBlockBegin
  2
block 3
 70
     0
 71
     0
 10
0.0
 20
0.0
 30
0.0
  3
block 3
  1

  0
POLYLINE
  5
13B
330
137
100
AcDbEntity
  8
Ebene 1
 62
   179
420
  1709851
370
    25
100
AcDb2dPolyline
 66
     1
 10
0.0
 20
0.0
 30
0.0
  0
VERTEX
  5
13C
330
13B
100
AcDbEntity
  8
Ebene 1
 62
   179
420
  1709851
370
    25
100
AcDbVertex
100
AcDb2dVertex
 10
69.2645060048193
 20
-235.0209689082587
 30
0.0
  0
VERTEX
  5
13D
330
13B
100
AcDbEntity
  8
Ebene 1
 62
   179
420
  1709851
370
    25
100
AcDbVertex
100
AcDb2dVertex
 10
69.2645060048193
 20
-141.3579521673515
 30
0.0
  0
SEQEND
  5
13E
330
13B
100
AcDbEntity
  8
Ebene 1
370
    25
  0
POLYLINE
  5
13F
330
137
100
AcDbEntity
  8
Ebene 1
 62
   179
420
  1709851
370
    25
100
AcDb2dPolyline
 66
     1
 10
0.0
 20
0.0
 30
0.0
  0
VERTEX
  5
140
330
13F
100
AcDbEntity
  8
Ebene 1
 62
   179
420
  1709851
370
    25
100
AcDbVertex
100
AcDb2dVertex
 10
70.8731933416567
 20
-235.0209689082587
 30
0.0
  0
VERTEX
  5
141
330
13F
100
AcDbEntity
  8
Ebene 1
 62
   179
420
  1709851
370
    25
100
AcDbVertex
100
AcDb2dVertex
 10
70.8731933416567
 20
-141.3579521673515
 30
0.0
  0
SEQEND
  5
142
330
13F
100
AcDbEntity
  8
Ebene 1
370
    25
  0
POLYLINE
  5
143
330
137
100
AcDbEntity
  8
Ebene 1
 62
   179
420
  1709851
370
    25
100
AcDb2dPolyline
 66
     1
 10
0.0
 20
0.0
 30
0.0
  0
VERTEX
  5
144
330
143
100
AcDbEntity
  8
Ebene 1
 62
   179
420
  1709851
370
    25
100
AcDbVertex
100
AcDb2dVertex
 10
70.8731933416567
 20
-141.3579521673515
 30
0.0
  0
VERTEX
  5
145
330
143
100
AcDbEntity
  8
Ebene 1
 62
   179
420
  1709851
370
    25
100
AcDbVertex
100
AcDb2dVertex
 10
69.2645060048193
 20
-141.3579521673515
 30
0.0
  0
SEQEND
  5
146
330
143
100
AcDbEntity
  8
Ebene 1
370
    25
  0
POLYLINE
  5
147
330
137
100
AcDbEntity
  8
Ebene 1
370
     0
100
AcDb2dPolyline
 66
     1
 10
0.0
 20
0.0
 30
0.0
  0
VERTEX
  5
148
330
147
100
AcDbEntity
  8
Ebene 1
370
     0
100
AcDbVertex
100
AcDb2dVertex
 10
65.26388887257292
 20
-235.2641926495173
 30
0.0
  0
VERTEX
  5
149
330
147
100
AcDbEntity
  8
Ebene 1
370
     0
100
AcDbVertex
100
AcDb2dVertex
 10
159.350135593843
 20
-235.2641926495173
 30
0.0
  0
VERTEX
  5
14A
330
147
100
AcDbEntity
  8
Ebene 1
370
     0
100
AcDbVertex
100
AcDb2dVertex
 10
159.350135593843
 20
-65.5284722058401
 30
0.0
  0
VERTEX
  5
14B
330
147
100
AcDbEntity
  8
Ebene 1
370
     0
100
AcDbVertex
100
AcDb2dVertex
 10
65.26388887257292
 20
-65.5284722058401
 30
0.0
  0
VERTEX
  5
14C
330
147
100
AcDbEntity
  8
Ebene 1
370
     0
100
AcDbVertex
100
AcDb2dVertex
 10
65.26388887257292
 20
-235.2641926495173
 30
0.0
  0
SEQEND
  5
14D
330
147
100
AcDbEntity
  8
Ebene 1
370
     0
  0
ENDBLK
  5
13A
330
137
100
AcDbEntity
  8
0
100
AcDbBlockEnd
  0
BLOCK
  5
19A
330
198
100
AcDbEntity
  8
0
100
AcDbBlockBegin
  2
block 4
 70
     0
 71
     0
 10
0.0
 20
0.0
 30
0.0
  3
block 4
  1

  0
POLYLINE
  5
19C
330
198
100
AcDbEntity
  8
Ebene 1
 62
   179
420
  1709851
370
    18
100
AcDb2dPolyline
 66
     1
 10
0.0
 20
0.0
 30
0.0
  0
VERTEX
  5
19D
330
19C
100
AcDbEntity
  8
Ebene 1
 62
   179
420
  1709851
370
    18
100
AcDbVertex
100
AcDb2dVertex
 10
79.42443710036959
 20
-105.5227579488797
 30
0.0
  0
VERTEX
  5
19E
330
19C
100
AcDbEntity
  8
Ebene 1
 62
   179
420
  1709851
370
    18
100
AcDbVertex
100
AcDb2dVertex
 10
79.42443710036959
 20
-104.6125637216767
 30
0.0
  0
SEQEND
  5
19F
330
19C
100
AcDbEntity
  8
Ebene 1
370
    18
  0
POLYLINE
  5
1A0
330
198
100
AcDbEntity
  8
Ebene 1
 62
   179
420
  1709851
370
    18
100
AcDb2dPolyline
 66
     1
 10
0.0
 20
0.0
 30
0.0
  0
VERTEX
  5
1A1
330
1A0
100
AcDbEntity
  8
Ebene 1
 62
   179
420
  1709851
370
    18
100
AcDbVertex
100
AcDb2dVertex
 10
79.42443710036959
 20
-104.6125637216767
 30
0.0
  0
VERTEX
  5
1A2
330
1A0
100
AcDbEntity
  8
Ebene 1
 62
   179
420
  1709851
370
    18
100
AcDbVertex
100
AcDb2dVertex
 10
79.38206242590101
 20
-104.4010348588824
 30
0.0
  0
VERTEX
  5
1A3
330
1A0
100
AcDbEntity
  8
Ebene 1
 62
   179
420
  1709851
370
    18
100
AcDbVertex
100
AcDb2dVertex
 10
79.25511065726955
 20
-104.2315361610081
 30
0.0
  0
VERTEX
  5
1A4
330
1A0
100
AcDbEntity
  8
Ebene 1
 62
   179
420
  1709851
370
    18
100
AcDbVertex
100
AcDb2dVertex
 10
79.08578421416954
 20
-104.1047566471509
 30
0.0
  0
VERTEX
  5
1A5
330
1A0
100
AcDbEntity
  8
Ebene 1
 62
   179
420
  1709851
370
    18
100
AcDbVertex
100
AcDb2dVertex
 10
78.87408309660093
 20
-104.0623819726823
 30
0.0
  0
VERTEX
  5
1A6
330
1A0
100
AcDbEntity
  8
Ebene 1
 62
   179
420
  1709851
370
    18
100
AcDbVertex
100
AcDb2dVertex
 10
78.66238197903232
 20
-104.1047566471509
 30
0.0
  0
VERTEX
  5
1A7
330
1A0
100
AcDbEntity
  8
Ebene 1
 62
   179
420
  1709851
370
    18
100
AcDbVertex
100
AcDb2dVertex
 10
78.471868198698
 20
-104.2315361610081
 30
0.0
  0
VERTEX
  5
1A8
330
1A0
100
AcDbEntity
  8
Ebene 1
 62
   179
420
  1709851
370
    18
100
AcDbVertex
100
AcDb2dVertex
 10
78.36610376730084
 20
-104.4010348588824
 30
0.0
  0
VERTEX
  5
1A9
330
1A0
100
AcDbEntity
  8
Ebene 1
 62
   179
420
  1709851
370
    18
100
AcDbVertex
100
AcDb2dVertex
 10
78.32372909283227
 20
-104.6125637216767
 30
0.0
  0
SEQEND
  5
1AA
330
1A0
100
AcDbEntity
  8
Ebene 1
370
    18
  0
POLYLINE
  5
1AB
330
198
100
AcDbEntity
  8
Ebene 1
 62
   179
420
  1709851
370
    18
100
AcDb2dPolyline
 66
     1
 10
0.0
 20
0.0
 30
0.0
  0
VERTEX
  5
1AC
330
1AB
100
AcDbEntity
  8
Ebene 1
 62
   179
420
  1709851
370
    18
100
AcDbVertex
100
AcDb2dVertex
 10
78.32372909283227
 20
-104.6125637216767
 30
0.0
  0
VERTEX
  5
1AD
330
1AB
100
AcDbEntity
  8
Ebene 1
 62
   179
420
  1709851
370
    18
100
AcDbVertex
100
AcDb2dVertex
 10
78.32372909283227
 20
-105.5227579488797
 30
0.0
  0
SEQEND
  5
1AE
330
1AB
100
AcDbEntity
  8
Ebene 1
370
    18
  0
POLYLINE
  5
1AF
330
198
100
AcDbEntity
  8
Ebene 1
 62
   179
420
  1709851
370
    18
100
AcDb2dPolyline
 66
     1
 10
0.0
 20
0.0
 30
0.0
  0
VERTEX
  5
1B0
330
1AF
100
AcDbEntity
  8
Ebene 1
 62
   179
420
  1709851
370
    18
100
AcDbVertex
100
AcDb2dVertex
 10
78.32372909283227
 20
-97.54288327639553
 30
0.0
  0
VERTEX
  5
1B1
330
1AF
100
AcDbEntity
  8
Ebene 1
 62
   179
420
  1709851
370
    18
100
AcDbVertex
100
AcDb2dVertex
 10
78.32372909283227
 20
-96.6116739667325
 30
0.0
  0
SEQEND
  5
1B2
330
1AF
100
AcDbEntity
  8
Ebene 1
370
    18
  0
POLYLINE
  5
1B3
330
198
100
AcDbEntity
  8
Ebene 1
 62
   179
420
  1709851
370
    18
100
AcDb2dPolyline
 66
     1
 10
0.0
 20
0.0
 30
0.0
  0
VERTEX
  5
1B4
330
1B3
100
AcDbEntity
  8
Ebene 1
 62
   179
420
  1709851
370
    18
100
AcDbVertex
100
AcDb2dVertex
 10
79.42443710036959
 20
-96.6116739667325
 30
0.0
  0
VERTEX
  5
1B5
330
1B3
100
AcDbEntity
  8
Ebene 1
 62
   179
420
  1709851
370
    18
100
AcDbVertex
100
AcDb2dVertex
 10
79.38206242590101
 20
-96.40014510393816
 30
0.0
  0
VERTEX
  5
1B6
330
1B3
100
AcDbEntity
  8
Ebene 1
 62
   179
420
  1709851
370
    18
100
AcDbVertex
100
AcDb2dVertex
 10
79.25511065726955
 20
-96.23064640606387
 30
0.0
  0
VERTEX
  5
1B7
330
1B3
100
AcDbEntity
  8
Ebene 1
 62
   179
420
  1709851
370
    18
100
AcDbVertex
100
AcDb2dVertex
 10
79.08578421416954
 20
-96.10352238265816
 30
0.0
  0
VERTEX
  5
1B8
330
1B3
100
AcDbEntity
  8
Ebene 1
 62
   179
420
  1709851
370
    18
100
AcDbVertex
100
AcDb2dVertex
 10
78.87408309660093
 20
-96.0614922177381
 30
0.0
  0
VERTEX
  5
1B9
330
1B3
100
AcDbEntity
  8
Ebene 1
 62
   179
420
  1709851
370
    18
100
AcDbVertex
100
AcDb2dVertex
 10
78.66238197903232
 20
-96.10352238265816
 30
0.0
  0
VERTEX
  5
1BA
330
1B3
100
AcDbEntity
  8
Ebene 1
 62
   179
420
  1709851
370
    18
100
AcDbVertex
100
AcDb2dVertex
 10
78.471868198698
 20
-96.23064640606387
 30
0.0
  0
VERTEX
  5
1BB
330
1B3
100
AcDbEntity
  8
Ebene 1
 62
   179
420
  1709851
370
    18
100
AcDbVertex
100
AcDb2dVertex
 10
78.36610376730084
 20
-96.40014510393816
 30
0.0
  0
VERTEX
  5
1BC
330
1B3
100
AcDbEntity
  8
Ebene 1
 62
   179
420
  1709851
370
    18
100
AcDbVertex
100
AcDb2dVertex
 10
78.32372909283227
 20
-96.6116739667325
 30
0.0
  0
SEQEND
  5
1BD
330
1B3
100
AcDbEntity
  8
Ebene 1
370
    18
  0
POLYLINE
  5
1BE
330
198
100
AcDbEntity
  8
Ebene 1
 62
   179
420
  1709851
370
    18
100
AcDb2dPolyline
 66
     1
 10
0.0
 20
0.0
 30
0.0
  0
VERTEX
  5
1BF
330
1BE
100
AcDbEntity
  8
Ebene 1
 62
   179
420
  1709851
370
    18
100
AcDbVertex
100
AcDb2dVertex
 10
79.42443710036959
 20
-96.6116739667325
 30
0.0
  0
VERTEX
  5
1C0
330
1BE
100
AcDbEntity
  8
Ebene 1
 62
   179
420
  1709851
370
    18
100
AcDbVertex
100
AcDb2dVertex
 10
79.42443710036959
 20
-97.54288327639553
 30
0.0
  0
SEQEND
  5
1C1
330
1BE
100
AcDbEntity
  8
Ebene 1
370
    18
  0
POLYLINE
  5
1C2
330
198
100
AcDbEntity
  8
Ebene 1
 62
   179
420
  1709851
370
    18
100
AcDb2dPolyline
 66
     1
 10
0.0
 20
0.0
 30
0.0
  0
VERTEX
  5
1C3
330
1C2
100
AcDbEntity
  8
Ebene 1
 62
   179
420
  1709851
370
    18
100
AcDbVertex
100
AcDb2dVertex
 10
78.32372909283227
 20
-100.1253268521388
 30
0.0
  0
VERTEX
  5
1C4
330
1C2
100
AcDbEntity
  8
Ebene 1
 62
   179
420
  1709851
370
    18
100
AcDbVertex
100
AcDb2dVertex
 10
78.36610376730084
 20
-100.3368557149332
 30
0.0
  0
VERTEX
  5
1C5
330
1C2
100
AcDbEntity
  8
Ebene 1
 62
   179
420
  1709851
370
    18
100
AcDbVertex
100
AcDb2dVertex
 10
78.471868198698
 20
-100.5063544128074
 30
0.0
  0
VERTEX
  5
1C6
330
1C2
100
AcDbEntity
  8
Ebene 1
 62
   179
420
  1709851
370
    18
100
AcDbVertex
100
AcDb2dVertex
 10
78.66238197903232
 20
-100.6334784362132
 30
0.0
  0
VERTEX
  5
1C7
330
1C2
100
AcDbEntity
  8
Ebene 1
 62
   179
420
  1709851
370
    18
100
AcDbVertex
100
AcDb2dVertex
 10
78.87408309660093
 20
-100.6755086011332
 30
0.0
  0
VERTEX
  5
1C8
330
1C2
100
AcDbEntity
  8
Ebene 1
 62
   179
420
  1709851
370
    18
100
AcDbVertex
100
AcDb2dVertex
 10
79.08578421416954
 20
-100.6334784362132
 30
0.0
  0
VERTEX
  5
1C9
330
1C2
100
AcDbEntity
  8
Ebene 1
 62
   179
420
  1709851
370
    18
100
AcDbVertex
100
AcDb2dVertex
 10
79.25511065726955
 20
-100.5063544128074
 30
0.0
  0
VERTEX
  5
1CA
330
1C2
100
AcDbEntity
  8
Ebene 1
 62
   179
420
  1709851
370
    18
100
AcDbVertex
100
AcDb2dVertex
 10
79.38206242590101
 20
-100.3368557149332
 30
0.0
  0
VERTEX
  5
1CB
330
1C2
100
AcDbEntity
  8
Ebene 1
 62
   179
420
  1709851
370
    18
100
AcDbVertex
100
AcDb2dVertex
 10
79.42443710036959
 20
-100.1253268521388
 30
0.0
  0
SEQEND
  5
1CC
330
1C2
100
AcDbEntity
  8
Ebene 1
370
    18
  0
POLYLINE
  5
1CD
330
198
100
AcDbEntity
  8
Ebene 1
 62
   179
420
  1709851
370
    18
100
AcDb2dPolyline
 66
     1
 10
0.0
 20
0.0
 30
0.0
  0
VERTEX
  5
1CE
330
1CD
100
AcDbEntity
  8
Ebene 1
 62
   179
420
  1709851
370
    18
100
AcDbVertex
100
AcDb2dVertex
 10
79.42443710036959
 20
-99.19411754247578
 30
0.0
  0
VERTEX
  5
1CF
330
1CD
100
AcDbEntity
  8
Ebene 1
 62
   179
420
  1709851
370
    18
100
AcDbVertex
100
AcDb2dVertex
 10
79.42443710036959
 20
-100.1253268521388
 30
0.0
  0
SEQEND
  5
1D0
330
1CD
100
AcDbEntity
  8
Ebene 1
370
    18
  0
POLYLINE
  5
1D1
330
198
100
AcDbEntity
  8
Ebene 1
 62
   179
420
  1709851
370
    18
100
AcDb2dPolyline
 66
     1
 10
0.0
 20
0.0
 30
0.0
  0
VERTEX
  5
1D2
330
1D1
100
AcDbEntity
  8
Ebene 1
 62
   179
420
  1709851
370
    18
100
AcDbVertex
100
AcDb2dVertex
 10
78.32372909283227
 20
-100.1253268521388
 30
0.0
  0
VERTEX
  5
1D3
330
1D1
100
AcDbEntity
  8
Ebene 1
 62
   179
420
  1709851
370
    18
100
AcDbVertex
100
AcDb2dVertex
 10
78.32372909283227
 20
-99.19411754247578
 30
0.0
  0
SEQEND
  5
1D4
330
1D1
100
AcDbEntity
  8
Ebene 1
370
    18
  0
POLYLINE
  5
1D5
330
198
100
AcDbEntity
  8
Ebene 1
 62
   179
420
  1709851
370
    18
100
AcDb2dPolyline
 66
     1
 10
0.0
 20
0.0
 30
0.0
  0
VERTEX
  5
1D6
330
1D5
100
AcDbEntity
  8
Ebene 1
 62
   179
420
  1709851
370
    18
100
AcDbVertex
100
AcDb2dVertex
 10
78.32372909283227
 20
-107.19500729742
 30
0.0
  0
VERTEX
  5
1D7
330
1D5
100
AcDbEntity
  8
Ebene 1
 62
   179
420
  1709851
370
    18
100
AcDbVertex
100
AcDb2dVertex
 10
78.32372909283227
 20
-108.126216607083
 30
0.0
  0
SEQEND
  5
1D8
330
1D5
100
AcDbEntity
  8
Ebene 1
370
    18
  0
POLYLINE
  5
1D9
330
198
100
AcDbEntity
  8
Ebene 1
 62
   179
420
  1709851
370
    18
100
AcDb2dPolyline
 66
     1
 10
0.0
 20
0.0
 30
0.0
  0
VERTEX
  5
1DA
330
1D9
100
AcDbEntity
  8
Ebene 1
 62
   179
420
  1709851
370
    18
100
AcDbVertex
100
AcDb2dVertex
 10
78.32372909283227
 20
-108.126216607083
 30
0.0
  0
VERTEX
  5
1DB
330
1D9
100
AcDbEntity
  8
Ebene 1
 62
   179
420
  1709851
370
    18
100
AcDbVertex
100
AcDb2dVertex
 10
78.36610376730084
 20
-108.3380899794259
 30
0.0
  0
VERTEX
  5
1DC
330
1D9
100
AcDbEntity
  8
Ebene 1
 62
   179
420
  1709851
370
    18
100
AcDbVertex
100
AcDb2dVertex
 10
78.471868198698
 20
-108.5072441677517
 30
0.0
  0
VERTEX
  5
1DD
330
1D9
100
AcDbEntity
  8
Ebene 1
 62
   179
420
  1709851
370
    18
100
AcDbVertex
100
AcDb2dVertex
 10
78.66238197903232
 20
-108.6343681911574
 30
0.0
  0
VERTEX
  5
1DE
330
1D9
100
AcDbEntity
  8
Ebene 1
 62
   179
420
  1709851
370
    18
100
AcDbVertex
100
AcDb2dVertex
 10
78.87408309660093
 20
-108.676742865626
 30
0.0
  0
VERTEX
  5
1DF
330
1D9
100
AcDbEntity
  8
Ebene 1
 62
   179
420
  1709851
370
    18
100
AcDbVertex
100
AcDb2dVertex
 10
79.08578421416954
 20
-108.6343681911574
 30
0.0
  0
VERTEX
  5
1E0
330
1D9
100
AcDbEntity
  8
Ebene 1
 62
   179
420
  1709851
370
    18
100
AcDbVertex
100
AcDb2dVertex
 10
79.25511065726955
 20
-108.5072441677517
 30
0.0
  0
VERTEX
  5
1E1
330
1D9
100
AcDbEntity
  8
Ebene 1
 62
   179
420
  1709851
370
    18
100
AcDbVertex
100
AcDb2dVertex
 10
79.38206242590101
 20
-108.3167303874174
 30
0.0
  0
VERTEX
  5
1E2
330
1D9
100
AcDbEntity
  8
Ebene 1
 62
   179
420
  1709851
370
    18
100
AcDbVertex
100
AcDb2dVertex
 10
79.42443710036959
 20
-108.126216607083
 30
0.0
  0
VERTEX
  5
1E3
330
1D9
100
AcDbEntity
  8
Ebene 1
 62
   179
420
  1709851
370
    18
100
AcDbVertex
100
AcDb2dVertex
 10
79.42443710036959
 20
-107.19500729742
 30
0.0
  0
SEQEND
  5
1E4
330
1D9
100
AcDbEntity
  8
Ebene 1
370
    18
  0
SPLINE
  5
1E5
330
198
100
AcDbEntity
  8
Ebene 1
 62
   179
420
  1709851
370
    18
100
AcDbSpline
210
0.0
220
0.0
230
1.0
 70
     8
 71
     3
 72
    23
 73
    19
 74
     0
 42
0.0000000001
 43
0.0000000001
 40
0.0
 40
0.0
 40
0.0
 40
0.0
 40
1.0
 40
1.0
 40
1.0
 40
2.0
 40
2.0
 40
2.0
 40
3.0
 40
3.0
 40
3.0
 40
4.0
 40
4.0
 40
4.0
 40
5.0
 40
5.0
 40
5.0
 40
6.0
 40
6.0
 40
6.0
 40
6.0
 10
79.86885441796682
 20
-106.3695624191541
 30
0.0
 10
79.86885441796682
 20
-106.3695624191541
 30
0.0
 10
79.84766708073253
 20
-106.305828152677
 30
0.0
 10
79.84766708073253
 20
-106.305828152677
 30
0.0
 10
79.82647974349824
 20
-105.7766614861426
 30
0.0
 10
79.38206242590101
 20
-105.374618843014
 30
0.0
 10
78.87408309660093
 20
-105.374618843014
 30
0.0
 10
78.32372909283227
 20
-105.374618843014
 30
0.0
 10
77.87913952046077
 20
-105.8190361606112
 30
0.0
 10
77.87913952046077
 20
-106.3695624191541
 30
0.0
 10
77.87913952046077
 20
-106.8987290856885
 30
0.0
 10
78.32372909283227
 20
-107.3641614857458
 30
0.0
 10
78.87408309660093
 20
-107.3641614857458
 30
0.0
 10
79.42443710036959
 20
-107.3641614857458
 30
0.0
 10
79.86885441796682
 20
-106.8987290856885
 30
0.0
 10
79.86885441796682
 20
-106.3695624191541
 30
0.0
 10
79.86885441796682
 20
-106.3482028271456
 30
0.0
 10
79.86885441796682
 20
-106.3271877446856
 30
0.0
 10
79.84766708073253
 20
-106.305828152677
 30
0.0
  0
SPLINE
  5
1E6
330
198
100
AcDbEntity
  8
Ebene 1
 62
   179
420
  1709851
370
    18
100
AcDbSpline
210
0.0
220
0.0
230
1.0
 70
     8
 71
     3
 72
    23
 73
    19
 74
     0
 42
0.0000000001
 43
0.0000000001
 40
0.0
 40
0.0
 40
0.0
 40
0.0
 40
1.0
 40
1.0
 40
1.0
 40
2.0
 40
2.0
 40
2.0
 40
3.0
 40
3.0
 40
3.0
 40
4.0
 40
4.0
 40
4.0
 40
5.0
 40
5.0
 40
5.0
 40
6.0
 40
6.0
 40
6.0
 40
6.0
 10
79.17036130833242
 20
-106.3695624191541
 30
0.0
 10
79.17036130833242
 20
-106.3695624191541
 30
0.0
 10
79.17036130833242
 20
-106.3482028271456
 30
0.0
 10
79.17036130833242
 20
-106.3482028271456
 30
0.0
 10
79.14917397109812
 20
-106.1790486388198
 30
0.0
 10
79.02222220246666
 20
-106.0732842074227
 30
0.0
 10
78.87408309660093
 20
-106.0732842074227
 30
0.0
 10
78.7047566535009
 20
-106.0732842074227
 30
0.0
 10
78.57780488486944
 20
-106.2000637212798
 30
0.0
 10
78.57780488486944
 20
-106.3695624191541
 30
0.0
 10
78.57780488486944
 20
-106.5177015250199
 30
0.0
 10
78.7047566535009
 20
-106.6658406308856
 30
0.0
 10
78.87408309660093
 20
-106.6658406308856
 30
0.0
 10
79.02222220246666
 20
-106.6658406308856
 30
0.0
 10
79.17036130833242
 20
-106.5177015250199
 30
0.0
 10
79.17036130833242
 20
-106.3695624191541
 30
0.0
 10
79.17036130833242
 20
-106.3695624191541
 30
0.0
 10
79.17036130833242
 20
-106.3482028271456
 30
0.0
 10
79.17036130833242
 20
-106.3482028271456
 30
0.0
  0
SPLINE
  5
1E7
330
198
100
AcDbEntity
  8
Ebene 1
 62
   179
420
  1709851
370
    18
100
AcDbSpline
210
0.0
220
0.0
230
1.0
 70
     8
 71
     3
 72
    23
 73
    19
 74
     0
 42
0.0000000001
 43
0.0000000001
 40
0.0
 40
0.0
 40
0.0
 40
0.0
 40
1.0
 40
1.0
 40
1.0
 40
2.0
 40
2.0
 40
2.0
 40
3.0
 40
3.0
 40
3.0
 40
4.0
 40
4.0
 40
4.0
 40
5.0
 40
5.0
 40
5.0
 40
6.0
 40
6.0
 40
6.0
 40
6.0
 10
79.86885441796682
 20
-98.3683281546614
 30
0.0
 10
79.86885441796682
 20
-98.3683281546614
 30
0.0
 10
79.84766708073253
 20
-98.3049383977328
 30
0.0
 10
79.84766708073253
 20
-98.3049383977328
 30
0.0
 10
79.82647974349824
 20
-97.77577173119842
 30
0.0
 10
79.38206242590101
 20
-97.37372908806977
 30
0.0
 10
78.87408309660093
 20
-97.37372908806977
 30
0.0
 10
78.32372909283227
 20
-97.37372908806977
 30
0.0
 10
77.87913952046077
 20
-97.818146405667
 30
0.0
 10
77.87913952046077
 20
-98.3683281546614
 30
0.0
 10
77.87913952046077
 20
-98.89749482119576
 30
0.0
 10
78.32372909283227
 20
-99.36327173080154
 30
0.0
 10
78.87408309660093
 20
-99.36327173080154
 30
0.0
 10
79.42443710036959
 20
-99.36327173080154
 30
0.0
 10
79.86885441796682
 20
-98.89749482119576
 30
0.0
 10
79.86885441796682
 20
-98.3683281546614
 30
0.0
 10
79.86885441796682
 20
-98.34731307220137
 30
0.0
 10
79.86885441796682
 20
-98.32629798974135
 30
0.0
 10
79.84766708073253
 20
-98.3049383977328
 30
0.0
  0
SPLINE
  5
1E8
330
198
100
AcDbEntity
  8
Ebene 1
 62
   179
420
  1709851
370
    18
100
AcDbSpline
210
0.0
220
0.0
230
1.0
 70
     8
 71
     3
 72
    23
 73
    19
 74
     0
 42
0.0000000001
 43
0.0000000001
 40
0.0
 40
0.0
 40
0.0
 40
0.0
 40
1.0
 40
1.0
 40
1.0
 40
2.0
 40
2.0
 40
2.0
 40
3.0
 40
3.0
 40
3.0
 40
4.0
 40
4.0
 40
4.0
 40
5.0
 40
5.0
 40
5.0
 40
6.0
 40
6.0
 40
6.0
 40
6.0
 10
79.17036130833242
 20
-98.3683281546614
 30
0.0
 10
79.17036130833242
 20
-98.3683281546614
 30
0.0
 10
79.17036130833242
 20
-98.34731307220137
 30
0.0
 10
79.17036130833242
 20
-98.34731307220137
 30
0.0
 10
79.14917397109812
 20
-98.17815888387561
 30
0.0
 10
79.02222220246666
 20
-98.07204994292991
 30
0.0
 10
78.87408309660093
 20
-98.07204994292991
 30
0.0
 10
78.7047566535009
 20
-98.07204994292991
 30
0.0
 10
78.57780488486944
 20
-98.19917396633562
 30
0.0
 10
78.57780488486944
 20
-98.3683281546614
 30
0.0
 10
78.57780488486944
 20
-98.51681177007566
 30
0.0
 10
78.7047566535009
 20
-98.6649508759414
 30
0.0
 10
78.87408309660093
 20
-98.6649508759414
 30
0.0
 10
79.02222220246666
 20
-98.6649508759414
 30
0.0
 10
79.17036130833242
 20
-98.51681177007566
 30
0.0
 10
79.17036130833242
 20
-98.3683281546614
 30
0.0
 10
79.17036130833242
 20
-98.3683281546614
 30
0.0
 10
79.17036130833242
 20
-98.34731307220137
 30
0.0
 10
79.17036130833242
 20
-98.34731307220137
 30
0.0
  0
POLYLINE
  5
1E9
330
198
100
AcDbEntity
  8
Ebene 1
 62
   179
420
  1709851
370
    18
100
AcDb2dPolyline
 66
     1
 10
0.0
 20
0.0
 30
0.0
  0
VERTEX
  5
1EA
330
1E9
100
AcDbEntity
  8
Ebene 1
 62
   179
420
  1709851
370
    18
100
AcDbVertex
100
AcDb2dVertex
 10
84.37745087951328
 20
-94.36788327718928
 30
0.0
  0
VERTEX
  5
1EB
330
1E9
100
AcDbEntity
  8
Ebene 1
 62
   179
420
  1709851
370
    18
100
AcDbVertex
100
AcDb2dVertex
 10
79.25511065726955
 20
-92.75936819512613
 30
0.0
  0
SEQEND
  5
1EC
330
1E9
100
AcDbEntity
  8
Ebene 1
370
    18
  0
POLYLINE
  5
1ED
330
198
100
AcDbEntity
  8
Ebene 1
 62
   179
420
  1709851
370
    18
100
AcDb2dPolyline
 66
     1
 10
0.0
 20
0.0
 30
0.0
  0
VERTEX
  5
1EE
330
1ED
100
AcDbEntity
  8
Ebene 1
 62
   179
420
  1709851
370
    18
100
AcDbVertex
100
AcDb2dVertex
 10
86.76920842014798
 20
-235.0202798891616
 30
0.0
  0
VERTEX
  5
1EF
330
1ED
100
AcDbEntity
  8
Ebene 1
 62
   179
420
  1709851
370
    18
100
AcDbVertex
100
AcDb2dVertex
 10
95.25706242193226
 20
-232.3537759835782
 30
0.0
  0
SEQEND
  5
1F0
330
1ED
100
AcDbEntity
  8
Ebene 1
370
    18
  0
POLYLINE
  5
1F1
330
198
100
AcDbEntity
  8
Ebene 1
 62
   179
420
  1709851
370
    18
100
AcDb2dPolyline
 66
     1
 10
0.0
 20
0.0
 30
0.0
  0
VERTEX
  5
1F2
330
1F1
100
AcDbEntity
  8
Ebene 1
 62
   179
420
  1709851
370
    18
100
AcDbVertex
100
AcDb2dVertex
 10
79.25511065726955
 20
-227.358387529966
 30
0.0
  0
VERTEX
  5
1F3
330
1F1
100
AcDbEntity
  8
Ebene 1
 62
   179
420
  1709851
370
    18
100
AcDbVertex
100
AcDb2dVertex
 10
95.25706242193226
 20
-222.3629990763537
 30
0.0
  0
SEQEND
  5
1F4
330
1F1
100
AcDbEntity
  8
Ebene 1
370
    18
  0
POLYLINE
  5
1F5
330
198
100
AcDbEntity
  8
Ebene 1
 62
   179
420
  1709851
370
    18
100
AcDb2dPolyline
 66
     1
 10
0.0
 20
0.0
 30
0.0
  0
VERTEX
  5
1F6
330
1F5
100
AcDbEntity
  8
Ebene 1
 62
   179
420
  1709851
370
    18
100
AcDbVertex
100
AcDb2dVertex
 10
95.25706242193226
 20
-232.3537759835782
 30
0.0
  0
VERTEX
  5
1F7
330
1F5
100
AcDbEntity
  8
Ebene 1
 62
   179
420
  1709851
370
    18
100
AcDbVertex
100
AcDb2dVertex
 10
79.25511065726955
 20
-227.358387529966
 30
0.0
  0
SEQEND
  5
1F8
330
1F5
100
AcDbEntity
  8
Ebene 1
370
    18
  0
POLYLINE
  5
1F9
330
198
100
AcDbEntity
  8
Ebene 1
 62
   179
420
  1709851
370
    18
100
AcDb2dPolyline
 66
     1
 10
0.0
 20
0.0
 30
0.0
  0
VERTEX
  5
1FA
330
1F9
100
AcDbEntity
  8
Ebene 1
 62
   179
420
  1709851
370
    18
100
AcDbVertex
100
AcDb2dVertex
 10
95.25706242193226
 20
-222.3629990763537
 30
0.0
  0
VERTEX
  5
1FB
330
1F9
100
AcDbEntity
  8
Ebene 1
 62
   179
420
  1709851
370
    18
100
AcDbVertex
100
AcDb2dVertex
 10
79.25511065726955
 20
-217.3676106227414
 30
0.0
  0
VERTEX
  5
1FC
330
1F9
100
AcDbEntity
  8
Ebene 1
 62
   179
420
  1709851
370
    18
100
AcDbVertex
100
AcDb2dVertex
 10
95.25706242193226
 20
-212.3515515962177
 30
0.0
  0
SEQEND
  5
1FD
330
1F9
100
AcDbEntity
  8
Ebene 1
370
    18
  0
POLYLINE
  5
1FE
330
198
100
AcDbEntity
  8
Ebene 1
 62
   179
420
  1709851
370
    18
100
AcDb2dPolyline
 66
     1
 10
0.0
 20
0.0
 30
0.0
  0
VERTEX
  5
1FF
330
1FE
100
AcDbEntity
  8
Ebene 1
 62
   179
420
  1709851
370
    18
100
AcDbVertex
100
AcDb2dVertex
 10
95.25706242193226
 20
-212.3515515962177
 30
0.0
  0
VERTEX
  5
200
330
1FE
100
AcDbEntity
  8
Ebene 1
 62
   179
420
  1709851
370
    18
100
AcDbVertex
100
AcDb2dVertex
 10
79.25511065726955
 20
-207.3554741235084
 30
0.0
  0
VERTEX
  5
201
330
1FE
100
AcDbEntity
  8
Ebene 1
 62
   179
420
  1709851
370
    18
100
AcDbVertex
100
AcDb2dVertex
 10
95.25706242193226
 20
-202.3600856698961
 30
0.0
  0
SEQEND
  5
202
330
1FE
100
AcDbEntity
  8
Ebene 1
370
    18
  0
POLYLINE
  5
203
330
198
100
AcDbEntity
  8
Ebene 1
 62
   179
420
  1709851
370
    18
100
AcDb2dPolyline
 66
     1
 10
0.0
 20
0.0
 30
0.0
  0
VERTEX
  5
204
330
203
100
AcDbEntity
  8
Ebene 1
 62
   179
420
  1709851
370
    18
100
AcDbVertex
100
AcDb2dVertex
 10
95.25706242193226
 20
-170.3565266501192
 30
0.0
  0
VERTEX
  5
205
330
203
100
AcDbEntity
  8
Ebene 1
 62
   179
420
  1709851
370
    18
100
AcDbVertex
100
AcDb2dVertex
 10
79.25511065726955
 20
-165.3611381965069
 30
0.0
  0
VERTEX
  5
206
330
203
100
AcDbEntity
  8
Ebene 1
 62
   179
420
  1709851
370
    18
100
AcDbVertex
100
AcDb2dVertex
 10
95.25706242193226
 20
-160.3657497428947
 30
0.0
  0
SEQEND
  5
207
330
203
100
AcDbEntity
  8
Ebene 1
370
    18
  0
POLYLINE
  5
208
330
198
100
AcDbEntity
  8
Ebene 1
 62
   179
420
  1709851
370
    18
100
AcDb2dPolyline
 66
     1
 10
0.0
 20
0.0
 30
0.0
  0
VERTEX
  5
209
330
208
100
AcDbEntity
  8
Ebene 1
 62
   179
420
  1709851
370
    18
100
AcDbVertex
100
AcDb2dVertex
 10
95.25706242193226
 20
-160.3657497428947
 30
0.0
  0
VERTEX
  5
20A
330
208
100
AcDbEntity
  8
Ebene 1
 62
   179
420
  1709851
370
    18
100
AcDbVertex
100
AcDb2dVertex
 10
79.25511065726955
 20
-155.3703612892824
 30
0.0
  0
VERTEX
  5
20B
330
208
100
AcDbEntity
  8
Ebene 1
 62
   179
420
  1709851
370
    18
100
AcDbVertex
100
AcDb2dVertex
 10
95.25706242193226
 20
-150.3536132436616
 30
0.0
  0
SEQEND
  5
20C
330
208
100
AcDbEntity
  8
Ebene 1
370
    18
  0
POLYLINE
  5
20D
330
198
100
AcDbEntity
  8
Ebene 1
 62
   179
420
  1709851
370
    18
100
AcDb2dPolyline
 66
     1
 10
0.0
 20
0.0
 30
0.0
  0
VERTEX
  5
20E
330
20D
100
AcDbEntity
  8
Ebene 1
 62
   179
420
  1709851
370
    18
100
AcDbVertex
100
AcDb2dVertex
 10
95.25706242193226
 20
-150.3536132436616
 30
0.0
  0
VERTEX
  5
20F
330
20D
100
AcDbEntity
  8
Ebene 1
 62
   179
420
  1709851
370
    18
100
AcDbVertex
100
AcDb2dVertex
 10
79.25511065726955
 20
-145.3583970448236
 30
0.0
  0
VERTEX
  5
210
330
20D
100
AcDbEntity
  8
Ebene 1
 62
   179
420
  1709851
370
    18
100
AcDbVertex
100
AcDb2dVertex
 10
95.25706242193226
 20
-140.3630085912113
 30
0.0
  0
SEQEND
  5
211
330
20D
100
AcDbEntity
  8
Ebene 1
370
    18
  0
POLYLINE
  5
212
330
198
100
AcDbEntity
  8
Ebene 1
 62
   179
420
  1709851
370
    18
100
AcDb2dPolyline
 66
     1
 10
0.0
 20
0.0
 30
0.0
  0
VERTEX
  5
213
330
212
100
AcDbEntity
  8
Ebene 1
 62
   179
420
  1709851
370
    18
100
AcDbVertex
100
AcDb2dVertex
 10
79.25511065726955
 20
-125.3558281479145
 30
0.0
  0
VERTEX
  5
214
330
212
100
AcDbEntity
  8
Ebene 1
 62
   179
420
  1709851
370
    18
100
AcDbVertex
100
AcDb2dVertex
 10
95.25706242193226
 20
-120.3607842038508
 30
0.0
  0
SEQEND
  5
215
330
212
100
AcDbEntity
  8
Ebene 1
370
    18
  0
POLYLINE
  5
216
330
198
100
AcDbEntity
  8
Ebene 1
 62
   179
420
  1709851
370
    18
100
AcDb2dPolyline
 66
     1
 10
0.0
 20
0.0
 30
0.0
  0
VERTEX
  5
217
330
216
100
AcDbEntity
  8
Ebene 1
 62
   179
420
  1709851
370
    18
100
AcDbVertex
100
AcDb2dVertex
 10
95.25706242193226
 20
-120.3607842038508
 30
0.0
  0
VERTEX
  5
218
330
216
100
AcDbEntity
  8
Ebene 1
 62
   179
420
  1709851
370
    18
100
AcDbVertex
100
AcDb2dVertex
 10
79.25511065726955
 20
-115.3653957502385
 30
0.0
  0
VERTEX
  5
219
330
216
100
AcDbEntity
  8
Ebene 1
 62
   179
420
  1709851
370
    18
100
AcDbVertex
100
AcDb2dVertex
 10
95.25706242193226
 20
-110.3700072966263
 30
0.0
  0
SEQEND
  5
21A
330
216
100
AcDbEntity
  8
Ebene 1
370
    18
  0
POLYLINE
  5
21B
330
198
100
AcDbEntity
  8
Ebene 1
 62
   179
420
  1709851
370
    18
100
AcDb2dPolyline
 66
     1
 10
0.0
 20
0.0
 30
0.0
  0
VERTEX
  5
21C
330
21B
100
AcDbEntity
  8
Ebene 1
 62
   179
420
  1709851
370
    18
100
AcDbVertex
100
AcDb2dVertex
 10
79.25511065726955
 20
-92.75936819512613
 30
0.0
  0
VERTEX
  5
21D
330
21B
100
AcDbEntity
  8
Ebene 1
 62
   179
420
  1709851
370
    18
100
AcDbVertex
100
AcDb2dVertex
 10
95.25706242193226
 20
-87.76397974151386
 30
0.0
  0
SEQEND
  5
21E
330
21B
100
AcDbEntity
  8
Ebene 1
370
    18
  0
POLYLINE
  5
21F
330
198
100
AcDbEntity
  8
Ebene 1
 62
   179
420
  1709851
370
    18
100
AcDb2dPolyline
 66
     1
 10
0.0
 20
0.0
 30
0.0
  0
VERTEX
  5
220
330
21F
100
AcDbEntity
  8
Ebene 1
 62
   179
420
  1709851
370
    18
100
AcDbVertex
100
AcDb2dVertex
 10
95.25706242193226
 20
-87.76397974151386
 30
0.0
  0
VERTEX
  5
221
330
21F
100
AcDbEntity
  8
Ebene 1
 62
   179
420
  1709851
370
    18
100
AcDbVertex
100
AcDb2dVertex
 10
79.25511065726955
 20
-82.7685912879016
 30
0.0
  0
VERTEX
  5
222
330
21F
100
AcDbEntity
  8
Ebene 1
 62
   179
420
  1709851
370
    18
100
AcDbVertex
100
AcDb2dVertex
 10
95.25706242193226
 20
-77.7733750890636
 30
0.0
  0
SEQEND
  5
223
330
21F
100
AcDbEntity
  8
Ebene 1
370
    18
  0
POLYLINE
  5
224
330
198
100
AcDbEntity
  8
Ebene 1
 62
   179
420
  1709851
370
    18
100
AcDb2dPolyline
 66
     1
 10
0.0
 20
0.0
 30
0.0
  0
VERTEX
  5
225
330
224
100
AcDbEntity
  8
Ebene 1
 62
   179
420
  1709851
370
    18
100
AcDbVertex
100
AcDb2dVertex
 10
69.07381996971071
 20
-140.8921752577457
 30
0.0
  0
VERTEX
  5
226
330
224
100
AcDbEntity
  8
Ebene 1
 62
   179
420
  1709851
370
    18
100
AcDbVertex
100
AcDb2dVertex
 10
68.92568086384497
 20
-140.9345499322143
 30
0.0
  0
VERTEX
  5
227
330
224
100
AcDbEntity
  8
Ebene 1
 62
   179
420
  1709851
370
    18
100
AcDbVertex
100
AcDb2dVertex
 10
68.8199164324478
 20
-141.04065887316
 30
0.0
  0
VERTEX
  5
228
330
224
100
AcDbEntity
  8
Ebene 1
 62
   179
420
  1709851
370
    18
100
AcDbVertex
100
AcDb2dVertex
 10
68.77754175797922
 20
-141.1887979790257
 30
0.0
  0
SEQEND
  5
229
330
224
100
AcDbEntity
  8
Ebene 1
370
    18
  0
POLYLINE
  5
22A
330
198
100
AcDbEntity
  8
Ebene 1
 62
   179
420
  1709851
370
    18
100
AcDb2dPolyline
 66
     1
 10
0.0
 20
0.0
 30
0.0
  0
VERTEX
  5
22B
330
22A
100
AcDbEntity
  8
Ebene 1
 62
   179
420
  1709851
370
    18
100
AcDbVertex
100
AcDb2dVertex
 10
69.98401419691372
 20
-141.1250637125486
 30
0.0
  0
VERTEX
  5
22C
330
22A
100
AcDbEntity
  8
Ebene 1
 62
   179
420
  1709851
370
    18
100
AcDbVertex
100
AcDb2dVertex
 10
69.22213133035072
 20
-141.1250637125486
 30
0.0
  0
SEQEND
  5
22D
330
22A
100
AcDbEntity
  8
Ebene 1
370
    18
  0
POLYLINE
  5
22E
330
198
100
AcDbEntity
  8
Ebene 1
 62
   179
420
  1709851
370
    18
100
AcDb2dPolyline
 66
     1
 10
0.0
 20
0.0
 30
0.0
  0
VERTEX
  5
22F
330
22E
100
AcDbEntity
  8
Ebene 1
 62
   179
420
  1709851
370
    18
100
AcDbVertex
100
AcDb2dVertex
 10
69.07381996971071
 20
-140.8921752577457
 30
0.0
  0
VERTEX
  5
230
330
22E
100
AcDbEntity
  8
Ebene 1
 62
   179
420
  1709851
370
    18
100
AcDbVertex
100
AcDb2dVertex
 10
69.98401419691372
 20
-140.8921752577457
 30
0.0
  0
SEQEND
  5
231
330
22E
100
AcDbEntity
  8
Ebene 1
370
    18
  0
POLYLINE
  5
232
330
198
100
AcDbEntity
  8
Ebene 1
 62
   179
420
  1709851
370
    18
100
AcDb2dPolyline
 66
     1
 10
0.0
 20
0.0
 30
0.0
  0
VERTEX
  5
233
330
232
100
AcDbEntity
  8
Ebene 1
 62
   179
420
  1709851
370
    18
100
AcDbVertex
100
AcDb2dVertex
 10
69.01043021278211
 20
-141.3369370848915
 30
0.0
  0
VERTEX
  5
234
330
232
100
AcDbEntity
  8
Ebene 1
 62
   179
420
  1709851
370
    18
100
AcDbVertex
100
AcDb2dVertex
 10
69.0316175500164
 20
-143.2841050531547
 30
0.0
  0
SEQEND
  5
235
330
232
100
AcDbEntity
  8
Ebene 1
370
    18
  0
POLYLINE
  5
236
330
198
100
AcDbEntity
  8
Ebene 1
 62
   179
420
  1709851
370
    18
100
AcDb2dPolyline
 66
     1
 10
0.0
 20
0.0
 30
0.0
  0
VERTEX
  5
237
330
236
100
AcDbEntity
  8
Ebene 1
 62
   179
420
  1709851
370
    18
100
AcDbVertex
100
AcDb2dVertex
 10
68.77754175797922
 20
-143.2841050531547
 30
0.0
  0
VERTEX
  5
238
330
236
100
AcDbEntity
  8
Ebene 1
 62
   179
420
  1709851
370
    18
100
AcDbVertex
100
AcDb2dVertex
 10
68.77754175797922
 20
-141.1887979790257
 30
0.0
  0
SEQEND
  5
239
330
236
100
AcDbEntity
  8
Ebene 1
370
    18
  0
POLYLINE
  5
23A
330
198
100
AcDbEntity
  8
Ebene 1
 62
   179
420
  1709851
370
    18
100
AcDb2dPolyline
 66
     1
 10
0.0
 20
0.0
 30
0.0
  0
VERTEX
  5
23B
330
23A
100
AcDbEntity
  8
Ebene 1
 62
   179
420
  1709851
370
    18
100
AcDbVertex
100
AcDb2dVertex
 10
69.22213133035072
 20
-141.1250637125486
 30
0.0
  0
VERTEX
  5
23C
330
23A
100
AcDbEntity
  8
Ebene 1
 62
   179
420
  1709851
370
    18
100
AcDbVertex
100
AcDb2dVertex
 10
69.095007306945
 20
-141.1674383870172
 30
0.0
  0
VERTEX
  5
23D
330
23A
100
AcDbEntity
  8
Ebene 1
 62
   179
420
  1709851
370
    18
100
AcDbVertex
100
AcDb2dVertex
 10
69.01043021278211
 20
-141.2732028184143
 30
0.0
  0
VERTEX
  5
23E
330
23A
100
AcDbEntity
  8
Ebene 1
 62
   179
420
  1709851
370
    18
100
AcDbVertex
100
AcDb2dVertex
 10
69.01043021278211
 20
-141.3369370848915
 30
0.0
  0
SEQEND
  5
23F
330
23A
100
AcDbEntity
  8
Ebene 1
370
    18
  0
POLYLINE
  5
240
330
198
100
AcDbEntity
  8
Ebene 1
 62
   179
420
  1709851
370
    18
100
AcDb2dPolyline
 66
     1
 10
0.0
 20
0.0
 30
0.0
  0
VERTEX
  5
241
330
240
100
AcDbEntity
  8
Ebene 1
 62
   179
420
  1709851
370
    18
100
AcDbVertex
100
AcDb2dVertex
 10
69.0316175500164
 20
-143.2841050531547
 30
0.0
  0
VERTEX
  5
242
330
240
100
AcDbEntity
  8
Ebene 1
 62
   179
420
  1709851
370
    18
100
AcDbVertex
100
AcDb2dVertex
 10
68.77754175797922
 20
-143.2841050531547
 30
0.0
  0
SEQEND
  5
243
330
240
100
AcDbEntity
  8
Ebene 1
370
    18
  0
POLYLINE
  5
244
330
198
100
AcDbEntity
  8
Ebene 1
 62
   179
420
  1709851
370
    18
100
AcDb2dPolyline
 66
     1
 10
0.0
 20
0.0
 30
0.0
  0
VERTEX
  5
245
330
244
100
AcDbEntity
  8
Ebene 1
 62
   179
420
  1709851
370
    18
100
AcDbVertex
100
AcDb2dVertex
 10
70.89420842411673
 20
-140.8921752577457
 30
0.0
  0
VERTEX
  5
246
330
244
100
AcDbEntity
  8
Ebene 1
 62
   179
420
  1709851
370
    18
100
AcDbVertex
100
AcDb2dVertex
 10
71.04234752998248
 20
-140.9345499322143
 30
0.0
  0
VERTEX
  5
247
330
244
100
AcDbEntity
  8
Ebene 1
 62
   179
420
  1709851
370
    18
100
AcDbVertex
100
AcDb2dVertex
 10
71.19048663584822
 20
-140.9135348497543
 30
0.0
  0
VERTEX
  5
248
330
244
100
AcDbEntity
  8
Ebene 1
 62
   179
420
  1709851
370
    18
100
AcDbVertex
100
AcDb2dVertex
 10
71.25404864755107
 20
-140.8921752577457
 30
0.0
  0
SEQEND
  5
249
330
244
100
AcDbEntity
  8
Ebene 1
370
    18
  0
POLYLINE
  5
24A
330
198
100
AcDbEntity
  8
Ebene 1
 62
   179
420
  1709851
370
    18
100
AcDb2dPolyline
 66
     1
 10
0.0
 20
0.0
 30
0.0
  0
VERTEX
  5
24B
330
24A
100
AcDbEntity
  8
Ebene 1
 62
   179
420
  1709851
370
    18
100
AcDbVertex
100
AcDb2dVertex
 10
71.27523598478535
 20
-150.0366644590186
 30
0.0
  0
VERTEX
  5
24C
330
24A
100
AcDbEntity
  8
Ebene 1
 62
   179
420
  1709851
370
    18
100
AcDbVertex
100
AcDb2dVertex
 10
71.06353486721676
 20
-150.1420843808673
 30
0.0
  0
VERTEX
  5
24D
330
24A
100
AcDbEntity
  8
Ebene 1
 62
   179
420
  1709851
370
    18
100
AcDbVertex
100
AcDb2dVertex
 10
70.9365830985853
 20
-150.3115830787416
 30
0.0
  0
VERTEX
  5
24E
330
24A
100
AcDbEntity
  8
Ebene 1
 62
   179
420
  1709851
370
    18
100
AcDbVertex
100
AcDb2dVertex
 10
70.87302108688245
 20
-150.5231119415359
 30
0.0
  0
VERTEX
  5
24F
330
24A
100
AcDbEntity
  8
Ebene 1
 62
   179
420
  1709851
370
    18
100
AcDbVertex
100
AcDb2dVertex
 10
70.89420842411673
 20
-150.7560003963388
 30
0.0
  0
VERTEX
  5
250
330
24A
100
AcDbEntity
  8
Ebene 1
 62
   179
420
  1709851
370
    18
100
AcDbVertex
100
AcDb2dVertex
 10
70.97895777305388
 20
-150.9461696671246
 30
0.0
  0
VERTEX
  5
251
330
24A
100
AcDbEntity
  8
Ebene 1
 62
   179
420
  1709851
370
    18
100
AcDbVertex
100
AcDb2dVertex
 10
71.14828421615391
 20
-151.1163573840959
 30
0.0
  0
VERTEX
  5
252
330
24A
100
AcDbEntity
  8
Ebene 1
 62
   179
420
  1709851
370
    18
100
AcDbVertex
100
AcDb2dVertex
 10
71.27523598478535
 20
-151.158387549016
 30
0.0
  0
SEQEND
  5
253
330
24A
100
AcDbEntity
  8
Ebene 1
370
    18
  0
POLYLINE
  5
254
330
198
100
AcDbEntity
  8
Ebene 1
 62
   179
420
  1709851
370
    18
100
AcDb2dPolyline
 66
     1
 10
0.0
 20
0.0
 30
0.0
  0
VERTEX
  5
255
330
254
100
AcDbEntity
  8
Ebene 1
 62
   179
420
  1709851
370
    18
100
AcDbVertex
100
AcDb2dVertex
 10
70.9999728555139
 20
-146.7553832640924
 30
0.0
  0
VERTEX
  5
256
330
254
100
AcDbEntity
  8
Ebene 1
 62
   179
420
  1709851
370
    18
100
AcDbVertex
100
AcDb2dVertex
 10
71.04234752998248
 20
-146.9248819619667
 30
0.0
  0
VERTEX
  5
257
330
254
100
AcDbEntity
  8
Ebene 1
 62
   179
420
  1709851
370
    18
100
AcDbVertex
100
AcDb2dVertex
 10
71.16947155338819
 20
-147.0306463933639
 30
0.0
  0
VERTEX
  5
258
330
254
100
AcDbEntity
  8
Ebene 1
 62
   179
420
  1709851
370
    18
100
AcDbVertex
100
AcDb2dVertex
 10
71.27523598478535
 20
-147.0516614758239
 30
0.0
  0
SEQEND
  5
259
330
254
100
AcDbEntity
  8
Ebene 1
370
    18
  0
POLYLINE
  5
25A
330
198
100
AcDbEntity
  8
Ebene 1
 62
   179
420
  1709851
370
    18
100
AcDb2dPolyline
 66
     1
 10
0.0
 20
0.0
 30
0.0
  0
VERTEX
  5
25B
330
25A
100
AcDbEntity
  8
Ebene 1
 62
   179
420
  1709851
370
    18
100
AcDbVertex
100
AcDb2dVertex
 10
70.9999728555139
 20
-146.7553832640924
 30
0.0
  0
VERTEX
  5
25C
330
25A
100
AcDbEntity
  8
Ebene 1
 62
   179
420
  1709851
370
    18
100
AcDbVertex
100
AcDb2dVertex
 10
70.9999728555139
 20
-143.5169935079576
 30
0.0
  0
SEQEND
  5
25D
330
25A
100
AcDbEntity
  8
Ebene 1
370
    18
  0
POLYLINE
  5
25E
330
198
100
AcDbEntity
  8
Ebene 1
 62
   179
420
  1709851
370
    18
100
AcDb2dPolyline
 66
     1
 10
0.0
 20
0.0
 30
0.0
  0
VERTEX
  5
25F
330
25E
100
AcDbEntity
  8
Ebene 1
 62
   179
420
  1709851
370
    18
100
AcDbVertex
100
AcDb2dVertex
 10
71.27523598478535
 20
-143.2207152962261
 30
0.0
  0
VERTEX
  5
260
330
25E
100
AcDbEntity
  8
Ebene 1
 62
   179
420
  1709851
370
    18
100
AcDbVertex
100
AcDb2dVertex
 10
71.12709687891962
 20
-143.2841050531547
 30
0.0
  0
VERTEX
  5
261
330
25E
100
AcDbEntity
  8
Ebene 1
 62
   179
420
  1709851
370
    18
100
AcDbVertex
100
AcDb2dVertex
 10
71.02116019274818
 20
-143.4112290765604
 30
0.0
  0
VERTEX
  5
262
330
25E
100
AcDbEntity
  8
Ebene 1
 62
   179
420
  1709851
370
    18
100
AcDbVertex
100
AcDb2dVertex
 10
70.9999728555139
 20
-143.5169935079576
 30
0.0
  0
SEQEND
  5
263
330
25E
100
AcDbEntity
  8
Ebene 1
370
    18
  0
POLYLINE
  5
264
330
198
100
AcDbEntity
  8
Ebene 1
 62
   179
420
  1709851
370
    18
100
AcDb2dPolyline
 66
     1
 10
0.0
 20
0.0
 30
0.0
  0
VERTEX
  5
265
330
264
100
AcDbEntity
  8
Ebene 1
 62
   179
420
  1709851
370
    18
100
AcDbVertex
100
AcDb2dVertex
 10
71.74084063961688
 20
-143.3474948100833
 30
0.0
  0
VERTEX
  5
266
330
264
100
AcDbEntity
  8
Ebene 1
 62
   179
420
  1709851
370
    18
100
AcDbVertex
100
AcDb2dVertex
 10
71.80440265131973
 20
-143.1993557042175
 30
0.0
  0
VERTEX
  5
267
330
264
100
AcDbEntity
  8
Ebene 1
 62
   179
420
  1709851
370
    18
100
AcDbVertex
100
AcDb2dVertex
 10
71.80440265131973
 20
-143.1573255392975
 30
0.0
  0
SEQEND
  5
268
330
264
100
AcDbEntity
  8
Ebene 1
370
    18
  0
POLYLINE
  5
269
330
198
100
AcDbEntity
  8
Ebene 1
 62
   179
420
  1709851
370
    18
100
AcDb2dPolyline
 66
     1
 10
0.0
 20
0.0
 30
0.0
  0
VERTEX
  5
26A
330
269
100
AcDbEntity
  8
Ebene 1
 62
   179
420
  1709851
370
    18
100
AcDbVertex
100
AcDb2dVertex
 10
71.57151419651684
 20
-141.2308281439458
 30
0.0
  0
VERTEX
  5
26B
330
269
100
AcDbEntity
  8
Ebene 1
 62
   179
420
  1709851
370
    18
100
AcDbVertex
100
AcDb2dVertex
 10
71.52913952204827
 20
-141.1464233045571
 30
0.0
  0
VERTEX
  5
26C
330
269
100
AcDbEntity
  8
Ebene 1
 62
   179
420
  1709851
370
    18
100
AcDbVertex
100
AcDb2dVertex
 10
71.46574976511968
 20
-141.1250637125486
 30
0.0
  0
SEQEND
  5
26D
330
269
100
AcDbEntity
  8
Ebene 1
370
    18
  0
POLYLINE
  5
26E
330
198
100
AcDbEntity
  8
Ebene 1
 62
   179
420
  1709851
370
    18
100
AcDb2dPolyline
 66
     1
 10
0.0
 20
0.0
 30
0.0
  0
VERTEX
  5
26F
330
26E
100
AcDbEntity
  8
Ebene 1
 62
   179
420
  1709851
370
    18
100
AcDbVertex
100
AcDb2dVertex
 10
71.27523598478535
 20
-141.633215296623
 30
0.0
  0
VERTEX
  5
270
330
26E
100
AcDbEntity
  8
Ebene 1
 62
   179
420
  1709851
370
    18
100
AcDbVertex
100
AcDb2dVertex
 10
71.06353486721676
 20
-141.7389797280201
 30
0.0
  0
VERTEX
  5
271
330
26E
100
AcDbEntity
  8
Ebene 1
 62
   179
420
  1709851
370
    18
100
AcDbVertex
100
AcDb2dVertex
 10
70.9365830985853
 20
-141.9084784258944
 30
0.0
  0
VERTEX
  5
272
330
26E
100
AcDbEntity
  8
Ebene 1
 62
   179
420
  1709851
370
    18
100
AcDbVertex
100
AcDb2dVertex
 10
70.87302108688245
 20
-142.1410223711488
 30
0.0
  0
VERTEX
  5
273
330
26E
100
AcDbEntity
  8
Ebene 1
 62
   179
420
  1709851
370
    18
100
AcDbVertex
100
AcDb2dVertex
 10
70.89420842411673
 20
-142.3528957434916
 30
0.0
  0
VERTEX
  5
274
330
26E
100
AcDbEntity
  8
Ebene 1
 62
   179
420
  1709851
370
    18
100
AcDbVertex
100
AcDb2dVertex
 10
70.97895777305388
 20
-142.564424606286
 30
0.0
  0
VERTEX
  5
275
330
26E
100
AcDbEntity
  8
Ebene 1
 62
   179
420
  1709851
370
    18
100
AcDbVertex
100
AcDb2dVertex
 10
71.14828421615391
 20
-142.7125637121517
 30
0.0
  0
VERTEX
  5
276
330
26E
100
AcDbEntity
  8
Ebene 1
 62
   179
420
  1709851
370
    18
100
AcDbVertex
100
AcDb2dVertex
 10
71.27523598478535
 20
-142.7549383866203
 30
0.0
  0
SEQEND
  5
277
330
26E
100
AcDbEntity
  8
Ebene 1
370
    18
  0
POLYLINE
  5
278
330
198
100
AcDbEntity
  8
Ebene 1
 62
   179
420
  1709851
370
    18
100
AcDb2dPolyline
 66
     1
 10
0.0
 20
0.0
 30
0.0
  0
VERTEX
  5
279
330
278
100
AcDbEntity
  8
Ebene 1
 62
   179
420
  1709851
370
    18
100
AcDbVertex
100
AcDb2dVertex
 10
71.57151419651684
 20
-141.4003268418201
 30
0.0
  0
VERTEX
  5
27A
330
278
100
AcDbEntity
  8
Ebene 1
 62
   179
420
  1709851
370
    18
100
AcDbVertex
100
AcDb2dVertex
 10
71.57151419651684
 20
-141.2308281439458
 30
0.0
  0
SEQEND
  5
27B
330
278
100
AcDbEntity
  8
Ebene 1
370
    18
  0
POLYLINE
  5
27C
330
198
100
AcDbEntity
  8
Ebene 1
 62
   179
420
  1709851
370
    18
100
AcDb2dPolyline
 66
     1
 10
0.0
 20
0.0
 30
0.0
  0
VERTEX
  5
27D
330
27C
100
AcDbEntity
  8
Ebene 1
 62
   179
420
  1709851
370
    18
100
AcDbVertex
100
AcDb2dVertex
 10
71.27523598478535
 20
-141.2308281439458
 30
0.0
  0
VERTEX
  5
27E
330
27C
100
AcDbEntity
  8
Ebene 1
 62
   179
420
  1709851
370
    18
100
AcDbVertex
100
AcDb2dVertex
 10
71.50812443958824
 20
-141.7599948104802
 30
0.0
  0
SEQEND
  5
27F
330
27C
100
AcDbEntity
  8
Ebene 1
370
    18
  0
POLYLINE
  5
280
330
198
100
AcDbEntity
  8
Ebene 1
 62
   179
420
  1709851
370
    18
100
AcDb2dPolyline
 66
     1
 10
0.0
 20
0.0
 30
0.0
  0
VERTEX
  5
281
330
280
100
AcDbEntity
  8
Ebene 1
 62
   179
420
  1709851
370
    18
100
AcDbVertex
100
AcDb2dVertex
 10
71.46574976511968
 20
-141.1887979790257
 30
0.0
  0
VERTEX
  5
282
330
280
100
AcDbEntity
  8
Ebene 1
 62
   179
420
  1709851
370
    18
100
AcDbVertex
100
AcDb2dVertex
 10
71.74084063961688
 20
-141.8023694849487
 30
0.0
  0
SEQEND
  5
283
330
280
100
AcDbEntity
  8
Ebene 1
370
    18
  0
POLYLINE
  5
284
330
198
100
AcDbEntity
  8
Ebene 1
 62
   179
420
  1709851
370
    18
100
AcDb2dPolyline
 66
     1
 10
0.0
 20
0.0
 30
0.0
  0
VERTEX
  5
285
330
284
100
AcDbEntity
  8
Ebene 1
 62
   179
420
  1709851
370
    18
100
AcDbVertex
100
AcDb2dVertex
 10
71.80440265131973
 20
-141.1887979790257
 30
0.0
  0
VERTEX
  5
286
330
284
100
AcDbEntity
  8
Ebene 1
 62
   179
420
  1709851
370
    18
100
AcDbVertex
100
AcDb2dVertex
 10
71.80440265131973
 20
-143.1573255392975
 30
0.0
  0
SEQEND
  5
287
330
284
100
AcDbEntity
  8
Ebene 1
370
    18
  0
POLYLINE
  5
288
330
198
100
AcDbEntity
  8
Ebene 1
 62
   179
420
  1709851
370
    18
100
AcDb2dPolyline
 66
     1
 10
0.0
 20
0.0
 30
0.0
  0
VERTEX
  5
289
330
288
100
AcDbEntity
  8
Ebene 1
 62
   179
420
  1709851
370
    18
100
AcDbVertex
100
AcDb2dVertex
 10
71.46574976511968
 20
-151.6028048666132
 30
0.0
  0
VERTEX
  5
28A
330
288
100
AcDbEntity
  8
Ebene 1
 62
   179
420
  1709851
370
    18
100
AcDbVertex
100
AcDb2dVertex
 10
71.74084063961688
 20
-150.9888888511417
 30
0.0
  0
VERTEX
  5
28B
330
288
100
AcDbEntity
  8
Ebene 1
 62
   179
420
  1709851
370
    18
100
AcDbVertex
100
AcDb2dVertex
 10
71.74084063961688
 20
-141.8023694849487
 30
0.0
  0
SEQEND
  5
28C
330
288
100
AcDbEntity
  8
Ebene 1
370
    18
  0
POLYLINE
  5
28D
330
198
100
AcDbEntity
  8
Ebene 1
 62
   179
420
  1709851
370
    18
100
AcDb2dPolyline
 66
     1
 10
0.0
 20
0.0
 30
0.0
  0
VERTEX
  5
28E
330
28D
100
AcDbEntity
  8
Ebene 1
 62
   179
420
  1709851
370
    18
100
AcDbVertex
100
AcDb2dVertex
 10
71.46574976511968
 20
-151.6028048666132
 30
0.0
  0
VERTEX
  5
28F
330
28D
100
AcDbEntity
  8
Ebene 1
 62
   179
420
  1709851
370
    18
100
AcDbVertex
100
AcDb2dVertex
 10
71.27523598478535
 20
-151.6028048666132
 30
0.0
  0
SEQEND
  5
290
330
28D
100
AcDbEntity
  8
Ebene 1
370
    18
  0
POLYLINE
  5
291
330
198
100
AcDbEntity
  8
Ebene 1
 62
   179
420
  1709851
370
    18
100
AcDb2dPolyline
 66
     1
 10
0.0
 20
0.0
 30
0.0
  0
VERTEX
  5
292
330
291
100
AcDbEntity
  8
Ebene 1
 62
   179
420
  1709851
370
    18
100
AcDbVertex
100
AcDb2dVertex
 10
71.27523598478535
 20
-151.5394151096846
 30
0.0
  0
VERTEX
  5
293
330
291
100
AcDbEntity
  8
Ebene 1
 62
   179
420
  1709851
370
    18
100
AcDbVertex
100
AcDb2dVertex
 10
71.50812443958824
 20
-151.0309190160617
 30
0.0
  0
SEQEND
  5
294
330
291
100
AcDbEntity
  8
Ebene 1
370
    18
  0
POLYLINE
  5
295
330
198
100
AcDbEntity
  8
Ebene 1
 62
   179
420
  1709851
370
    18
100
AcDb2dPolyline
 66
     1
 10
0.0
 20
0.0
 30
0.0
  0
VERTEX
  5
296
330
295
100
AcDbEntity
  8
Ebene 1
 62
   179
420
  1709851
370
    18
100
AcDbVertex
100
AcDb2dVertex
 10
71.50812443958824
 20
-151.0309190160617
 30
0.0
  0
VERTEX
  5
297
330
295
100
AcDbEntity
  8
Ebene 1
 62
   179
420
  1709851
370
    18
100
AcDbVertex
100
AcDb2dVertex
 10
71.50812443958824
 20
-141.7599948104802
 30
0.0
  0
SEQEND
  5
298
330
295
100
AcDbEntity
  8
Ebene 1
370
    18
  0
POLYLINE
  5
299
330
198
100
AcDbEntity
  8
Ebene 1
 62
   179
420
  1709851
370
    18
100
AcDb2dPolyline
 66
     1
 10
0.0
 20
0.0
 30
0.0
  0
VERTEX
  5
29A
330
299
100
AcDbEntity
  8
Ebene 1
 62
   179
420
  1709851
370
    18
100
AcDbVertex
100
AcDb2dVertex
 10
71.27523598478535
 20
-141.1887979790257
 30
0.0
  0
VERTEX
  5
29B
330
299
100
AcDbEntity
  8
Ebene 1
 62
   179
420
  1709851
370
    18
100
AcDbVertex
100
AcDb2dVertex
 10
71.27523598478535
 20
-151.6028048666132
 30
0.0
  0
SEQEND
  5
29C
330
299
100
AcDbEntity
  8
Ebene 1
370
    18
  0
POLYLINE
  5
29D
330
198
100
AcDbEntity
  8
Ebene 1
 62
   179
420
  1709851
370
    18
100
AcDb2dPolyline
 66
     1
 10
0.0
 20
0.0
 30
0.0
  0
VERTEX
  5
29E
330
29D
100
AcDbEntity
  8
Ebene 1
 62
   179
420
  1709851
370
    18
100
AcDbVertex
100
AcDb2dVertex
 10
71.46574976511968
 20
-141.1250637125486
 30
0.0
  0
VERTEX
  5
29F
330
29D
100
AcDbEntity
  8
Ebene 1
 62
   179
420
  1709851
370
    18
100
AcDbVertex
100
AcDb2dVertex
 10
71.25404864755107
 20
-141.1250637125486
 30
0.0
  0
SEQEND
  5
2A0
330
29D
100
AcDbEntity
  8
Ebene 1
370
    18
  0
POLYLINE
  5
2A1
330
198
100
AcDbEntity
  8
Ebene 1
 62
   179
420
  1709851
370
    18
100
AcDb2dPolyline
 66
     1
 10
0.0
 20
0.0
 30
0.0
  0
VERTEX
  5
2A2
330
2A1
100
AcDbEntity
  8
Ebene 1
 62
   179
420
  1709851
370
    18
100
AcDbVertex
100
AcDb2dVertex
 10
70.89420842411673
 20
-141.1250637125486
 30
0.0
  0
VERTEX
  5
2A3
330
2A1
100
AcDbEntity
  8
Ebene 1
 62
   179
420
  1709851
370
    18
100
AcDbVertex
100
AcDb2dVertex
 10
71.04234752998248
 20
-141.1887979790257
 30
0.0
  0
VERTEX
  5
2A4
330
2A1
100
AcDbEntity
  8
Ebene 1
 62
   179
420
  1709851
370
    18
100
AcDbVertex
100
AcDb2dVertex
 10
71.19048663584822
 20
-141.1674383870172
 30
0.0
  0
VERTEX
  5
2A5
330
2A1
100
AcDbEntity
  8
Ebene 1
 62
   179
420
  1709851
370
    18
100
AcDbVertex
100
AcDb2dVertex
 10
71.25404864755107
 20
-141.1250637125486
 30
0.0
  0
SEQEND
  5
2A6
330
2A1
100
AcDbEntity
  8
Ebene 1
370
    18
  0
POLYLINE
  5
2A7
330
198
100
AcDbEntity
  8
Ebene 1
 62
   179
420
  1709851
370
    18
100
AcDb2dPolyline
 66
     1
 10
0.0
 20
0.0
 30
0.0
  0
VERTEX
  5
2A8
330
2A7
100
AcDbEntity
  8
Ebene 1
 62
   179
420
  1709851
370
    18
100
AcDbVertex
100
AcDb2dVertex
 10
70.89420842411673
 20
-141.1250637125486
 30
0.0
  0
VERTEX
  5
2A9
330
2A7
100
AcDbEntity
  8
Ebene 1
 62
   179
420
  1709851
370
    18
100
AcDbVertex
100
AcDb2dVertex
 10
69.98401419691372
 20
-141.1250637125486
 30
0.0
  0
SEQEND
  5
2AA
330
2A7
100
AcDbEntity
  8
Ebene 1
370
    18
  0
POLYLINE
  5
2AB
330
198
100
AcDbEntity
  8
Ebene 1
 62
   179
420
  1709851
370
    18
100
AcDb2dPolyline
 66
     1
 10
0.0
 20
0.0
 30
0.0
  0
VERTEX
  5
2AC
330
2AB
100
AcDbEntity
  8
Ebene 1
 62
   179
420
  1709851
370
    18
100
AcDbVertex
100
AcDb2dVertex
 10
69.98401419691372
 20
-140.8921752577457
 30
0.0
  0
VERTEX
  5
2AD
330
2AB
100
AcDbEntity
  8
Ebene 1
 62
   179
420
  1709851
370
    18
100
AcDbVertex
100
AcDb2dVertex
 10
70.89420842411673
 20
-140.8921752577457
 30
0.0
  0
SEQEND
  5
2AE
330
2AB
100
AcDbEntity
  8
Ebene 1
370
    18
  0
POLYLINE
  5
2AF
330
198
100
AcDbEntity
  8
Ebene 1
 62
   179
420
  1709851
370
    18
100
AcDb2dPolyline
 66
     1
 10
0.0
 20
0.0
 30
0.0
  0
VERTEX
  5
2B0
330
2AF
100
AcDbEntity
  8
Ebene 1
 62
   179
420
  1709851
370
    18
100
AcDbVertex
100
AcDb2dVertex
 10
71.25404864755107
 20
-140.8921752577457
 30
0.0
  0
VERTEX
  5
2B1
330
2AF
100
AcDbEntity
  8
Ebene 1
 62
   179
420
  1709851
370
    18
100
AcDbVertex
100
AcDb2dVertex
 10
71.50812443958824
 20
-140.8921752577457
 30
0.0
  0
SEQEND
  5
2B2
330
2AF
100
AcDbEntity
  8
Ebene 1
370
    18
  0
POLYLINE
  5
2B3
330
198
100
AcDbEntity
  8
Ebene 1
 62
   179
420
  1709851
370
    18
100
AcDb2dPolyline
 66
     1
 10
0.0
 20
0.0
 30
0.0
  0
VERTEX
  5
2B4
330
2B3
100
AcDbEntity
  8
Ebene 1
 62
   179
420
  1709851
370
    18
100
AcDbVertex
100
AcDb2dVertex
 10
71.80440265131973
 20
-141.1887979790257
 30
0.0
  0
VERTEX
  5
2B5
330
2B3
100
AcDbEntity
  8
Ebene 1
 62
   179
420
  1709851
370
    18
100
AcDbVertex
100
AcDb2dVertex
 10
71.76202797685116
 20
-141.04065887316
 30
0.0
  0
VERTEX
  5
2B6
330
2B3
100
AcDbEntity
  8
Ebene 1
 62
   179
420
  1709851
370
    18
100
AcDbVertex
100
AcDb2dVertex
 10
71.656263545454
 20
-140.9135348497543
 30
0.0
  0
VERTEX
  5
2B7
330
2B3
100
AcDbEntity
  8
Ebene 1
 62
   179
420
  1709851
370
    18
100
AcDbVertex
100
AcDb2dVertex
 10
71.50812443958824
 20
-140.8921752577457
 30
0.0
  0
SEQEND
  5
2B8
330
2B3
100
AcDbEntity
  8
Ebene 1
370
    18
  0
POLYLINE
  5
2B9
330
198
100
AcDbEntity
  8
Ebene 1
 62
   179
420
  1709851
370
    18
100
AcDb2dPolyline
 66
     1
 10
0.0
 20
0.0
 30
0.0
  0
VERTEX
  5
2BA
330
2B9
100
AcDbEntity
  8
Ebene 1
 62
   179
420
  1709851
370
    18
100
AcDbVertex
100
AcDb2dVertex
 10
71.46574976511968
 20
-141.1887979790257
 30
0.0
  0
VERTEX
  5
2BB
330
2B9
100
AcDbEntity
  8
Ebene 1
 62
   179
420
  1709851
370
    18
100
AcDbVertex
100
AcDb2dVertex
 10
71.27523598478535
 20
-141.1887979790257
 30
0.0
  0
SEQEND
  5
2BC
330
2B9
100
AcDbEntity
  8
Ebene 1
370
    18
  0
POLYLINE
  5
2BD
330
198
100
AcDbEntity
  8
Ebene 1
 62
   179
420
  1709851
370
    18
100
AcDb2dPolyline
 66
     1
 10
0.0
 20
0.0
 30
0.0
  0
VERTEX
  5
2BE
330
2BD
100
AcDbEntity
  8
Ebene 1
 62
   179
420
  1709851
370
    18
100
AcDbVertex
100
AcDb2dVertex
 10
79.25511065726955
 20
-141.8661037514258
 30
0.0
  0
VERTEX
  5
2BF
330
2BD
100
AcDbEntity
  8
Ebene 1
 62
   179
420
  1709851
370
    18
100
AcDbVertex
100
AcDb2dVertex
 10
79.25511065726955
 20
-141.8661037514258
 30
0.0
  0
VERTEX
  5
2C0
330
2BD
100
AcDbEntity
  8
Ebene 1
 62
   179
420
  1709851
370
    18
100
AcDbVertex
100
AcDb2dVertex
 10
80.90600041380128
 20
-141.8661037514258
 30
0.0
  0
SEQEND
  5
2C1
330
2BD
100
AcDbEntity
  8
Ebene 1
370
    18
  0
POLYLINE
  5
2C2
330
198
100
AcDbEntity
  8
Ebene 1
 62
   179
420
  1709851
370
    18
100
AcDb2dPolyline
 66
     1
 10
0.0
 20
0.0
 30
0.0
  0
VERTEX
  5
2C3
330
2C2
100
AcDbEntity
  8
Ebene 1
 62
   179
420
  1709851
370
    18
100
AcDbVertex
100
AcDb2dVertex
 10
81.75280488407569
 20
-144.4905774920892
 30
0.0
  0
VERTEX
  5
2C4
330
2C2
100
AcDbEntity
  8
Ebene 1
 62
   179
420
  1709851
370
    18
100
AcDbVertex
100
AcDb2dVertex
 10
81.75280488407569
 20
-142.4796752573488
 30
0.0
  0
SEQEND
  5
2C5
330
2C2
100
AcDbEntity
  8
Ebene 1
370
    18
  0
POLYLINE
  5
2C6
330
198
100
AcDbEntity
  8
Ebene 1
 62
   179
420
  1709851
370
    18
100
AcDb2dPolyline
 66
     1
 10
0.0
 20
0.0
 30
0.0
  0
VERTEX
  5
2C7
330
2C6
100
AcDbEntity
  8
Ebene 1
 62
   179
420
  1709851
370
    18
100
AcDbVertex
100
AcDb2dVertex
 10
81.75280488407569
 20
-147.4750637109611
 30
0.0
  0
VERTEX
  5
2C8
330
2C6
100
AcDbEntity
  8
Ebene 1
 62
   179
420
  1709851
370
    18
100
AcDbVertex
100
AcDb2dVertex
 10
81.75280488407569
 20
-145.4855210682293
 30
0.0
  0
SEQEND
  5
2C9
330
2C6
100
AcDbEntity
  8
Ebene 1
370
    18
  0
POLYLINE
  5
2CA
330
198
100
AcDbEntity
  8
Ebene 1
 62
   179
420
  1709851
370
    18
100
AcDb2dPolyline
 66
     1
 10
0.0
 20
0.0
 30
0.0
  0
VERTEX
  5
2CB
330
2CA
100
AcDbEntity
  8
Ebene 1
 62
   179
420
  1709851
370
    18
100
AcDbVertex
100
AcDb2dVertex
 10
81.75280488407569
 20
-150.4810817766158
 30
0.0
  0
VERTEX
  5
2CC
330
2CA
100
AcDbEntity
  8
Ebene 1
 62
   179
420
  1709851
370
    18
100
AcDbVertex
100
AcDb2dVertex
 10
81.75280488407569
 20
-148.4703517966498
 30
0.0
  0
SEQEND
  5
2CD
330
2CA
100
AcDbEntity
  8
Ebene 1
370
    18
  0
POLYLINE
  5
2CE
330
198
100
AcDbEntity
  8
Ebene 1
 62
   179
420
  1709851
370
    18
100
AcDb2dPolyline
 66
     1
 10
0.0
 20
0.0
 30
0.0
  0
VERTEX
  5
2CF
330
2CE
100
AcDbEntity
  8
Ebene 1
 62
   179
420
  1709851
370
    18
100
AcDbVertex
100
AcDb2dVertex
 10
81.75280488407569
 20
-153.4865830779478
 30
0.0
  0
VERTEX
  5
2D0
330
2CE
100
AcDbEntity
  8
Ebene 1
 62
   179
420
  1709851
370
    18
100
AcDbVertex
100
AcDb2dVertex
 10
81.75280488407569
 20
-151.475336333659
 30
0.0
  0
SEQEND
  5
2D1
330
2CE
100
AcDbEntity
  8
Ebene 1
370
    18
  0
POLYLINE
  5
2D2
330
198
100
AcDbEntity
  8
Ebene 1
 62
   179
420
  1709851
370
    18
100
AcDb2dPolyline
 66
     1
 10
0.0
 20
0.0
 30
0.0
  0
VERTEX
  5
2D3
330
2D2
100
AcDbEntity
  8
Ebene 1
 62
   179
420
  1709851
370
    18
100
AcDbVertex
100
AcDb2dVertex
 10
81.75280488407569
 20
-156.4707247872712
 30
0.0
  0
VERTEX
  5
2D4
330
2D2
100
AcDbEntity
  8
Ebene 1
 62
   179
420
  1709851
370
    18
100
AcDbVertex
100
AcDb2dVertex
 10
81.75280488407569
 20
-154.481526654088
 30
0.0
  0
SEQEND
  5
2D5
330
2D2
100
AcDbEntity
  8
Ebene 1
370
    18
  0
POLYLINE
  5
2D6
330
198
100
AcDbEntity
  8
Ebene 1
 62
   179
420
  1709851
370
    18
100
AcDb2dPolyline
 66
     1
 10
0.0
 20
0.0
 30
0.0
  0
VERTEX
  5
2D7
330
2D6
100
AcDbEntity
  8
Ebene 1
 62
   179
420
  1709851
370
    18
100
AcDbVertex
100
AcDb2dVertex
 10
81.75280488407569
 20
-159.4769151077002
 30
0.0
  0
VERTEX
  5
2D8
330
2D6
100
AcDbEntity
  8
Ebene 1
 62
   179
420
  1709851
370
    18
100
AcDbVertex
100
AcDb2dVertex
 10
81.75280488407569
 20
-157.4870279554199
 30
0.0
  0
SEQEND
  5
2D9
330
2D6
100
AcDbEntity
  8
Ebene 1
370
    18
  0
POLYLINE
  5
2DA
330
198
100
AcDbEntity
  8
Ebene 1
 62
   179
420
  1709851
370
    18
100
AcDb2dPolyline
 66
     1
 10
0.0
 20
0.0
 30
0.0
  0
VERTEX
  5
2DB
330
2DA
100
AcDbEntity
  8
Ebene 1
 62
   179
420
  1709851
370
    18
100
AcDbVertex
100
AcDb2dVertex
 10
81.75280488407569
 20
-162.4824164090322
 30
0.0
  0
VERTEX
  5
2DC
330
2DA
100
AcDbEntity
  8
Ebene 1
 62
   179
420
  1709851
370
    18
100
AcDbVertex
100
AcDb2dVertex
 10
81.75280488407569
 20
-160.4711696647433
 30
0.0
  0
SEQEND
  5
2DD
330
2DA
100
AcDbEntity
  8
Ebene 1
370
    18
  0
POLYLINE
  5
2DE
330
198
100
AcDbEntity
  8
Ebene 1
 62
   179
420
  1709851
370
    18
100
AcDb2dPolyline
 66
     1
 10
0.0
 20
0.0
 30
0.0
  0
VERTEX
  5
2DF
330
2DE
100
AcDbEntity
  8
Ebene 1
 62
   179
420
  1709851
370
    18
100
AcDbVertex
100
AcDb2dVertex
 10
81.75280488407569
 20
-165.4879177103641
 30
0.0
  0
VERTEX
  5
2E0
330
2DE
100
AcDbEntity
  8
Ebene 1
 62
   179
420
  1709851
370
    18
100
AcDbVertex
100
AcDb2dVertex
 10
81.75280488407569
 20
-163.4773599851723
 30
0.0
  0
SEQEND
  5
2E1
330
2DE
100
AcDbEntity
  8
Ebene 1
370
    18
  0
POLYLINE
  5
2E2
330
198
100
AcDbEntity
  8
Ebene 1
 62
   179
420
  1709851
370
    18
100
AcDb2dPolyline
 66
     1
 10
0.0
 20
0.0
 30
0.0
  0
VERTEX
  5
2E3
330
2E2
100
AcDbEntity
  8
Ebene 1
 62
   179
420
  1709851
370
    18
100
AcDbVertex
100
AcDb2dVertex
 10
81.75280488407569
 20
-168.4727484387846
 30
0.0
  0
VERTEX
  5
2E4
330
2E2
100
AcDbEntity
  8
Ebene 1
 62
   179
420
  1709851
370
    18
100
AcDbVertex
100
AcDb2dVertex
 10
81.75280488407569
 20
-166.4828612865043
 30
0.0
  0
SEQEND
  5
2E5
330
2E2
100
AcDbEntity
  8
Ebene 1
370
    18
  0
POLYLINE
  5
2E6
330
198
100
AcDbEntity
  8
Ebene 1
 62
   179
420
  1709851
370
    18
100
AcDb2dPolyline
 66
     1
 10
0.0
 20
0.0
 30
0.0
  0
VERTEX
  5
2E7
330
2E6
100
AcDbEntity
  8
Ebene 1
 62
   179
420
  1709851
370
    18
100
AcDbVertex
100
AcDb2dVertex
 10
81.75280488407569
 20
-170.3565266501192
 30
0.0
  0
VERTEX
  5
2E8
330
2E6
100
AcDbEntity
  8
Ebene 1
 62
   179
420
  1709851
370
    18
100
AcDbVertex
100
AcDb2dVertex
 10
81.75280488407569
 20
-170.3565266501192
 30
0.0
  0
VERTEX
  5
2E9
330
2E6
100
AcDbEntity
  8
Ebene 1
 62
   179
420
  1709851
370
    18
100
AcDbVertex
100
AcDb2dVertex
 10
81.75280488407569
 20
-169.4890516069333
 30
0.0
  0
SEQEND
  5
2EA
330
2E6
100
AcDbEntity
  8
Ebene 1
370
    18
  0
POLYLINE
  5
2EB
330
198
100
AcDbEntity
  8
Ebene 1
 62
   179
420
  1709851
370
    18
100
AcDb2dPolyline
 66
     1
 10
0.0
 20
0.0
 30
0.0
  0
VERTEX
  5
2EC
330
2EB
100
AcDbEntity
  8
Ebene 1
 62
   179
420
  1709851
370
    18
100
AcDbVertex
100
AcDb2dVertex
 10
79.25511065726955
 20
-115.8945624167729
 30
0.0
  0
VERTEX
  5
2ED
330
2EB
100
AcDbEntity
  8
Ebene 1
 62
   179
420
  1709851
370
    18
100
AcDbVertex
100
AcDb2dVertex
 10
79.25511065726955
 20
-110.3700072966263
 30
0.0
  0
SEQEND
  5
2EE
330
2EB
100
AcDbEntity
  8
Ebene 1
370
    18
  0
POLYLINE
  5
2EF
330
198
100
AcDbEntity
  8
Ebene 1
 62
   179
420
  1709851
370
    18
100
AcDb2dPolyline
 66
     1
 10
0.0
 20
0.0
 30
0.0
  0
VERTEX
  5
2F0
330
2EF
100
AcDbEntity
  8
Ebene 1
 62
   179
420
  1709851
370
    18
100
AcDbVertex
100
AcDb2dVertex
 10
93.66956242232914
 20
-96.48454994332678
 30
0.0
  0
VERTEX
  5
2F1
330
2EF
100
AcDbEntity
  8
Ebene 1
 62
   179
420
  1709851
370
    18
100
AcDbVertex
100
AcDb2dVertex
 10
93.66956242232914
 20
-94.495007300595
 30
0.0
  0
SEQEND
  5
2F2
330
2EF
100
AcDbEntity
  8
Ebene 1
370
    18
  0
POLYLINE
  5
2F3
330
198
100
AcDbEntity
  8
Ebene 1
 62
   179
420
  1709851
370
    18
100
AcDb2dPolyline
 66
     1
 10
0.0
 20
0.0
 30
0.0
  0
VERTEX
  5
2F4
330
2F3
100
AcDbEntity
  8
Ebene 1
 62
   179
420
  1709851
370
    18
100
AcDbVertex
100
AcDb2dVertex
 10
93.66956242232914
 20
-99.49039575420727
 30
0.0
  0
VERTEX
  5
2F5
330
2F3
100
AcDbEntity
  8
Ebene 1
 62
   179
420
  1709851
370
    18
100
AcDbVertex
100
AcDb2dVertex
 10
93.66956242232914
 20
-97.47949351946694
 30
0.0
  0
SEQEND
  5
2F6
330
2F3
100
AcDbEntity
  8
Ebene 1
370
    18
  0
POLYLINE
  5
2F7
330
198
100
AcDbEntity
  8
Ebene 1
 62
   179
420
  1709851
370
    18
100
AcDb2dPolyline
 66
     1
 10
0.0
 20
0.0
 30
0.0
  0
VERTEX
  5
2F8
330
2F7
100
AcDbEntity
  8
Ebene 1
 62
   179
420
  1709851
370
    18
100
AcDbVertex
100
AcDb2dVertex
 10
93.66956242232914
 20
-102.4748819730792
 30
0.0
  0
VERTEX
  5
2F9
330
2F7
100
AcDbEntity
  8
Ebene 1
 62
   179
420
  1709851
370
    18
100
AcDbVertex
100
AcDb2dVertex
 10
93.66956242232914
 20
-100.4849948207989
 30
0.0
  0
SEQEND
  5
2FA
330
2F7
100
AcDbEntity
  8
Ebene 1
370
    18
  0
POLYLINE
  5
2FB
330
198
100
AcDbEntity
  8
Ebene 1
 62
   179
420
  1709851
370
    18
100
AcDb2dPolyline
 66
     1
 10
0.0
 20
0.0
 30
0.0
  0
VERTEX
  5
2FC
330
2FB
100
AcDbEntity
  8
Ebene 1
 62
   179
420
  1709851
370
    18
100
AcDbVertex
100
AcDb2dVertex
 10
93.66956242232914
 20
-105.4803832744112
 30
0.0
  0
VERTEX
  5
2FD
330
2FB
100
AcDbEntity
  8
Ebene 1
 62
   179
420
  1709851
370
    18
100
AcDbVertex
100
AcDb2dVertex
 10
93.66956242232914
 20
-103.4911851412279
 30
0.0
  0
SEQEND
  5
2FE
330
2FB
100
AcDbEntity
  8
Ebene 1
370
    18
  0
POLYLINE
  5
2FF
330
198
100
AcDbEntity
  8
Ebene 1
 62
   179
420
  1709851
370
    18
100
AcDb2dPolyline
 66
     1
 10
0.0
 20
0.0
 30
0.0
  0
VERTEX
  5
300
330
2FF
100
AcDbEntity
  8
Ebene 1
 62
   179
420
  1709851
370
    18
100
AcDbVertex
100
AcDb2dVertex
 10
93.66956242232914
 20
-108.4862290852916
 30
0.0
  0
VERTEX
  5
301
330
2FF
100
AcDbEntity
  8
Ebene 1
 62
   179
420
  1709851
370
    18
100
AcDbVertex
100
AcDb2dVertex
 10
93.66956242232914
 20
-106.4753268505513
 30
0.0
  0
SEQEND
  5
302
330
2FF
100
AcDbEntity
  8
Ebene 1
370
    18
  0
POLYLINE
  5
303
330
198
100
AcDbEntity
  8
Ebene 1
 62
   179
420
  1709851
370
    18
100
AcDb2dPolyline
 66
     1
 10
0.0
 20
0.0
 30
0.0
  0
VERTEX
  5
304
330
303
100
AcDbEntity
  8
Ebene 1
 62
   179
420
  1709851
370
    18
100
AcDbVertex
100
AcDb2dVertex
 10
93.66956242232914
 20
-110.3703518061748
 30
0.0
  0
VERTEX
  5
305
330
303
100
AcDbEntity
  8
Ebene 1
 62
   179
420
  1709851
370
    18
100
AcDbVertex
100
AcDb2dVertex
 10
93.66956242232914
 20
-110.3703518061748
 30
0.0
  0
VERTEX
  5
306
330
303
100
AcDbEntity
  8
Ebene 1
 62
   179
420
  1709851
370
    18
100
AcDbVertex
100
AcDb2dVertex
 10
93.66956242232914
 20
-109.4808281518833
 30
0.0
  0
SEQEND
  5
307
330
303
100
AcDbEntity
  8
Ebene 1
370
    18
  0
POLYLINE
  5
308
330
198
100
AcDbEntity
  8
Ebene 1
 62
   179
420
  1709851
370
    18
100
AcDb2dPolyline
 66
     1
 10
0.0
 20
0.0
 30
0.0
  0
VERTEX
  5
309
330
308
100
AcDbEntity
  8
Ebene 1
 62
   179
420
  1709851
370
    18
100
AcDbVertex
100
AcDb2dVertex
 10
81.75280488407569
 20
-204.4767523360336
 30
0.0
  0
VERTEX
  5
30A
330
308
100
AcDbEntity
  8
Ebene 1
 62
   179
420
  1709851
370
    18
100
AcDbVertex
100
AcDb2dVertex
 10
81.75280488407569
 20
-202.4661946108418
 30
0.0
  0
SEQEND
  5
30B
330
308
100
AcDbEntity
  8
Ebene 1
370
    18
  0
POLYLINE
  5
30C
330
198
100
AcDbEntity
  8
Ebene 1
 62
   179
420
  1709851
370
    18
100
AcDb2dPolyline
 66
     1
 10
0.0
 20
0.0
 30
0.0
  0
VERTEX
  5
30D
330
30C
100
AcDbEntity
  8
Ebene 1
 62
   179
420
  1709851
370
    18
100
AcDbVertex
100
AcDb2dVertex
 10
81.75280488407569
 20
-207.4829426564626
 30
0.0
  0
VERTEX
  5
30E
330
30C
100
AcDbEntity
  8
Ebene 1
 62
   179
420
  1709851
370
    18
100
AcDbVertex
100
AcDb2dVertex
 10
81.75280488407569
 20
-205.4723849312708
 30
0.0
  0
SEQEND
  5
30F
330
30C
100
AcDbEntity
  8
Ebene 1
370
    18
  0
POLYLINE
  5
310
330
198
100
AcDbEntity
  8
Ebene 1
 62
   179
420
  1709851
370
    18
100
AcDb2dPolyline
 66
     1
 10
0.0
 20
0.0
 30
0.0
  0
VERTEX
  5
311
330
310
100
AcDbEntity
  8
Ebene 1
 62
   179
420
  1709851
370
    18
100
AcDbVertex
100
AcDb2dVertex
 10
81.75280488407569
 20
-210.4677733848831
 30
0.0
  0
VERTEX
  5
312
330
310
100
AcDbEntity
  8
Ebene 1
 62
   179
420
  1709851
370
    18
100
AcDbVertex
100
AcDb2dVertex
 10
81.75280488407569
 20
-208.4771972135057
 30
0.0
  0
SEQEND
  5
313
330
310
100
AcDbEntity
  8
Ebene 1
370
    18
  0
POLYLINE
  5
314
330
198
100
AcDbEntity
  8
Ebene 1
 62
   179
420
  1709851
370
    18
100
AcDb2dPolyline
 66
     1
 10
0.0
 20
0.0
 30
0.0
  0
VERTEX
  5
315
330
314
100
AcDbEntity
  8
Ebene 1
 62
   179
420
  1709851
370
    18
100
AcDbVertex
100
AcDb2dVertex
 10
81.75280488407569
 20
-213.472585667118
 30
0.0
  0
VERTEX
  5
316
330
314
100
AcDbEntity
  8
Ebene 1
 62
   179
420
  1709851
370
    18
100
AcDbVertex
100
AcDb2dVertex
 10
81.75280488407569
 20
-211.4833875339347
 30
0.0
  0
SEQEND
  5
317
330
314
100
AcDbEntity
  8
Ebene 1
370
    18
  0
POLYLINE
  5
318
330
198
100
AcDbEntity
  8
Ebene 1
 62
   179
420
  1709851
370
    18
100
AcDb2dPolyline
 66
     1
 10
0.0
 20
0.0
 30
0.0
  0
VERTEX
  5
319
330
318
100
AcDbEntity
  8
Ebene 1
 62
   179
420
  1709851
370
    18
100
AcDbVertex
100
AcDb2dVertex
 10
81.75280488407569
 20
-216.478775987547
 30
0.0
  0
VERTEX
  5
31A
330
318
100
AcDbEntity
  8
Ebene 1
 62
   179
420
  1709851
370
    18
100
AcDbVertex
100
AcDb2dVertex
 10
81.75280488407569
 20
-214.4682182623552
 30
0.0
  0
SEQEND
  5
31B
330
318
100
AcDbEntity
  8
Ebene 1
370
    18
  0
POLYLINE
  5
31C
330
198
100
AcDbEntity
  8
Ebene 1
 62
   179
420
  1709851
370
    18
100
AcDb2dPolyline
 66
     1
 10
0.0
 20
0.0
 30
0.0
  0
VERTEX
  5
31D
330
31C
100
AcDbEntity
  8
Ebene 1
 62
   179
420
  1709851
370
    18
100
AcDbVertex
100
AcDb2dVertex
 10
81.75280488407569
 20
-219.4842772888789
 30
0.0
  0
VERTEX
  5
31E
330
31C
100
AcDbEntity
  8
Ebene 1
 62
   179
420
  1709851
370
    18
100
AcDbVertex
100
AcDb2dVertex
 10
81.75280488407569
 20
-217.4730305445901
 30
0.0
  0
SEQEND
  5
31F
330
31C
100
AcDbEntity
  8
Ebene 1
370
    18
  0
POLYLINE
  5
320
330
198
100
AcDbEntity
  8
Ebene 1
 62
   179
420
  1709851
370
    18
100
AcDb2dPolyline
 66
     1
 10
0.0
 20
0.0
 30
0.0
  0
VERTEX
  5
321
330
320
100
AcDbEntity
  8
Ebene 1
 62
   179
420
  1709851
370
    18
100
AcDbVertex
100
AcDb2dVertex
 10
81.75280488407569
 20
-222.4684189982023
 30
0.0
  0
VERTEX
  5
322
330
320
100
AcDbEntity
  8
Ebene 1
 62
   179
420
  1709851
370
    18
100
AcDbVertex
100
AcDb2dVertex
 10
81.75280488407569
 20
-220.4792208650191
 30
0.0
  0
SEQEND
  5
323
330
320
100
AcDbEntity
  8
Ebene 1
370
    18
  0
POLYLINE
  5
324
330
198
100
AcDbEntity
  8
Ebene 1
 62
   179
420
  1709851
370
    18
100
AcDb2dPolyline
 66
     1
 10
0.0
 20
0.0
 30
0.0
  0
VERTEX
  5
325
330
324
100
AcDbEntity
  8
Ebene 1
 62
   179
420
  1709851
370
    18
100
AcDbVertex
100
AcDb2dVertex
 10
81.75280488407569
 20
-225.4746093186314
 30
0.0
  0
VERTEX
  5
326
330
324
100
AcDbEntity
  8
Ebene 1
 62
   179
420
  1709851
370
    18
100
AcDbVertex
100
AcDb2dVertex
 10
81.75280488407569
 20
-223.4640515934396
 30
0.0
  0
SEQEND
  5
327
330
324
100
AcDbEntity
  8
Ebene 1
370
    18
  0
POLYLINE
  5
328
330
198
100
AcDbEntity
  8
Ebene 1
 62
   179
420
  1709851
370
    18
100
AcDb2dPolyline
 66
     1
 10
0.0
 20
0.0
 30
0.0
  0
VERTEX
  5
329
330
328
100
AcDbEntity
  8
Ebene 1
 62
   179
420
  1709851
370
    18
100
AcDbVertex
100
AcDb2dVertex
 10
81.75280488407569
 20
-228.4801106199633
 30
0.0
  0
VERTEX
  5
32A
330
328
100
AcDbEntity
  8
Ebene 1
 62
   179
420
  1709851
370
    18
100
AcDbVertex
100
AcDb2dVertex
 10
81.75280488407569
 20
-226.4688638756745
 30
0.0
  0
SEQEND
  5
32B
330
328
100
AcDbEntity
  8
Ebene 1
370
    18
  0
POLYLINE
  5
32C
330
198
100
AcDbEntity
  8
Ebene 1
 62
   179
420
  1709851
370
    18
100
AcDb2dPolyline
 66
     1
 10
0.0
 20
0.0
 30
0.0
  0
VERTEX
  5
32D
330
32C
100
AcDbEntity
  8
Ebene 1
 62
   179
420
  1709851
370
    18
100
AcDbVertex
100
AcDb2dVertex
 10
81.75280488407569
 20
-231.4642523292867
 30
0.0
  0
VERTEX
  5
32E
330
32C
100
AcDbEntity
  8
Ebene 1
 62
   179
420
  1709851
370
    18
100
AcDbVertex
100
AcDb2dVertex
 10
81.75280488407569
 20
-229.4750541961035
 30
0.0
  0
SEQEND
  5
32F
330
32C
100
AcDbEntity
  8
Ebene 1
370
    18
  0
POLYLINE
  5
330
330
198
100
AcDbEntity
  8
Ebene 1
 62
   179
420
  1709851
370
    18
100
AcDb2dPolyline
 66
     1
 10
0.0
 20
0.0
 30
0.0
  0
VERTEX
  5
331
330
330
100
AcDbEntity
  8
Ebene 1
 62
   179
420
  1709851
370
    18
100
AcDbVertex
100
AcDb2dVertex
 10
81.75280488407569
 20
-234.4704426497157
 30
0.0
  0
VERTEX
  5
332
330
330
100
AcDbEntity
  8
Ebene 1
 62
   179
420
  1709851
370
    18
100
AcDbVertex
100
AcDb2dVertex
 10
81.75280488407569
 20
-232.4805554974354
 30
0.0
  0
SEQEND
  5
333
330
330
100
AcDbEntity
  8
Ebene 1
370
    18
  0
POLYLINE
  5
334
330
198
100
AcDbEntity
  8
Ebene 1
 62
   179
420
  1709851
370
    18
100
AcDb2dPolyline
 66
     1
 10
0.0
 20
0.0
 30
0.0
  0
VERTEX
  5
335
330
334
100
AcDbEntity
  8
Ebene 1
 62
   179
420
  1709851
370
    18
100
AcDbVertex
100
AcDb2dVertex
 10
79.25511065726955
 20
-235.0202798891616
 30
0.0
  0
VERTEX
  5
336
330
334
100
AcDbEntity
  8
Ebene 1
 62
   179
420
  1709851
370
    18
100
AcDbVertex
100
AcDb2dVertex
 10
79.25511065726955
 20
-202.3600856698961
 30
0.0
  0
SEQEND
  5
337
330
334
100
AcDbEntity
  8
Ebene 1
370
    18
  0
POLYLINE
  5
338
330
198
100
AcDbEntity
  8
Ebene 1
 62
   179
420
  1709851
370
    18
100
AcDb2dPolyline
 66
     1
 10
0.0
 20
0.0
 30
0.0
  0
VERTEX
  5
339
330
338
100
AcDbEntity
  8
Ebene 1
 62
   179
420
  1709851
370
    18
100
AcDbVertex
100
AcDb2dVertex
 10
93.66956242232914
 20
-171.4782497401166
 30
0.0
  0
VERTEX
  5
33A
330
338
100
AcDbEntity
  8
Ebene 1
 62
   179
420
  1709851
370
    18
100
AcDbVertex
100
AcDb2dVertex
 10
93.66956242232914
 20
-170.3565266501192
 30
0.0
  0
SEQEND
  5
33B
330
338
100
AcDbEntity
  8
Ebene 1
370
    18
  0
POLYLINE
  5
33C
330
198
100
AcDbEntity
  8
Ebene 1
 62
   179
420
  1709851
370
    18
100
AcDb2dPolyline
 66
     1
 10
0.0
 20
0.0
 30
0.0
  0
VERTEX
  5
33D
330
33C
100
AcDbEntity
  8
Ebene 1
 62
   179
420
  1709851
370
    18
100
AcDbVertex
100
AcDb2dVertex
 10
93.66956242232914
 20
-174.4844400605456
 30
0.0
  0
VERTEX
  5
33E
330
33C
100
AcDbEntity
  8
Ebene 1
 62
   179
420
  1709851
370
    18
100
AcDbVertex
100
AcDb2dVertex
 10
93.66956242232914
 20
-172.4731933162567
 30
0.0
  0
SEQEND
  5
33F
330
33C
100
AcDbEntity
  8
Ebene 1
370
    18
  0
POLYLINE
  5
340
330
198
100
AcDbEntity
  8
Ebene 1
 62
   179
420
  1709851
370
    18
100
AcDb2dPolyline
 66
     1
 10
0.0
 20
0.0
 30
0.0
  0
VERTEX
  5
341
330
340
100
AcDbEntity
  8
Ebene 1
 62
   179
420
  1709851
370
    18
100
AcDbVertex
100
AcDb2dVertex
 10
93.66956242232914
 20
-177.468581769869
 30
0.0
  0
VERTEX
  5
342
330
340
100
AcDbEntity
  8
Ebene 1
 62
   179
420
  1709851
370
    18
100
AcDbVertex
100
AcDb2dVertex
 10
93.66956242232914
 20
-175.4786946175887
 30
0.0
  0
SEQEND
  5
343
330
340
100
AcDbEntity
  8
Ebene 1
370
    18
  0
POLYLINE
  5
344
330
198
100
AcDbEntity
  8
Ebene 1
 62
   179
420
  1709851
370
    18
100
AcDb2dPolyline
 66
     1
 10
0.0
 20
0.0
 30
0.0
  0
VERTEX
  5
345
330
344
100
AcDbEntity
  8
Ebene 1
 62
   179
420
  1709851
370
    18
100
AcDbVertex
100
AcDb2dVertex
 10
93.66956242232914
 20
-180.4740830712009
 30
0.0
  0
VERTEX
  5
346
330
344
100
AcDbEntity
  8
Ebene 1
 62
   179
420
  1709851
370
    18
100
AcDbVertex
100
AcDb2dVertex
 10
93.66956242232914
 20
-178.4848849380177
 30
0.0
  0
SEQEND
  5
347
330
344
100
AcDbEntity
  8
Ebene 1
370
    18
  0
POLYLINE
  5
348
330
198
100
AcDbEntity
  8
Ebene 1
 62
   179
420
  1709851
370
    18
100
AcDb2dPolyline
 66
     1
 10
0.0
 20
0.0
 30
0.0
  0
VERTEX
  5
349
330
348
100
AcDbEntity
  8
Ebene 1
 62
   179
420
  1709851
370
    18
100
AcDbVertex
100
AcDb2dVertex
 10
93.66956242232914
 20
-183.4802733916299
 30
0.0
  0
VERTEX
  5
34A
330
348
100
AcDbEntity
  8
Ebene 1
 62
   179
420
  1709851
370
    18
100
AcDbVertex
100
AcDb2dVertex
 10
93.66956242232914
 20
-181.4690266473411
 30
0.0
  0
SEQEND
  5
34B
330
348
100
AcDbEntity
  8
Ebene 1
370
    18
  0
POLYLINE
  5
34C
330
198
100
AcDbEntity
  8
Ebene 1
 62
   179
420
  1709851
370
    18
100
AcDb2dPolyline
 66
     1
 10
0.0
 20
0.0
 30
0.0
  0
VERTEX
  5
34D
330
34C
100
AcDbEntity
  8
Ebene 1
 62
   179
420
  1709851
370
    18
100
AcDbVertex
100
AcDb2dVertex
 10
93.66956242232914
 20
-186.4850856738649
 30
0.0
  0
VERTEX
  5
34E
330
34C
100
AcDbEntity
  8
Ebene 1
 62
   179
420
  1709851
370
    18
100
AcDbVertex
100
AcDb2dVertex
 10
93.66956242232914
 20
-184.4745279486731
 30
0.0
  0
SEQEND
  5
34F
330
34C
100
AcDbEntity
  8
Ebene 1
370
    18
  0
POLYLINE
  5
350
330
198
100
AcDbEntity
  8
Ebene 1
 62
   179
420
  1709851
370
    18
100
AcDb2dPolyline
 66
     1
 10
0.0
 20
0.0
 30
0.0
  0
VERTEX
  5
351
330
350
100
AcDbEntity
  8
Ebene 1
 62
   179
420
  1709851
370
    18
100
AcDbVertex
100
AcDb2dVertex
 10
93.66956242232914
 20
-189.4699164022853
 30
0.0
  0
VERTEX
  5
352
330
350
100
AcDbEntity
  8
Ebene 1
 62
   179
420
  1709851
370
    18
100
AcDbVertex
100
AcDb2dVertex
 10
93.66956242232914
 20
-187.4807182691021
 30
0.0
  0
SEQEND
  5
353
330
350
100
AcDbEntity
  8
Ebene 1
370
    18
  0
POLYLINE
  5
354
330
198
100
AcDbEntity
  8
Ebene 1
 62
   179
420
  1709851
370
    18
100
AcDb2dPolyline
 66
     1
 10
0.0
 20
0.0
 30
0.0
  0
VERTEX
  5
355
330
354
100
AcDbEntity
  8
Ebene 1
 62
   179
420
  1709851
370
    18
100
AcDbVertex
100
AcDb2dVertex
 10
93.66956242232914
 20
-192.4754177036173
 30
0.0
  0
VERTEX
  5
356
330
354
100
AcDbEntity
  8
Ebene 1
 62
   179
420
  1709851
370
    18
100
AcDbVertex
100
AcDb2dVertex
 10
93.66956242232914
 20
-190.485530551337
 30
0.0
  0
SEQEND
  5
357
330
354
100
AcDbEntity
  8
Ebene 1
370
    18
  0
POLYLINE
  5
358
330
198
100
AcDbEntity
  8
Ebene 1
 62
   179
420
  1709851
370
    18
100
AcDb2dPolyline
 66
     1
 10
0.0
 20
0.0
 30
0.0
  0
VERTEX
  5
359
330
358
100
AcDbEntity
  8
Ebene 1
 62
   179
420
  1709851
370
    18
100
AcDbVertex
100
AcDb2dVertex
 10
93.66956242232914
 20
-195.4809190049492
 30
0.0
  0
VERTEX
  5
35A
330
358
100
AcDbEntity
  8
Ebene 1
 62
   179
420
  1709851
370
    18
100
AcDbVertex
100
AcDb2dVertex
 10
93.66956242232914
 20
-193.4703612797574
 30
0.0
  0
SEQEND
  5
35B
330
358
100
AcDbEntity
  8
Ebene 1
370
    18
  0
POLYLINE
  5
35C
330
198
100
AcDbEntity
  8
Ebene 1
 62
   179
420
  1709851
370
    18
100
AcDb2dPolyline
 66
     1
 10
0.0
 20
0.0
 30
0.0
  0
VERTEX
  5
35D
330
35C
100
AcDbEntity
  8
Ebene 1
 62
   179
420
  1709851
370
    18
100
AcDbVertex
100
AcDb2dVertex
 10
93.66956242232914
 20
-198.4657497333697
 30
0.0
  0
VERTEX
  5
35E
330
35C
100
AcDbEntity
  8
Ebene 1
 62
   179
420
  1709851
370
    18
100
AcDbVertex
100
AcDb2dVertex
 10
93.66956242232914
 20
-196.4765516001864
 30
0.0
  0
SEQEND
  5
35F
330
35C
100
AcDbEntity
  8
Ebene 1
370
    18
  0
POLYLINE
  5
360
330
198
100
AcDbEntity
  8
Ebene 1
 62
   179
420
  1709851
370
    18
100
AcDb2dPolyline
 66
     1
 10
0.0
 20
0.0
 30
0.0
  0
VERTEX
  5
361
330
360
100
AcDbEntity
  8
Ebene 1
 62
   179
420
  1709851
370
    18
100
AcDbVertex
100
AcDb2dVertex
 10
93.66956242232914
 20
-201.4712510347017
 30
0.0
  0
VERTEX
  5
362
330
360
100
AcDbEntity
  8
Ebene 1
 62
   179
420
  1709851
370
    18
100
AcDbVertex
100
AcDb2dVertex
 10
93.66956242232914
 20
-199.4813638824213
 30
0.0
  0
SEQEND
  5
363
330
360
100
AcDbEntity
  8
Ebene 1
370
    18
  0
POLYLINE
  5
364
330
198
100
AcDbEntity
  8
Ebene 1
 62
   179
420
  1709851
370
    18
100
AcDb2dPolyline
 66
     1
 10
0.0
 20
0.0
 30
0.0
  0
VERTEX
  5
365
330
364
100
AcDbEntity
  8
Ebene 1
 62
   179
420
  1709851
370
    18
100
AcDbVertex
100
AcDb2dVertex
 10
78.36610376730084
 20
-175.965831119203
 30
0.0
  0
VERTEX
  5
366
330
364
100
AcDbEntity
  8
Ebene 1
 62
   179
420
  1709851
370
    18
100
AcDbVertex
100
AcDb2dVertex
 10
78.36610376730084
 20
-179.9662759966751
 30
0.0
  0
SEQEND
  5
367
330
364
100
AcDbEntity
  8
Ebene 1
370
    18
  0
POLYLINE
  5
368
330
198
100
AcDbEntity
  8
Ebene 1
 62
   179
420
  1709851
370
    18
100
AcDb2dPolyline
 66
     1
 10
0.0
 20
0.0
 30
0.0
  0
VERTEX
  5
369
330
368
100
AcDbEntity
  8
Ebene 1
 62
   179
420
  1709851
370
    18
100
AcDbVertex
100
AcDb2dVertex
 10
79.36087508866673
 20
-179.9662759966751
 30
0.0
  0
VERTEX
  5
36A
330
368
100
AcDbEntity
  8
Ebene 1
 62
   179
420
  1709851
370
    18
100
AcDbVertex
100
AcDb2dVertex
 10
79.36087508866673
 20
-175.965831119203
 30
0.0
  0
SEQEND
  5
36B
330
368
100
AcDbEntity
  8
Ebene 1
370
    18
  0
POLYLINE
  5
36C
330
198
100
AcDbEntity
  8
Ebene 1
 62
   179
420
  1709851
370
    18
100
AcDb2dPolyline
 66
     1
 10
0.0
 20
0.0
 30
0.0
  0
VERTEX
  5
36D
330
36C
100
AcDbEntity
  8
Ebene 1
 62
   179
420
  1709851
370
    18
100
AcDbVertex
100
AcDb2dVertex
 10
79.36087508866673
 20
-184.3684190077273
 30
0.0
  0
VERTEX
  5
36E
330
36C
100
AcDbEntity
  8
Ebene 1
 62
   179
420
  1709851
370
    18
100
AcDbVertex
100
AcDb2dVertex
 10
79.36087508866673
 20
-188.3688638851995
 30
0.0
  0
SEQEND
  5
36F
330
36C
100
AcDbEntity
  8
Ebene 1
370
    18
  0
POLYLINE
  5
370
330
198
100
AcDbEntity
  8
Ebene 1
 62
   179
420
  1709851
370
    18
100
AcDb2dPolyline
 66
     1
 10
0.0
 20
0.0
 30
0.0
  0
VERTEX
  5
371
330
370
100
AcDbEntity
  8
Ebene 1
 62
   179
420
  1709851
370
    18
100
AcDbVertex
100
AcDb2dVertex
 10
78.36610376730084
 20
-188.3688638851995
 30
0.0
  0
VERTEX
  5
372
330
370
100
AcDbEntity
  8
Ebene 1
 62
   179
420
  1709851
370
    18
100
AcDbVertex
100
AcDb2dVertex
 10
78.36610376730084
 20
-184.3684190077273
 30
0.0
  0
SEQEND
  5
373
330
370
100
AcDbEntity
  8
Ebene 1
370
    18
  0
POLYLINE
  5
374
330
198
100
AcDbEntity
  8
Ebene 1
 62
   179
420
  1709851
370
    18
100
AcDb2dPolyline
 66
     1
 10
0.0
 20
0.0
 30
0.0
  0
VERTEX
  5
375
330
374
100
AcDbEntity
  8
Ebene 1
 62
   179
420
  1709851
370
    18
100
AcDbVertex
100
AcDb2dVertex
 10
78.36610376730084
 20
-192.7503363233402
 30
0.0
  0
VERTEX
  5
376
330
374
100
AcDbEntity
  8
Ebene 1
 62
   179
420
  1709851
370
    18
100
AcDbVertex
100
AcDb2dVertex
 10
78.36610376730084
 20
-196.7514702199094
 30
0.0
  0
SEQEND
  5
377
330
374
100
AcDbEntity
  8
Ebene 1
370
    18
  0
POLYLINE
  5
378
330
198
100
AcDbEntity
  8
Ebene 1
 62
   179
420
  1709851
370
    18
100
AcDb2dPolyline
 66
     1
 10
0.0
 20
0.0
 30
0.0
  0
VERTEX
  5
379
330
378
100
AcDbEntity
  8
Ebene 1
 62
   179
420
  1709851
370
    18
100
AcDbVertex
100
AcDb2dVertex
 10
78.36610376730084
 20
-196.7514702199094
 30
0.0
  0
VERTEX
  5
37A
330
378
100
AcDbEntity
  8
Ebene 1
 62
   179
420
  1709851
370
    18
100
AcDbVertex
100
AcDb2dVertex
 10
78.40830618699515
 20
-196.9629990827037
 30
0.0
  0
VERTEX
  5
37B
330
378
100
AcDbEntity
  8
Ebene 1
 62
   179
420
  1709851
370
    18
100
AcDbVertex
100
AcDb2dVertex
 10
78.53543021040088
 20
-197.132497780578
 30
0.0
  0
VERTEX
  5
37C
330
378
100
AcDbEntity
  8
Ebene 1
 62
   179
420
  1709851
370
    18
100
AcDbVertex
100
AcDb2dVertex
 10
78.7047566535009
 20
-197.2379177024266
 30
0.0
  0
VERTEX
  5
37D
330
378
100
AcDbEntity
  8
Ebene 1
 62
   179
420
  1709851
370
    18
100
AcDbVertex
100
AcDb2dVertex
 10
78.89527043383521
 20
-197.2592772944352
 30
0.0
  0
VERTEX
  5
37E
330
378
100
AcDbEntity
  8
Ebene 1
 62
   179
420
  1709851
370
    18
100
AcDbVertex
100
AcDb2dVertex
 10
79.10697155140382
 20
-197.1958875375066
 30
0.0
  0
VERTEX
  5
37F
330
378
100
AcDbEntity
  8
Ebene 1
 62
   179
420
  1709851
370
    18
100
AcDbVertex
100
AcDb2dVertex
 10
79.25511065726955
 20
-197.0684190045523
 30
0.0
  0
VERTEX
  5
380
330
378
100
AcDbEntity
  8
Ebene 1
 62
   179
420
  1709851
370
    18
100
AcDbVertex
100
AcDb2dVertex
 10
79.33968775143244
 20
-196.8782497337666
 30
0.0
  0
VERTEX
  5
381
330
378
100
AcDbEntity
  8
Ebene 1
 62
   179
420
  1709851
370
    18
100
AcDbVertex
100
AcDb2dVertex
 10
79.36087508866673
 20
-196.7514702199094
 30
0.0
  0
VERTEX
  5
382
330
378
100
AcDbEntity
  8
Ebene 1
 62
   179
420
  1709851
370
    18
100
AcDbVertex
100
AcDb2dVertex
 10
79.36087508866673
 20
-192.7503363233402
 30
0.0
  0
SEQEND
  5
383
330
378
100
AcDbEntity
  8
Ebene 1
370
    18
  0
POLYLINE
  5
384
330
198
100
AcDbEntity
  8
Ebene 1
 62
   179
420
  1709851
370
    18
100
AcDb2dPolyline
 66
     1
 10
0.0
 20
0.0
 30
0.0
  0
VERTEX
  5
385
330
384
100
AcDbEntity
  8
Ebene 1
 62
   179
420
  1709851
370
    18
100
AcDbVertex
100
AcDb2dVertex
 10
79.36087508866673
 20
-192.7503363233402
 30
0.0
  0
VERTEX
  5
386
330
384
100
AcDbEntity
  8
Ebene 1
 62
   179
420
  1709851
370
    18
100
AcDbVertex
100
AcDb2dVertex
 10
79.31850041419816
 20
-192.5601670525544
 30
0.0
  0
VERTEX
  5
387
330
384
100
AcDbEntity
  8
Ebene 1
 62
   179
420
  1709851
370
    18
100
AcDbVertex
100
AcDb2dVertex
 10
79.212735982801
 20
-192.3913573737772
 30
0.0
  0
VERTEX
  5
388
330
384
100
AcDbEntity
  8
Ebene 1
 62
   179
420
  1709851
370
    18
100
AcDbVertex
100
AcDb2dVertex
 10
79.02222220246666
 20
-192.2852484328315
 30
0.0
  0
VERTEX
  5
389
330
384
100
AcDbEntity
  8
Ebene 1
 62
   179
420
  1709851
370
    18
100
AcDbVertex
100
AcDb2dVertex
 10
78.83170842213235
 20
-192.2638888408229
 30
0.0
  0
VERTEX
  5
38A
330
384
100
AcDbEntity
  8
Ebene 1
 62
   179
420
  1709851
370
    18
100
AcDbVertex
100
AcDb2dVertex
 10
78.62000730456376
 20
-192.3272785977515
 30
0.0
  0
VERTEX
  5
38B
330
384
100
AcDbEntity
  8
Ebene 1
 62
   179
420
  1709851
370
    18
100
AcDbVertex
100
AcDb2dVertex
 10
78.471868198698
 20
-192.4540581116087
 30
0.0
  0
VERTEX
  5
38C
330
384
100
AcDbEntity
  8
Ebene 1
 62
   179
420
  1709851
370
    18
100
AcDbVertex
100
AcDb2dVertex
 10
78.38729110453512
 20
-192.6242458285801
 30
0.0
  0
VERTEX
  5
38D
330
384
100
AcDbEntity
  8
Ebene 1
 62
   179
420
  1709851
370
    18
100
AcDbVertex
100
AcDb2dVertex
 10
78.36610376730084
 20
-192.7503363233402
 30
0.0
  0
SEQEND
  5
38E
330
384
100
AcDbEntity
  8
Ebene 1
370
    18
  0
POLYLINE
  5
38F
330
198
100
AcDbEntity
  8
Ebene 1
 62
   179
420
  1709851
370
    18
100
AcDb2dPolyline
 66
     1
 10
0.0
 20
0.0
 30
0.0
  0
VERTEX
  5
390
330
38F
100
AcDbEntity
  8
Ebene 1
 62
   179
420
  1709851
370
    18
100
AcDbVertex
100
AcDb2dVertex
 10
78.36610376730084
 20
-188.3688638851995
 30
0.0
  0
VERTEX
  5
391
330
38F
100
AcDbEntity
  8
Ebene 1
 62
   179
420
  1709851
370
    18
100
AcDbVertex
100
AcDb2dVertex
 10
78.40830618699515
 20
-188.5597221750823
 30
0.0
  0
VERTEX
  5
392
330
38F
100
AcDbEntity
  8
Ebene 1
 62
   179
420
  1709851
370
    18
100
AcDbVertex
100
AcDb2dVertex
 10
78.53543021040088
 20
-188.7292208729566
 30
0.0
  0
VERTEX
  5
393
330
38F
100
AcDbEntity
  8
Ebene 1
 62
   179
420
  1709851
370
    18
100
AcDbVertex
100
AcDb2dVertex
 10
78.7047566535009
 20
-188.8346407948052
 30
0.0
  0
VERTEX
  5
394
330
38F
100
AcDbEntity
  8
Ebene 1
 62
   179
420
  1709851
370
    18
100
AcDbVertex
100
AcDb2dVertex
 10
78.89527043383521
 20
-188.8560003868138
 30
0.0
  0
VERTEX
  5
395
330
38F
100
AcDbEntity
  8
Ebene 1
 62
   179
420
  1709851
370
    18
100
AcDbVertex
100
AcDb2dVertex
 10
79.10697155140382
 20
-188.7926106298852
 30
0.0
  0
VERTEX
  5
396
330
38F
100
AcDbEntity
  8
Ebene 1
 62
   179
420
  1709851
370
    18
100
AcDbVertex
100
AcDb2dVertex
 10
79.25511065726955
 20
-188.665831116028
 30
0.0
  0
VERTEX
  5
397
330
38F
100
AcDbEntity
  8
Ebene 1
 62
   179
420
  1709851
370
    18
100
AcDbVertex
100
AcDb2dVertex
 10
79.33968775143244
 20
-188.4963324181537
 30
0.0
  0
VERTEX
  5
398
330
38F
100
AcDbEntity
  8
Ebene 1
 62
   179
420
  1709851
370
    18
100
AcDbVertex
100
AcDb2dVertex
 10
79.36087508866673
 20
-188.3688638851995
 30
0.0
  0
SEQEND
  5
399
330
38F
100
AcDbEntity
  8
Ebene 1
370
    18
  0
POLYLINE
  5
39A
330
198
100
AcDbEntity
  8
Ebene 1
 62
   179
420
  1709851
370
    18
100
AcDb2dPolyline
 66
     1
 10
0.0
 20
0.0
 30
0.0
  0
VERTEX
  5
39B
330
39A
100
AcDbEntity
  8
Ebene 1
 62
   179
420
  1709851
370
    18
100
AcDbVertex
100
AcDb2dVertex
 10
79.36087508866673
 20
-184.3684190077273
 30
0.0
  0
VERTEX
  5
39C
330
39A
100
AcDbEntity
  8
Ebene 1
 62
   179
420
  1709851
370
    18
100
AcDbVertex
100
AcDb2dVertex
 10
79.31850041419816
 20
-184.1575791640301
 30
0.0
  0
VERTEX
  5
39D
330
39A
100
AcDbEntity
  8
Ebene 1
 62
   179
420
  1709851
370
    18
100
AcDbVertex
100
AcDb2dVertex
 10
79.212735982801
 20
-183.9873914470587
 30
0.0
  0
VERTEX
  5
39E
330
39A
100
AcDbEntity
  8
Ebene 1
 62
   179
420
  1709851
370
    18
100
AcDbVertex
100
AcDb2dVertex
 10
79.02222220246666
 20
-183.8819715252101
 30
0.0
  0
VERTEX
  5
39F
330
39A
100
AcDbEntity
  8
Ebene 1
 62
   179
420
  1709851
370
    18
100
AcDbVertex
100
AcDb2dVertex
 10
78.83170842213235
 20
-183.8606119332015
 30
0.0
  0
VERTEX
  5
3A0
330
39A
100
AcDbEntity
  8
Ebene 1
 62
   179
420
  1709851
370
    18
100
AcDbVertex
100
AcDb2dVertex
 10
78.62000730456376
 20
-183.9246907092272
 30
0.0
  0
VERTEX
  5
3A1
330
39A
100
AcDbEntity
  8
Ebene 1
 62
   179
420
  1709851
370
    18
100
AcDbVertex
100
AcDb2dVertex
 10
78.471868198698
 20
-184.0514702230844
 30
0.0
  0
VERTEX
  5
3A2
330
39A
100
AcDbEntity
  8
Ebene 1
 62
   179
420
  1709851
370
    18
100
AcDbVertex
100
AcDb2dVertex
 10
78.38729110453512
 20
-184.2416394938702
 30
0.0
  0
VERTEX
  5
3A3
330
39A
100
AcDbEntity
  8
Ebene 1
 62
   179
420
  1709851
370
    18
100
AcDbVertex
100
AcDb2dVertex
 10
78.36610376730084
 20
-184.3684190077273
 30
0.0
  0
SEQEND
  5
3A4
330
39A
100
AcDbEntity
  8
Ebene 1
370
    18
  0
POLYLINE
  5
3A5
330
198
100
AcDbEntity
  8
Ebene 1
 62
   179
420
  1709851
370
    18
100
AcDb2dPolyline
 66
     1
 10
0.0
 20
0.0
 30
0.0
  0
VERTEX
  5
3A6
330
3A5
100
AcDbEntity
  8
Ebene 1
 62
   179
420
  1709851
370
    18
100
AcDbVertex
100
AcDb2dVertex
 10
78.36610376730084
 20
-179.9662759966751
 30
0.0
  0
VERTEX
  5
3A7
330
3A5
100
AcDbEntity
  8
Ebene 1
 62
   179
420
  1709851
370
    18
100
AcDbVertex
100
AcDb2dVertex
 10
78.40830618699515
 20
-180.1564452674609
 30
0.0
  0
VERTEX
  5
3A8
330
3A5
100
AcDbEntity
  8
Ebene 1
 62
   179
420
  1709851
370
    18
100
AcDbVertex
100
AcDb2dVertex
 10
78.53543021040088
 20
-180.3259439653352
 30
0.0
  0
VERTEX
  5
3A9
330
3A5
100
AcDbEntity
  8
Ebene 1
 62
   179
420
  1709851
370
    18
100
AcDbVertex
100
AcDb2dVertex
 10
78.7047566535009
 20
-180.4313638871838
 30
0.0
  0
VERTEX
  5
3AA
330
3A5
100
AcDbEntity
  8
Ebene 1
 62
   179
420
  1709851
370
    18
100
AcDbVertex
100
AcDb2dVertex
 10
78.89527043383521
 20
-180.4534124982894
 30
0.0
  0
VERTEX
  5
3AB
330
3A5
100
AcDbEntity
  8
Ebene 1
 62
   179
420
  1709851
370
    18
100
AcDbVertex
100
AcDb2dVertex
 10
79.10697155140382
 20
-180.4106933142723
 30
0.0
  0
VERTEX
  5
3AC
330
3A5
100
AcDbEntity
  8
Ebene 1
 62
   179
420
  1709851
370
    18
100
AcDbVertex
100
AcDb2dVertex
 10
79.25511065726955
 20
-180.2625542084066
 30
0.0
  0
VERTEX
  5
3AD
330
3A5
100
AcDbEntity
  8
Ebene 1
 62
   179
420
  1709851
370
    18
100
AcDbVertex
100
AcDb2dVertex
 10
79.33968775143244
 20
-180.0930555105323
 30
0.0
  0
VERTEX
  5
3AE
330
3A5
100
AcDbEntity
  8
Ebene 1
 62
   179
420
  1709851
370
    18
100
AcDbVertex
100
AcDb2dVertex
 10
79.36087508866673
 20
-179.9662759966751
 30
0.0
  0
SEQEND
  5
3AF
330
3A5
100
AcDbEntity
  8
Ebene 1
370
    18
  0
POLYLINE
  5
3B0
330
198
100
AcDbEntity
  8
Ebene 1
 62
   179
420
  1709851
370
    18
100
AcDb2dPolyline
 66
     1
 10
0.0
 20
0.0
 30
0.0
  0
VERTEX
  5
3B1
330
3B0
100
AcDbEntity
  8
Ebene 1
 62
   179
420
  1709851
370
    18
100
AcDbVertex
100
AcDb2dVertex
 10
79.36087508866673
 20
-175.965831119203
 30
0.0
  0
VERTEX
  5
3B2
330
3B0
100
AcDbEntity
  8
Ebene 1
 62
   179
420
  1709851
370
    18
100
AcDbVertex
100
AcDb2dVertex
 10
79.31850041419816
 20
-175.7536132373116
 30
0.0
  0
VERTEX
  5
3B3
330
3B0
100
AcDbEntity
  8
Ebene 1
 62
   179
420
  1709851
370
    18
100
AcDbVertex
100
AcDb2dVertex
 10
79.212735982801
 20
-175.5848035585344
 30
0.0
  0
VERTEX
  5
3B4
330
3B0
100
AcDbEntity
  8
Ebene 1
 62
   179
420
  1709851
370
    18
100
AcDbVertex
100
AcDb2dVertex
 10
79.02222220246666
 20
-175.5000542095972
 30
0.0
  0
VERTEX
  5
3B5
330
3B0
100
AcDbEntity
  8
Ebene 1
 62
   179
420
  1709851
370
    18
100
AcDbVertex
100
AcDb2dVertex
 10
78.83170842213235
 20
-175.4580240446772
 30
0.0
  0
VERTEX
  5
3B6
330
3B0
100
AcDbEntity
  8
Ebene 1
 62
   179
420
  1709851
370
    18
100
AcDbVertex
100
AcDb2dVertex
 10
78.62000730456376
 20
-175.5207247825087
 30
0.0
  0
VERTEX
  5
3B7
330
3B0
100
AcDbEntity
  8
Ebene 1
 62
   179
420
  1709851
370
    18
100
AcDbVertex
100
AcDb2dVertex
 10
78.471868198698
 20
-175.6481933154629
 30
0.0
  0
VERTEX
  5
3B8
330
3B0
100
AcDbEntity
  8
Ebene 1
 62
   179
420
  1709851
370
    18
100
AcDbVertex
100
AcDb2dVertex
 10
78.38729110453512
 20
-175.8390516053458
 30
0.0
  0
VERTEX
  5
3B9
330
3B0
100
AcDbEntity
  8
Ebene 1
 62
   179
420
  1709851
370
    18
100
AcDbVertex
100
AcDb2dVertex
 10
78.36610376730084
 20
-175.965831119203
 30
0.0
  0
SEQEND
  5
3BA
330
3B0
100
AcDbEntity
  8
Ebene 1
370
    18
  0
SPLINE
  5
3BB
330
198
100
AcDbEntity
  8
Ebene 1
 62
   179
420
  1709851
370
    18
100
AcDbSpline
210
0.0
220
0.0
230
1.0
 70
     8
 71
     3
 72
    23
 73
    19
 74
     0
 42
0.0000000001
 43
0.0000000001
 40
0.0
 40
0.0
 40
0.0
 40
0.0
 40
1.0
 40
1.0
 40
1.0
 40
2.0
 40
2.0
 40
2.0
 40
3.0
 40
3.0
 40
3.0
 40
4.0
 40
4.0
 40
4.0
 40
5.0
 40
5.0
 40
5.0
 40
6.0
 40
6.0
 40
6.0
 40
6.0
 10
79.86885441796682
 20
-199.7569715212413
 30
0.0
 10
79.86885441796682
 20
-199.7569715212413
 30
0.0
 10
79.84766708073253
 20
-199.6935817643127
 30
0.0
 10
79.84766708073253
 20
-199.6935817643127
 30
0.0
 10
79.82647974349824
 20
-199.1644150977783
 30
0.0
 10
79.38206242590101
 20
-198.7620279451012
 30
0.0
 10
78.87408309660093
 20
-198.7620279451012
 30
0.0
 10
78.32372909283227
 20
-198.7620279451012
 30
0.0
 10
77.87913952046077
 20
-199.2064452626984
 30
0.0
 10
77.87913952046077
 20
-199.7569715212413
 30
0.0
 10
77.87913952046077
 20
-200.2861381877757
 30
0.0
 10
78.32372909283227
 20
-200.7519150973815
 30
0.0
 10
78.87408309660093
 20
-200.7519150973815
 30
0.0
 10
79.42443710036959
 20
-200.7519150973815
 30
0.0
 10
79.86885441796682
 20
-200.2861381877757
 30
0.0
 10
79.86885441796682
 20
-199.7569715212413
 30
0.0
 10
79.86885441796682
 20
-199.7356119292328
 30
0.0
 10
79.86885441796682
 20
-199.7142523372242
 30
0.0
 10
79.84766708073253
 20
-199.6935817643127
 30
0.0
  0
SPLINE
  5
3BC
330
198
100
AcDbEntity
  8
Ebene 1
 62
   179
420
  1709851
370
    18
100
AcDbSpline
210
0.0
220
0.0
230
1.0
 70
     8
 71
     3
 72
    23
 73
    19
 74
     0
 42
0.0000000001
 43
0.0000000001
 40
0.0
 40
0.0
 40
0.0
 40
0.0
 40
1.0
 40
1.0
 40
1.0
 40
2.0
 40
2.0
 40
2.0
 40
3.0
 40
3.0
 40
3.0
 40
4.0
 40
4.0
 40
4.0
 40
5.0
 40
5.0
 40
5.0
 40
6.0
 40
6.0
 40
6.0
 40
6.0
 10
79.17036130833242
 20
-199.7569715212413
 30
0.0
 10
79.17036130833242
 20
-199.7569715212413
 30
0.0
 10
79.17036130833242
 20
-199.7356119292328
 30
0.0
 10
79.17036130833242
 20
-199.7356119292328
 30
0.0
 10
79.14917397109812
 20
-199.5661132313585
 30
0.0
 10
79.02222220246666
 20
-199.4606933095098
 30
0.0
 10
78.87408309660093
 20
-199.4606933095098
 30
0.0
 10
78.7047566535009
 20
-199.4606933095098
 30
0.0
 10
78.57780488486944
 20
-199.587472823367
 30
0.0
 10
78.57780488486944
 20
-199.7569715212413
 30
0.0
 10
78.57780488486944
 20
-199.9051106271071
 30
0.0
 10
78.7047566535009
 20
-200.0532497329728
 30
0.0
 10
78.87408309660093
 20
-200.0532497329728
 30
0.0
 10
79.02222220246666
 20
-200.0532497329728
 30
0.0
 10
79.17036130833242
 20
-199.9051106271071
 30
0.0
 10
79.17036130833242
 20
-199.7569715212413
 30
0.0
 10
79.17036130833242
 20
-199.7569715212413
 30
0.0
 10
79.17036130833242
 20
-199.7356119292328
 30
0.0
 10
79.17036130833242
 20
-199.7356119292328
 30
0.0
  0
SPLINE
  5
3BD
330
198
100
AcDbEntity
  8
Ebene 1
 62
   179
420
  1709851
370
    18
100
AcDbSpline
210
0.0
220
0.0
230
1.0
 70
     8
 71
     3
 72
    23
 73
    19
 74
     0
 42
0.0000000001
 43
0.0000000001
 40
0.0
 40
0.0
 40
0.0
 40
0.0
 40
1.0
 40
1.0
 40
1.0
 40
2.0
 40
2.0
 40
2.0
 40
3.0
 40
3.0
 40
3.0
 40
4.0
 40
4.0
 40
4.0
 40
5.0
 40
5.0
 40
5.0
 40
6.0
 40
6.0
 40
6.0
 40
6.0
 10
79.86885441796682
 20
-172.959640798774
 30
0.0
 10
79.86885441796682
 20
-172.959640798774
 30
0.0
 10
79.84766708073253
 20
-172.8962510418454
 30
0.0
 10
79.84766708073253
 20
-172.8962510418454
 30
0.0
 10
79.82647974349824
 20
-172.367084375311
 30
0.0
 10
79.38206242590101
 20
-171.9646972226338
 30
0.0
 10
78.87408309660093
 20
-171.9646972226338
 30
0.0
 10
78.32372909283227
 20
-171.9646972226338
 30
0.0
 10
77.87913952046077
 20
-172.4098035593281
 30
0.0
 10
77.87913952046077
 20
-172.959640798774
 30
0.0
 10
77.87913952046077
 20
-173.4888074653084
 30
0.0
 10
78.32372909283227
 20
-173.9545843749141
 30
0.0
 10
78.87408309660093
 20
-173.9545843749141
 30
0.0
 10
79.42443710036959
 20
-173.9545843749141
 30
0.0
 10
79.86885441796682
 20
-173.4888074653084
 30
0.0
 10
79.86885441796682
 20
-172.959640798774
 30
0.0
 10
79.86885441796682
 20
-172.9389702258625
 30
0.0
 10
79.86885441796682
 20
-172.9176106338539
 30
0.0
 10
79.84766708073253
 20
-172.8962510418454
 30
0.0
  0
SPLINE
  5
3BE
330
198
100
AcDbEntity
  8
Ebene 1
 62
   179
420
  1709851
370
    18
100
AcDbSpline
210
0.0
220
0.0
230
1.0
 70
     8
 71
     3
 72
    23
 73
    19
 74
     0
 42
0.0000000001
 43
0.0000000001
 40
0.0
 40
0.0
 40
0.0
 40
0.0
 40
1.0
 40
1.0
 40
1.0
 40
2.0
 40
2.0
 40
2.0
 40
3.0
 40
3.0
 40
3.0
 40
4.0
 40
4.0
 40
4.0
 40
5.0
 40
5.0
 40
5.0
 40
6.0
 40
6.0
 40
6.0
 40
6.0
 10
79.17036130833242
 20
-172.959640798774
 30
0.0
 10
79.17036130833242
 20
-172.959640798774
 30
0.0
 10
79.17036130833242
 20
-172.9389702258625
 30
0.0
 10
79.17036130833242
 20
-172.9389702258625
 30
0.0
 10
79.14917397109812
 20
-172.7694715279882
 30
0.0
 10
79.02222220246666
 20
-172.6640516061395
 30
0.0
 10
78.87408309660093
 20
-172.6640516061395
 30
0.0
 10
78.7047566535009
 20
-172.6640516061395
 30
0.0
 10
78.57780488486944
 20
-172.7908311199967
 30
0.0
 10
78.57780488486944
 20
-172.959640798774
 30
0.0
 10
78.57780488486944
 20
-173.1077799046397
 30
0.0
 10
78.7047566535009
 20
-173.2559190105055
 30
0.0
 10
78.87408309660093
 20
-173.2559190105055
 30
0.0
 10
79.02222220246666
 20
-173.2559190105055
 30
0.0
 10
79.17036130833242
 20
-173.1077799046397
 30
0.0
 10
79.17036130833242
 20
-172.959640798774
 30
0.0
 10
79.17036130833242
 20
-172.959640798774
 30
0.0
 10
79.17036130833242
 20
-172.9389702258625
 30
0.0
 10
79.17036130833242
 20
-172.9389702258625
 30
0.0
  0
POLYLINE
  5
3BF
330
198
100
AcDbEntity
  8
Ebene 1
 62
   179
420
  1709851
370
    18
100
AcDb2dPolyline
 66
     1
 10
0.0
 20
0.0
 30
0.0
  0
VERTEX
  5
3C0
330
3BF
100
AcDbEntity
  8
Ebene 1
 62
   179
420
  1709851
370
    18
100
AcDbVertex
100
AcDb2dVertex
 10
81.75280488407569
 20
-171.4782497401166
 30
0.0
  0
VERTEX
  5
3C1
330
3BF
100
AcDbEntity
  8
Ebene 1
 62
   179
420
  1709851
370
    18
100
AcDbVertex
100
AcDb2dVertex
 10
81.75280488407569
 20
-170.3565266501192
 30
0.0
  0
SEQEND
  5
3C2
330
3BF
100
AcDbEntity
  8
Ebene 1
370
    18
  0
POLYLINE
  5
3C3
330
198
100
AcDbEntity
  8
Ebene 1
 62
   179
420
  1709851
370
    18
100
AcDb2dPolyline
 66
     1
 10
0.0
 20
0.0
 30
0.0
  0
VERTEX
  5
3C4
330
3C3
100
AcDbEntity
  8
Ebene 1
 62
   179
420
  1709851
370
    18
100
AcDbVertex
100
AcDb2dVertex
 10
81.75280488407569
 20
-174.4837510414485
 30
0.0
  0
VERTEX
  5
3C5
330
3C3
100
AcDbEntity
  8
Ebene 1
 62
   179
420
  1709851
370
    18
100
AcDbVertex
100
AcDb2dVertex
 10
81.75280488407569
 20
-172.4731933162567
 30
0.0
  0
SEQEND
  5
3C6
330
3C3
100
AcDbEntity
  8
Ebene 1
370
    18
  0
POLYLINE
  5
3C7
330
198
100
AcDbEntity
  8
Ebene 1
 62
   179
420
  1709851
370
    18
100
AcDb2dPolyline
 66
     1
 10
0.0
 20
0.0
 30
0.0
  0
VERTEX
  5
3C8
330
3C7
100
AcDbEntity
  8
Ebene 1
 62
   179
420
  1709851
370
    18
100
AcDbVertex
100
AcDb2dVertex
 10
81.75280488407569
 20
-177.468581769869
 30
0.0
  0
VERTEX
  5
3C9
330
3C7
100
AcDbEntity
  8
Ebene 1
 62
   179
420
  1709851
370
    18
100
AcDbVertex
100
AcDb2dVertex
 10
81.75280488407569
 20
-175.4786946175887
 30
0.0
  0
SEQEND
  5
3CA
330
3C7
100
AcDbEntity
  8
Ebene 1
370
    18
  0
POLYLINE
  5
3CB
330
198
100
AcDbEntity
  8
Ebene 1
 62
   179
420
  1709851
370
    18
100
AcDb2dPolyline
 66
     1
 10
0.0
 20
0.0
 30
0.0
  0
VERTEX
  5
3CC
330
3CB
100
AcDbEntity
  8
Ebene 1
 62
   179
420
  1709851
370
    18
100
AcDbVertex
100
AcDb2dVertex
 10
81.75280488407569
 20
-180.4740830712009
 30
0.0
  0
VERTEX
  5
3CD
330
3CB
100
AcDbEntity
  8
Ebene 1
 62
   179
420
  1709851
370
    18
100
AcDbVertex
100
AcDb2dVertex
 10
81.75280488407569
 20
-178.4848849380177
 30
0.0
  0
SEQEND
  5
3CE
330
3CB
100
AcDbEntity
  8
Ebene 1
370
    18
  0
POLYLINE
  5
3CF
330
198
100
AcDbEntity
  8
Ebene 1
 62
   179
420
  1709851
370
    18
100
AcDb2dPolyline
 66
     1
 10
0.0
 20
0.0
 30
0.0
  0
VERTEX
  5
3D0
330
3CF
100
AcDbEntity
  8
Ebene 1
 62
   179
420
  1709851
370
    18
100
AcDbVertex
100
AcDb2dVertex
 10
81.75280488407569
 20
-183.4795843725329
 30
0.0
  0
VERTEX
  5
3D1
330
3CF
100
AcDbEntity
  8
Ebene 1
 62
   179
420
  1709851
370
    18
100
AcDbVertex
100
AcDb2dVertex
 10
81.75280488407569
 20
-181.4690266473411
 30
0.0
  0
SEQEND
  5
3D2
330
3CF
100
AcDbEntity
  8
Ebene 1
370
    18
  0
POLYLINE
  5
3D3
330
198
100
AcDbEntity
  8
Ebene 1
 62
   179
420
  1709851
370
    18
100
AcDb2dPolyline
 66
     1
 10
0.0
 20
0.0
 30
0.0
  0
VERTEX
  5
3D4
330
3D3
100
AcDbEntity
  8
Ebene 1
 62
   179
420
  1709851
370
    18
100
AcDbVertex
100
AcDb2dVertex
 10
81.75280488407569
 20
-186.4850856738649
 30
0.0
  0
VERTEX
  5
3D5
330
3D3
100
AcDbEntity
  8
Ebene 1
 62
   179
420
  1709851
370
    18
100
AcDbVertex
100
AcDb2dVertex
 10
81.75280488407569
 20
-184.4745279486731
 30
0.0
  0
SEQEND
  5
3D6
330
3D3
100
AcDbEntity
  8
Ebene 1
370
    18
  0
POLYLINE
  5
3D7
330
198
100
AcDbEntity
  8
Ebene 1
 62
   179
420
  1709851
370
    18
100
AcDb2dPolyline
 66
     1
 10
0.0
 20
0.0
 30
0.0
  0
VERTEX
  5
3D8
330
3D7
100
AcDbEntity
  8
Ebene 1
 62
   179
420
  1709851
370
    18
100
AcDbVertex
100
AcDb2dVertex
 10
81.75280488407569
 20
-189.4699164022853
 30
0.0
  0
VERTEX
  5
3D9
330
3D7
100
AcDbEntity
  8
Ebene 1
 62
   179
420
  1709851
370
    18
100
AcDbVertex
100
AcDb2dVertex
 10
81.75280488407569
 20
-187.4807182691021
 30
0.0
  0
SEQEND
  5
3DA
330
3D7
100
AcDbEntity
  8
Ebene 1
370
    18
  0
POLYLINE
  5
3DB
330
198
100
AcDbEntity
  8
Ebene 1
 62
   179
420
  1709851
370
    18
100
AcDb2dPolyline
 66
     1
 10
0.0
 20
0.0
 30
0.0
  0
VERTEX
  5
3DC
330
3DB
100
AcDbEntity
  8
Ebene 1
 62
   179
420
  1709851
370
    18
100
AcDbVertex
100
AcDb2dVertex
 10
81.75280488407569
 20
-192.4754177036173
 30
0.0
  0
VERTEX
  5
3DD
330
3DB
100
AcDbEntity
  8
Ebene 1
 62
   179
420
  1709851
370
    18
100
AcDbVertex
100
AcDb2dVertex
 10
81.75280488407569
 20
-190.485530551337
 30
0.0
  0
SEQEND
  5
3DE
330
3DB
100
AcDbEntity
  8
Ebene 1
370
    18
  0
POLYLINE
  5
3DF
330
198
100
AcDbEntity
  8
Ebene 1
 62
   179
420
  1709851
370
    18
100
AcDb2dPolyline
 66
     1
 10
0.0
 20
0.0
 30
0.0
  0
VERTEX
  5
3E0
330
3DF
100
AcDbEntity
  8
Ebene 1
 62
   179
420
  1709851
370
    18
100
AcDbVertex
100
AcDb2dVertex
 10
81.75280488407569
 20
-195.4809190049492
 30
0.0
  0
VERTEX
  5
3E1
330
3DF
100
AcDbEntity
  8
Ebene 1
 62
   179
420
  1709851
370
    18
100
AcDbVertex
100
AcDb2dVertex
 10
81.75280488407569
 20
-193.4703612797574
 30
0.0
  0
SEQEND
  5
3E2
330
3DF
100
AcDbEntity
  8
Ebene 1
370
    18
  0
POLYLINE
  5
3E3
330
198
100
AcDbEntity
  8
Ebene 1
 62
   179
420
  1709851
370
    18
100
AcDb2dPolyline
 66
     1
 10
0.0
 20
0.0
 30
0.0
  0
VERTEX
  5
3E4
330
3E3
100
AcDbEntity
  8
Ebene 1
 62
   179
420
  1709851
370
    18
100
AcDbVertex
100
AcDb2dVertex
 10
81.75280488407569
 20
-198.4657497333697
 30
0.0
  0
VERTEX
  5
3E5
330
3E3
100
AcDbEntity
  8
Ebene 1
 62
   179
420
  1709851
370
    18
100
AcDbVertex
100
AcDb2dVertex
 10
81.75280488407569
 20
-196.4765516001864
 30
0.0
  0
SEQEND
  5
3E6
330
3E3
100
AcDbEntity
  8
Ebene 1
370
    18
  0
POLYLINE
  5
3E7
330
198
100
AcDbEntity
  8
Ebene 1
 62
   179
420
  1709851
370
    18
100
AcDb2dPolyline
 66
     1
 10
0.0
 20
0.0
 30
0.0
  0
VERTEX
  5
3E8
330
3E7
100
AcDbEntity
  8
Ebene 1
 62
   179
420
  1709851
370
    18
100
AcDbVertex
100
AcDb2dVertex
 10
81.75280488407569
 20
-201.4712510347017
 30
0.0
  0
VERTEX
  5
3E9
330
3E7
100
AcDbEntity
  8
Ebene 1
 62
   179
420
  1709851
370
    18
100
AcDbVertex
100
AcDb2dVertex
 10
81.75280488407569
 20
-199.4813638824213
 30
0.0
  0
SEQEND
  5
3EA
330
3E7
100
AcDbEntity
  8
Ebene 1
370
    18
  0
POLYLINE
  5
3EB
330
198
100
AcDbEntity
  8
Ebene 1
 62
   179
420
  1709851
370
    18
100
AcDb2dPolyline
 66
     1
 10
0.0
 20
0.0
 30
0.0
  0
VERTEX
  5
3EC
330
3EB
100
AcDbEntity
  8
Ebene 1
 62
   179
420
  1709851
370
    18
100
AcDbVertex
100
AcDb2dVertex
 10
95.25706242193226
 20
-77.7733750890636
 30
0.0
  0
VERTEX
  5
3ED
330
3EB
100
AcDbEntity
  8
Ebene 1
 62
   179
420
  1709851
370
    18
100
AcDbVertex
100
AcDb2dVertex
 10
79.25511065726955
 20
-72.77798663545134
 30
0.0
  0
SEQEND
  5
3EE
330
3EB
100
AcDbEntity
  8
Ebene 1
370
    18
  0
POLYLINE
  5
3EF
330
198
100
AcDbEntity
  8
Ebene 1
 62
   179
420
  1709851
370
    18
100
AcDb2dPolyline
 66
     1
 10
0.0
 20
0.0
 30
0.0
  0
VERTEX
  5
3F0
330
3EF
100
AcDbEntity
  8
Ebene 1
 62
   179
420
  1709851
370
    18
100
AcDbVertex
100
AcDb2dVertex
 10
70.9365830985853
 20
-149.4013888515385
 30
0.0
  0
VERTEX
  5
3F1
330
3EF
100
AcDbEntity
  8
Ebene 1
 62
   179
420
  1709851
370
    18
100
AcDbVertex
100
AcDb2dVertex
 10
73.34952797645428
 20
-149.4013888515385
 30
0.0
  0
SEQEND
  5
3F2
330
3EF
100
AcDbEntity
  8
Ebene 1
370
    18
  0
POLYLINE
  5
3F3
330
198
100
AcDbEntity
  8
Ebene 1
 62
   179
420
  1709851
370
    18
100
AcDb2dPolyline
 66
     1
 10
0.0
 20
0.0
 30
0.0
  0
VERTEX
  5
3F4
330
3F3
100
AcDbEntity
  8
Ebene 1
 62
   179
420
  1709851
370
    18
100
AcDbVertex
100
AcDb2dVertex
 10
73.34952797645428
 20
-143.3898694845518
 30
0.0
  0
VERTEX
  5
3F5
330
3F3
100
AcDbEntity
  8
Ebene 1
 62
   179
420
  1709851
370
    18
100
AcDbVertex
100
AcDb2dVertex
 10
70.9365830985853
 20
-143.3898694845518
 30
0.0
  0
SEQEND
  5
3F6
330
3F3
100
AcDbEntity
  8
Ebene 1
370
    18
  0
POLYLINE
  5
3F7
330
198
100
AcDbEntity
  8
Ebene 1
 62
   179
420
  1709851
370
    18
100
AcDb2dPolyline
 66
     1
 10
0.0
 20
0.0
 30
0.0
  0
VERTEX
  5
3F8
330
3F7
100
AcDbEntity
  8
Ebene 1
 62
   179
420
  1709851
370
    18
100
AcDbVertex
100
AcDb2dVertex
 10
71.74084063961688
 20
-154.9679741366052
 30
0.0
  0
VERTEX
  5
3F9
330
3F7
100
AcDbEntity
  8
Ebene 1
 62
   179
420
  1709851
370
    18
100
AcDbVertex
100
AcDb2dVertex
 10
70.87302108688245
 20
-154.9679741366052
 30
0.0
  0
SEQEND
  5
3FA
330
3F7
100
AcDbEntity
  8
Ebene 1
370
    18
  0
POLYLINE
  5
3FB
330
198
100
AcDbEntity
  8
Ebene 1
 62
   179
420
  1709851
370
    18
100
AcDb2dPolyline
 66
     1
 10
0.0
 20
0.0
 30
0.0
  0
VERTEX
  5
3FC
330
3FB
100
AcDbEntity
  8
Ebene 1
 62
   179
420
  1709851
370
    18
100
AcDbVertex
100
AcDb2dVertex
 10
71.74084063961688
 20
-160.9583061663577
 30
0.0
  0
VERTEX
  5
3FD
330
3FB
100
AcDbEntity
  8
Ebene 1
 62
   179
420
  1709851
370
    18
100
AcDbVertex
100
AcDb2dVertex
 10
70.87302108688245
 20
-160.9583061663577
 30
0.0
  0
SEQEND
  5
3FE
330
3FB
100
AcDbEntity
  8
Ebene 1
370
    18
  0
POLYLINE
  5
3FF
330
198
100
AcDbEntity
  8
Ebene 1
 62
   179
420
  1709851
370
    18
100
AcDb2dPolyline
 66
     1
 10
0.0
 20
0.0
 30
0.0
  0
VERTEX
  5
400
330
3FF
100
AcDbEntity
  8
Ebene 1
 62
   179
420
  1709851
370
    18
100
AcDbVertex
100
AcDb2dVertex
 10
157.9104301905571
 20
-235.0202798891616
 30
0.0
  0
VERTEX
  5
401
330
3FF
100
AcDbEntity
  8
Ebene 1
 62
   179
420
  1709851
370
    18
100
AcDbVertex
100
AcDb2dVertex
 10
159.2653862449059
 20
-235.0202798891616
 30
0.0
  0
SEQEND
  5
402
330
3FF
100
AcDbEntity
  8
Ebene 1
370
    18
  0
POLYLINE
  5
403
330
198
100
AcDbEntity
  8
Ebene 1
 62
   179
420
  1709851
370
    18
100
AcDb2dPolyline
 66
     1
 10
0.0
 20
0.0
 30
0.0
  0
VERTEX
  5
404
330
403
100
AcDbEntity
  8
Ebene 1
 62
   179
420
  1709851
370
    18
100
AcDbVertex
100
AcDb2dVertex
 10
155.8998724653653
 20
-235.0202798891616
 30
0.0
  0
VERTEX
  5
405
330
403
100
AcDbEntity
  8
Ebene 1
 62
   179
420
  1709851
370
    18
100
AcDbVertex
100
AcDb2dVertex
 10
156.9158311239655
 20
-235.0202798891616
 30
0.0
  0
SEQEND
  5
406
330
403
100
AcDbEntity
  8
Ebene 1
370
    18
  0
POLYLINE
  5
407
330
198
100
AcDbEntity
  8
Ebene 1
 62
   179
420
  1709851
370
    18
100
AcDb2dPolyline
 66
     1
 10
0.0
 20
0.0
 30
0.0
  0
VERTEX
  5
408
330
407
100
AcDbEntity
  8
Ebene 1
 62
   179
420
  1709851
370
    18
100
AcDbVertex
100
AcDb2dVertex
 10
147.8986382008726
 20
-235.0202798891616
 30
0.0
  0
VERTEX
  5
409
330
407
100
AcDbEntity
  8
Ebene 1
 62
   179
420
  1709851
370
    18
100
AcDbVertex
100
AcDb2dVertex
 10
154.9045843796766
 20
-235.0202798891616
 30
0.0
  0
SEQEND
  5
40A
330
407
100
AcDbEntity
  8
Ebene 1
370
    18
  0
POLYLINE
  5
40B
330
198
100
AcDbEntity
  8
Ebene 1
 62
   179
420
  1709851
370
    18
100
AcDb2dPolyline
 66
     1
 10
0.0
 20
0.0
 30
0.0
  0
VERTEX
  5
40C
330
40B
100
AcDbEntity
  8
Ebene 1
 62
   179
420
  1709851
370
    18
100
AcDbVertex
100
AcDb2dVertex
 10
145.9087510485923
 20
-235.0202798891616
 30
0.0
  0
VERTEX
  5
40D
330
40B
100
AcDbEntity
  8
Ebene 1
 62
   179
420
  1709851
370
    18
100
AcDbVertex
100
AcDb2dVertex
 10
146.9040391342809
 20
-235.0202798891616
 30
0.0
  0
SEQEND
  5
40E
330
40B
100
AcDbEntity
  8
Ebene 1
370
    18
  0
POLYLINE
  5
40F
330
198
100
AcDbEntity
  8
Ebene 1
 62
   179
420
  1709851
370
    18
100
AcDb2dPolyline
 66
     1
 10
0.0
 20
0.0
 30
0.0
  0
VERTEX
  5
410
330
40F
100
AcDbEntity
  8
Ebene 1
 62
   179
420
  1709851
370
    18
100
AcDbVertex
100
AcDb2dVertex
 10
137.9082058031966
 20
-235.0202798891616
 30
0.0
  0
VERTEX
  5
411
330
40F
100
AcDbEntity
  8
Ebene 1
 62
   179
420
  1709851
370
    18
100
AcDbVertex
100
AcDb2dVertex
 10
144.9138074724521
 20
-235.0202798891616
 30
0.0
  0
SEQEND
  5
412
330
40F
100
AcDbEntity
  8
Ebene 1
370
    18
  0
POLYLINE
  5
413
330
198
100
AcDbEntity
  8
Ebene 1
 62
   179
420
  1709851
370
    18
100
AcDb2dPolyline
 66
     1
 10
0.0
 20
0.0
 30
0.0
  0
VERTEX
  5
414
330
413
100
AcDbEntity
  8
Ebene 1
 62
   179
420
  1709851
370
    18
100
AcDbVertex
100
AcDb2dVertex
 10
135.9179741413677
 20
-235.0202798891616
 30
0.0
  0
VERTEX
  5
415
330
413
100
AcDbEntity
  8
Ebene 1
 62
   179
420
  1709851
370
    18
100
AcDbVertex
100
AcDb2dVertex
 10
136.9129177175079
 20
-235.0202798891616
 30
0.0
  0
SEQEND
  5
416
330
413
100
AcDbEntity
  8
Ebene 1
370
    18
  0
POLYLINE
  5
417
330
198
100
AcDbEntity
  8
Ebene 1
 62
   179
420
  1709851
370
    18
100
AcDb2dPolyline
 66
     1
 10
0.0
 20
0.0
 30
0.0
  0
VERTEX
  5
418
330
417
100
AcDbEntity
  8
Ebene 1
 62
   179
420
  1709851
370
    18
100
AcDbVertex
100
AcDb2dVertex
 10
127.9170843864235
 20
-235.0202798891616
 30
0.0
  0
VERTEX
  5
419
330
417
100
AcDbEntity
  8
Ebene 1
 62
   179
420
  1709851
370
    18
100
AcDbVertex
100
AcDb2dVertex
 10
134.9023599923161
 20
-235.0202798891616
 30
0.0
  0
SEQEND
  5
41A
330
417
100
AcDbEntity
  8
Ebene 1
370
    18
  0
POLYLINE
  5
41B
330
198
100
AcDbEntity
  8
Ebene 1
 62
   179
420
  1709851
370
    18
100
AcDb2dPolyline
 66
     1
 10
0.0
 20
0.0
 30
0.0
  0
VERTEX
  5
41C
330
41B
100
AcDbEntity
  8
Ebene 1
 62
   179
420
  1709851
370
    18
100
AcDbVertex
100
AcDb2dVertex
 10
125.9065266612317
 20
-235.0202798891616
 30
0.0
  0
VERTEX
  5
41D
330
41B
100
AcDbEntity
  8
Ebene 1
 62
   179
420
  1709851
370
    18
100
AcDbVertex
100
AcDb2dVertex
 10
126.9014702373719
 20
-235.0202798891616
 30
0.0
  0
SEQEND
  5
41E
330
41B
100
AcDbEntity
  8
Ebene 1
370
    18
  0
POLYLINE
  5
41F
330
198
100
AcDbEntity
  8
Ebene 1
 62
   179
420
  1709851
370
    18
100
AcDb2dPolyline
 66
     1
 10
0.0
 20
0.0
 30
0.0
  0
VERTEX
  5
420
330
41F
100
AcDbEntity
  8
Ebene 1
 62
   179
420
  1709851
370
    18
100
AcDbVertex
100
AcDb2dVertex
 10
117.9056369062875
 20
-235.0202798891616
 30
0.0
  0
VERTEX
  5
421
330
41F
100
AcDbEntity
  8
Ebene 1
 62
   179
420
  1709851
370
    18
100
AcDbVertex
100
AcDb2dVertex
 10
124.9115830850916
 20
-235.0202798891616
 30
0.0
  0
SEQEND
  5
422
330
41F
100
AcDbEntity
  8
Ebene 1
370
    18
  0
POLYLINE
  5
423
330
198
100
AcDbEntity
  8
Ebene 1
 62
   179
420
  1709851
370
    18
100
AcDb2dPolyline
 66
     1
 10
0.0
 20
0.0
 30
0.0
  0
VERTEX
  5
424
330
423
100
AcDbEntity
  8
Ebene 1
 62
   179
420
  1709851
370
    18
100
AcDbVertex
100
AcDb2dVertex
 10
115.9157497540072
 20
-235.0202798891616
 30
0.0
  0
VERTEX
  5
425
330
423
100
AcDbEntity
  8
Ebene 1
 62
   179
420
  1709851
370
    18
100
AcDbVertex
100
AcDb2dVertex
 10
116.9106933301473
 20
-235.0202798891616
 30
0.0
  0
SEQEND
  5
426
330
423
100
AcDbEntity
  8
Ebene 1
370
    18
  0
POLYLINE
  5
427
330
198
100
AcDbEntity
  8
Ebene 1
 62
   179
420
  1709851
370
    18
100
AcDb2dPolyline
 66
     1
 10
0.0
 20
0.0
 30
0.0
  0
VERTEX
  5
428
330
427
100
AcDbEntity
  8
Ebene 1
 62
   179
420
  1709851
370
    18
100
AcDbVertex
100
AcDb2dVertex
 10
107.914859999063
 20
-235.0202798891616
 30
0.0
  0
VERTEX
  5
429
330
427
100
AcDbEntity
  8
Ebene 1
 62
   179
420
  1709851
370
    18
100
AcDbVertex
100
AcDb2dVertex
 10
114.9211506874155
 20
-235.0202798891616
 30
0.0
  0
SEQEND
  5
42A
330
427
100
AcDbEntity
  8
Ebene 1
370
    18
  0
POLYLINE
  5
42B
330
198
100
AcDbEntity
  8
Ebene 1
 62
   179
420
  1709851
370
    18
100
AcDb2dPolyline
 66
     1
 10
0.0
 20
0.0
 30
0.0
  0
VERTEX
  5
42C
330
42B
100
AcDbEntity
  8
Ebene 1
 62
   179
420
  1709851
370
    18
100
AcDbVertex
100
AcDb2dVertex
 10
105.9039577643226
 20
-235.0202798891616
 30
0.0
  0
VERTEX
  5
42D
330
42B
100
AcDbEntity
  8
Ebene 1
 62
   179
420
  1709851
370
    18
100
AcDbVertex
100
AcDb2dVertex
 10
106.9199164229228
 20
-235.0202798891616
 30
0.0
  0
SEQEND
  5
42E
330
42B
100
AcDbEntity
  8
Ebene 1
370
    18
  0
POLYLINE
  5
42F
330
198
100
AcDbEntity
  8
Ebene 1
 62
   179
420
  1709851
370
    18
100
AcDb2dPolyline
 66
     1
 10
0.0
 20
0.0
 30
0.0
  0
VERTEX
  5
430
330
42F
100
AcDbEntity
  8
Ebene 1
 62
   179
420
  1709851
370
    18
100
AcDbVertex
100
AcDb2dVertex
 10
97.90289575460415
 20
-235.0202798891616
 30
0.0
  0
VERTEX
  5
431
330
42F
100
AcDbEntity
  8
Ebene 1
 62
   179
420
  1709851
370
    18
100
AcDbVertex
100
AcDb2dVertex
 10
104.9090141881825
 20
-235.0202798891616
 30
0.0
  0
SEQEND
  5
432
330
42F
100
AcDbEntity
  8
Ebene 1
370
    18
  0
POLYLINE
  5
433
330
198
100
AcDbEntity
  8
Ebene 1
 62
   179
420
  1709851
370
    18
100
AcDb2dPolyline
 66
     1
 10
0.0
 20
0.0
 30
0.0
  0
VERTEX
  5
434
330
433
100
AcDbEntity
  8
Ebene 1
 62
   179
420
  1709851
370
    18
100
AcDbVertex
100
AcDb2dVertex
 10
95.9131808570981
 20
-235.0202798891616
 30
0.0
  0
VERTEX
  5
435
330
433
100
AcDbEntity
  8
Ebene 1
 62
   179
420
  1709851
370
    18
100
AcDbVertex
100
AcDb2dVertex
 10
96.90812443323826
 20
-235.0202798891616
 30
0.0
  0
SEQEND
  5
436
330
433
100
AcDbEntity
  8
Ebene 1
370
    18
  0
POLYLINE
  5
437
330
198
100
AcDbEntity
  8
Ebene 1
 62
   179
420
  1709851
370
    18
100
AcDb2dPolyline
 66
     1
 10
0.0
 20
0.0
 30
0.0
  0
VERTEX
  5
438
330
437
100
AcDbEntity
  8
Ebene 1
 62
   179
420
  1709851
370
    18
100
AcDbVertex
100
AcDb2dVertex
 10
87.91229110215387
 20
-235.0202798891616
 30
0.0
  0
VERTEX
  5
439
330
437
100
AcDbEntity
  8
Ebene 1
 62
   179
420
  1709851
370
    18
100
AcDbVertex
100
AcDb2dVertex
 10
94.91840953573221
 20
-235.0202798891616
 30
0.0
  0
SEQEND
  5
43A
330
437
100
AcDbEntity
  8
Ebene 1
370
    18
  0
POLYLINE
  5
43B
330
198
100
AcDbEntity
  8
Ebene 1
 62
   179
420
  1709851
370
    18
100
AcDb2dPolyline
 66
     1
 10
0.0
 20
0.0
 30
0.0
  0
VERTEX
  5
43C
330
43B
100
AcDbEntity
  8
Ebene 1
 62
   179
420
  1709851
370
    18
100
AcDbVertex
100
AcDb2dVertex
 10
85.92257620464783
 20
-235.0202798891616
 30
0.0
  0
VERTEX
  5
43D
330
43B
100
AcDbEntity
  8
Ebene 1
 62
   179
420
  1709851
370
    18
100
AcDbVertex
100
AcDb2dVertex
 10
86.91734752601373
 20
-235.0202798891616
 30
0.0
  0
SEQEND
  5
43E
330
43B
100
AcDbEntity
  8
Ebene 1
370
    18
  0
POLYLINE
  5
43F
330
198
100
AcDbEntity
  8
Ebene 1
 62
   179
420
  1709851
370
    18
100
AcDb2dPolyline
 66
     1
 10
0.0
 20
0.0
 30
0.0
  0
VERTEX
  5
440
330
43F
100
AcDbEntity
  8
Ebene 1
 62
   179
420
  1709851
370
    18
100
AcDbVertex
100
AcDb2dVertex
 10
77.92151419492934
 20
-235.0202798891616
 30
0.0
  0
VERTEX
  5
441
330
43F
100
AcDbEntity
  8
Ebene 1
 62
   179
420
  1709851
370
    18
100
AcDbVertex
100
AcDb2dVertex
 10
84.90661754604766
 20
-235.0202798891616
 30
0.0
  0
SEQEND
  5
442
330
43F
100
AcDbEntity
  8
Ebene 1
370
    18
  0
POLYLINE
  5
443
330
198
100
AcDbEntity
  8
Ebene 1
 62
   179
420
  1709851
370
    18
100
AcDb2dPolyline
 66
     1
 10
0.0
 20
0.0
 30
0.0
  0
VERTEX
  5
444
330
443
100
AcDbEntity
  8
Ebene 1
 62
   179
420
  1709851
370
    18
100
AcDbVertex
100
AcDb2dVertex
 10
75.91078421496329
 20
-235.0202798891616
 30
0.0
  0
VERTEX
  5
445
330
443
100
AcDbEntity
  8
Ebene 1
 62
   179
420
  1709851
370
    18
100
AcDbVertex
100
AcDb2dVertex
 10
76.90555553632917
 20
-235.0202798891616
 30
0.0
  0
SEQEND
  5
446
330
443
100
AcDbEntity
  8
Ebene 1
370
    18
  0
POLYLINE
  5
447
330
198
100
AcDbEntity
  8
Ebene 1
 62
   179
420
  1709851
370
    18
100
AcDb2dPolyline
 66
     1
 10
0.0
 20
0.0
 30
0.0
  0
VERTEX
  5
448
330
447
100
AcDbEntity
  8
Ebene 1
 62
   179
420
  1709851
370
    18
100
AcDbVertex
100
AcDb2dVertex
 10
67.90972220524479
 20
-235.0202798891616
 30
0.0
  0
VERTEX
  5
449
330
447
100
AcDbEntity
  8
Ebene 1
 62
   179
420
  1709851
370
    18
100
AcDbVertex
100
AcDb2dVertex
 10
74.91584063882313
 20
-235.0202798891616
 30
0.0
  0
SEQEND
  5
44A
330
447
100
AcDbEntity
  8
Ebene 1
370
    18
  0
POLYLINE
  5
44B
330
198
100
AcDbEntity
  8
Ebene 1
 62
   179
420
  1709851
370
    18
100
AcDb2dPolyline
 66
     1
 10
0.0
 20
0.0
 30
0.0
  0
VERTEX
  5
44C
330
44B
100
AcDbEntity
  8
Ebene 1
 62
   179
420
  1709851
370
    18
100
AcDbVertex
100
AcDb2dVertex
 10
65.92000730773876
 20
-235.0202798891616
 30
0.0
  0
VERTEX
  5
44D
330
44B
100
AcDbEntity
  8
Ebene 1
 62
   179
420
  1709851
370
    18
100
AcDbVertex
100
AcDb2dVertex
 10
66.9149508838789
 20
-235.0202798891616
 30
0.0
  0
SEQEND
  5
44E
330
44B
100
AcDbEntity
  8
Ebene 1
370
    18
  0
POLYLINE
  5
44F
330
198
100
AcDbEntity
  8
Ebene 1
 62
   179
420
  1709851
370
    18
100
AcDb2dPolyline
 66
     1
 10
0.0
 20
0.0
 30
0.0
  0
VERTEX
  5
450
330
44F
100
AcDbEntity
  8
Ebene 1
 62
   179
420
  1709851
370
    18
100
AcDbVertex
100
AcDb2dVertex
 10
71.74084063961688
 20
-141.8661037514258
 30
0.0
  0
VERTEX
  5
451
330
44F
100
AcDbEntity
  8
Ebene 1
 62
   179
420
  1709851
370
    18
100
AcDbVertex
100
AcDb2dVertex
 10
71.74084063961688
 20
-235.0202798891616
 30
0.0
  0
SEQEND
  5
452
330
44F
100
AcDbEntity
  8
Ebene 1
370
    18
  0
POLYLINE
  5
453
330
198
100
AcDbEntity
  8
Ebene 1
 62
   179
420
  1709851
370
    18
100
AcDb2dPolyline
 66
     1
 10
0.0
 20
0.0
 30
0.0
  0
VERTEX
  5
454
330
453
100
AcDbEntity
  8
Ebene 1
 62
   179
420
  1709851
370
    18
100
AcDbVertex
100
AcDb2dVertex
 10
72.3547566550884
 20
-141.8661037514258
 30
0.0
  0
VERTEX
  5
455
330
453
100
AcDbEntity
  8
Ebene 1
 62
   179
420
  1709851
370
    18
100
AcDbVertex
100
AcDb2dVertex
 10
72.3547566550884
 20
-235.0202798891616
 30
0.0
  0
SEQEND
  5
456
330
453
100
AcDbEntity
  8
Ebene 1
370
    18
  0
POLYLINE
  5
457
330
198
100
AcDbEntity
  8
Ebene 1
 62
   179
420
  1709851
370
    18
100
AcDb2dPolyline
 66
     1
 10
0.0
 20
0.0
 30
0.0
  0
VERTEX
  5
458
330
457
100
AcDbEntity
  8
Ebene 1
 62
   179
420
  1709851
370
    18
100
AcDbVertex
100
AcDb2dVertex
 10
71.74084063961688
 20
-144.9563544016949
 30
0.0
  0
VERTEX
  5
459
330
457
100
AcDbEntity
  8
Ebene 1
 62
   179
420
  1709851
370
    18
100
AcDbVertex
100
AcDb2dVertex
 10
71.74084063961688
 20
-141.8661037514258
 30
0.0
  0
SEQEND
  5
45A
330
457
100
AcDbEntity
  8
Ebene 1
370
    18
  0
POLYLINE
  5
45B
330
198
100
AcDbEntity
  8
Ebene 1
 62
   179
420
  1709851
370
    18
100
AcDb2dPolyline
 66
     1
 10
0.0
 20
0.0
 30
0.0
  0
VERTEX
  5
45C
330
45B
100
AcDbEntity
  8
Ebene 1
 62
   179
420
  1709851
370
    18
100
AcDbVertex
100
AcDb2dVertex
 10
95.25706242193226
 20
-94.36788327718928
 30
0.0
  0
VERTEX
  5
45D
330
45B
100
AcDbEntity
  8
Ebene 1
 62
   179
420
  1709851
370
    18
100
AcDbVertex
100
AcDb2dVertex
 10
76.27062443839762
 20
-94.36788327718928
 30
0.0
  0
VERTEX
  5
45E
330
45B
100
AcDbEntity
  8
Ebene 1
 62
   179
420
  1709851
370
    18
100
AcDbVertex
100
AcDb2dVertex
 10
76.27062443839762
 20
-110.3700072966263
 30
0.0
  0
SEQEND
  5
45F
330
45B
100
AcDbEntity
  8
Ebene 1
370
    18
  0
POLYLINE
  5
460
330
198
100
AcDbEntity
  8
Ebene 1
 62
   179
420
  1709851
370
    18
100
AcDb2dPolyline
 66
     1
 10
0.0
 20
0.0
 30
0.0
  0
VERTEX
  5
461
330
460
100
AcDbEntity
  8
Ebene 1
 62
   179
420
  1709851
370
    18
100
AcDbVertex
100
AcDb2dVertex
 10
94.26229110056637
 20
-94.36788327718928
 30
0.0
  0
VERTEX
  5
462
330
460
100
AcDbEntity
  8
Ebene 1
 62
   179
420
  1709851
370
    18
100
AcDbVertex
100
AcDb2dVertex
 10
94.26229110056637
 20
-110.3700072966263
 30
0.0
  0
SEQEND
  5
463
330
460
100
AcDbEntity
  8
Ebene 1
370
    18
  0
POLYLINE
  5
464
330
198
100
AcDbEntity
  8
Ebene 1
 62
   179
420
  1709851
370
    18
100
AcDb2dPolyline
 66
     1
 10
0.0
 20
0.0
 30
0.0
  0
VERTEX
  5
465
330
464
100
AcDbEntity
  8
Ebene 1
 62
   179
420
  1709851
370
    18
100
AcDbVertex
100
AcDb2dVertex
 10
76.27062443839762
 20
-110.3700072966263
 30
0.0
  0
VERTEX
  5
466
330
464
100
AcDbEntity
  8
Ebene 1
 62
   179
420
  1709851
370
    18
100
AcDbVertex
100
AcDb2dVertex
 10
95.25706242193226
 20
-110.3700072966263
 30
0.0
  0
SEQEND
  5
467
330
464
100
AcDbEntity
  8
Ebene 1
370
    18
  0
POLYLINE
  5
468
330
198
100
AcDbEntity
  8
Ebene 1
 62
   179
420
  1709851
370
    50
100
AcDb2dPolyline
 66
     1
 10
0.0
 20
0.0
 30
0.0
  0
VERTEX
  5
469
330
468
100
AcDbEntity
  8
Ebene 1
 62
   179
420
  1709851
370
    50
100
AcDbVertex
100
AcDb2dVertex
 10
95.25706242193226
 20
-235.0202798891616
 30
0.0
  0
VERTEX
  5
46A
330
468
100
AcDbEntity
  8
Ebene 1
 62
   179
420
  1709851
370
    50
100
AcDbVertex
100
AcDb2dVertex
 10
95.25706242193226
 20
-65.771868201873
 30
0.0
  0
SEQEND
  5
46B
330
468
100
AcDbEntity
  8
Ebene 1
370
    50
  0
POLYLINE
  5
46C
330
198
100
AcDbEntity
  8
Ebene 1
 62
   179
420
  1709851
370
    50
100
AcDb2dPolyline
 66
     1
 10
0.0
 20
0.0
 30
0.0
  0
VERTEX
  5
46D
330
46C
100
AcDbEntity
  8
Ebene 1
 62
   179
420
  1709851
370
    50
100
AcDbVertex
100
AcDb2dVertex
 10
155.2645968578852
 20
-235.0202798891616
 30
0.0
  0
VERTEX
  5
46E
330
46C
100
AcDbEntity
  8
Ebene 1
 62
   179
420
  1709851
370
    50
100
AcDbVertex
100
AcDb2dVertex
 10
155.2645968578852
 20
-65.771868201873
 30
0.0
  0
SEQEND
  5
46F
330
46C
100
AcDbEntity
  8
Ebene 1
370
    50
  0
POLYLINE
  5
470
330
198
100
AcDbEntity
  8
Ebene 1
370
     0
100
AcDb2dPolyline
 66
     1
 10
0.0
 20
0.0
 30
0.0
  0
VERTEX
  5
471
330
470
100
AcDbEntity
  8
Ebene 1
370
     0
100
AcDbVertex
100
AcDb2dVertex
 10
65.26388887257292
 20
-235.2641926495173
 30
0.0
  0
VERTEX
  5
472
330
470
100
AcDbEntity
  8
Ebene 1
370
     0
100
AcDbVertex
100
AcDb2dVertex
 10
159.350135593843
 20
-235.2641926495173
 30
0.0
  0
VERTEX
  5
473
330
470
100
AcDbEntity
  8
Ebene 1
370
     0
100
AcDbVertex
100
AcDb2dVertex
 10
159.350135593843
 20
-65.5284722058401
 30
0.0
  0
VERTEX
  5
474
330
470
100
AcDbEntity
  8
Ebene 1
370
     0
100
AcDbVertex
100
AcDb2dVertex
 10
65.26388887257292
 20
-65.5284722058401
 30
0.0
  0
VERTEX
  5
475
330
470
100
AcDbEntity
  8
Ebene 1
370
     0
100
AcDbVertex
100
AcDb2dVertex
 10
65.26388887257292
 20
-235.2641926495173
 30
0.0
  0
SEQEND
  5
476
330
470
100
AcDbEntity
  8
Ebene 1
370
     0
  0
ENDBLK
  5
19B
330
198
100
AcDbEntity
  8
0
100
AcDbBlockEnd
  0
BLOCK
  5
485
330
483
100
AcDbEntity
  8
0
100
AcDbBlockBegin
  2
block 5
 70
     0
 71
     0
 10
0.0
 20
0.0
 30
0.0
  3
block 5
  1

  0
POLYLINE
  5
487
330
483
100
AcDbEntity
  8
Ebene 1
 62
   179
420
  1709851
370
    18
100
AcDb2dPolyline
 66
     1
 10
0.0
 20
0.0
 30
0.0
  0
VERTEX
  5
488
330
487
100
AcDbEntity
  8
Ebene 1
 62
   179
420
  1709851
370
    18
100
AcDbVertex
100
AcDb2dVertex
 10
94.85484752402935
 20
-135.6428832668705
 30
0.0
  0
VERTEX
  5
489
330
487
100
AcDbEntity
  8
Ebene 1
 62
   179
420
  1709851
370
    18
100
AcDbVertex
100
AcDb2dVertex
 10
94.85484752402935
 20
-127.9806463981264
 30
0.0
  0
SEQEND
  5
48A
330
487
100
AcDbEntity
  8
Ebene 1
370
    18
  0
POLYLINE
  5
48B
330
483
100
AcDbEntity
  8
Ebene 1
 62
   179
420
  1709851
370
    18
100
AcDb2dPolyline
 66
     1
 10
0.0
 20
0.0
 30
0.0
  0
VERTEX
  5
48C
330
48B
100
AcDbEntity
  8
Ebene 1
 62
   179
420
  1709851
370
    18
100
AcDbVertex
100
AcDb2dVertex
 10
95.25706242193226
 20
-127.9806463981264
 30
0.0
  0
VERTEX
  5
48D
330
48B
100
AcDbEntity
  8
Ebene 1
 62
   179
420
  1709851
370
    18
100
AcDbVertex
100
AcDb2dVertex
 10
94.85484752402935
 20
-127.9806463981264
 30
0.0
  0
SEQEND
  5
48E
330
48B
100
AcDbEntity
  8
Ebene 1
370
    18
  0
POLYLINE
  5
48F
330
483
100
AcDbEntity
  8
Ebene 1
 62
   179
420
  1709851
370
    18
100
AcDb2dPolyline
 66
     1
 10
0.0
 20
0.0
 30
0.0
  0
VERTEX
  5
490
330
48F
100
AcDbEntity
  8
Ebene 1
 62
   179
420
  1709851
370
    18
100
AcDbVertex
100
AcDb2dVertex
 10
79.25511065726955
 20
-72.77764212590282
 30
0.0
  0
VERTEX
  5
491
330
48F
100
AcDbEntity
  8
Ebene 1
 62
   179
420
  1709851
370
    18
100
AcDbVertex
100
AcDb2dVertex
 10
95.25706242193226
 20
-67.76158309937905
 30
0.0
  0
VERTEX
  5
492
330
48F
100
AcDbEntity
  8
Ebene 1
 62
   179
420
  1709851
370
    18
100
AcDbVertex
100
AcDb2dVertex
 10
88.8646877490512
 20
-65.77152369232448
 30
0.0
  0
SEQEND
  5
493
330
48F
100
AcDbEntity
  8
Ebene 1
370
    18
  0
POLYLINE
  5
494
330
483
100
AcDbEntity
  8
Ebene 1
 62
   179
420
  1709851
370
    18
100
AcDb2dPolyline
 66
     1
 10
0.0
 20
0.0
 30
0.0
  0
VERTEX
  5
495
330
494
100
AcDbEntity
  8
Ebene 1
 62
   179
420
  1709851
370
    18
100
AcDbVertex
100
AcDb2dVertex
 10
79.25511065726955
 20
-138.0558281447395
 30
0.0
  0
VERTEX
  5
496
330
494
100
AcDbEntity
  8
Ebene 1
 62
   179
420
  1709851
370
    18
100
AcDbVertex
100
AcDb2dVertex
 10
79.25511065726955
 20
-111.9571627866809
 30
0.0
  0
SEQEND
  5
497
330
494
100
AcDbEntity
  8
Ebene 1
370
    18
  0
POLYLINE
  5
498
330
483
100
AcDbEntity
  8
Ebene 1
 62
   179
420
  1709851
370
    18
100
AcDb2dPolyline
 66
     1
 10
0.0
 20
0.0
 30
0.0
  0
VERTEX
  5
499
330
498
100
AcDbEntity
  8
Ebene 1
 62
   179
420
  1709851
370
    18
100
AcDbVertex
100
AcDb2dVertex
 10
79.25511065726955
 20
-170.3558376310222
 30
0.0
  0
VERTEX
  5
49A
330
498
100
AcDbEntity
  8
Ebene 1
 62
   179
420
  1709851
370
    18
100
AcDbVertex
100
AcDb2dVertex
 10
79.25511065726955
 20
-138.4582152974167
 30
0.0
  0
SEQEND
  5
49B
330
498
100
AcDbEntity
  8
Ebene 1
370
    18
  0
POLYLINE
  5
49C
330
483
100
AcDbEntity
  8
Ebene 1
 62
   179
420
  1709851
370
    18
100
AcDb2dPolyline
 66
     1
 10
0.0
 20
0.0
 30
0.0
  0
VERTEX
  5
49D
330
49C
100
AcDbEntity
  8
Ebene 1
 62
   179
420
  1709851
370
    18
100
AcDbVertex
100
AcDb2dVertex
 10
79.25511065726955
 20
-135.3679646471476
 30
0.0
  0
VERTEX
  5
49E
330
49C
100
AcDbEntity
  8
Ebene 1
 62
   179
420
  1709851
370
    18
100
AcDbVertex
100
AcDb2dVertex
 10
94.85484752402935
 20
-130.4997002169411
 30
0.0
  0
SEQEND
  5
49F
330
49C
100
AcDbEntity
  8
Ebene 1
370
    18
  0
POLYLINE
  5
4A0
330
483
100
AcDbEntity
  8
Ebene 1
 62
   179
420
  1709851
370
    18
100
AcDb2dPolyline
 66
     1
 10
0.0
 20
0.0
 30
0.0
  0
VERTEX
  5
4A1
330
4A0
100
AcDbEntity
  8
Ebene 1
 62
   179
420
  1709851
370
    18
100
AcDbVertex
100
AcDb2dVertex
 10
94.85484752402935
 20
-130.2454521701296
 30
0.0
  0
VERTEX
  5
4A2
330
4A0
100
AcDbEntity
  8
Ebene 1
 62
   179
420
  1709851
370
    18
100
AcDbVertex
100
AcDb2dVertex
 10
79.25511065726955
 20
-125.3558281479145
 30
0.0
  0
SEQEND
  5
4A3
330
4A0
100
AcDbEntity
  8
Ebene 1
370
    18
  0
POLYLINE
  5
4A4
330
483
100
AcDbEntity
  8
Ebene 1
 62
   179
420
  1709851
370
    18
100
AcDb2dPolyline
 66
     1
 10
0.0
 20
0.0
 30
0.0
  0
VERTEX
  5
4A5
330
4A4
100
AcDbEntity
  8
Ebene 1
 62
   179
420
  1709851
370
    18
100
AcDbVertex
100
AcDb2dVertex
 10
85.01238197744483
 20
-137.1666489999965
 30
0.0
  0
VERTEX
  5
4A6
330
4A4
100
AcDbEntity
  8
Ebene 1
 62
   179
420
  1709851
370
    18
100
AcDbVertex
100
AcDb2dVertex
 10
79.25511065726955
 20
-135.3679646471476
 30
0.0
  0
SEQEND
  5
4A7
330
4A4
100
AcDbEntity
  8
Ebene 1
370
    18
  0
POLYLINE
  5
4A8
330
483
100
AcDbEntity
  8
Ebene 1
 62
   179
420
  1709851
370
    18
100
AcDb2dPolyline
 66
     1
 10
0.0
 20
0.0
 30
0.0
  0
VERTEX
  5
4A9
330
4A8
100
AcDbEntity
  8
Ebene 1
 62
   179
420
  1709851
370
    18
100
AcDbVertex
100
AcDb2dVertex
 10
95.25706242193226
 20
-140.3630085912113
 30
0.0
  0
VERTEX
  5
4AA
330
4A8
100
AcDbEntity
  8
Ebene 1
 62
   179
420
  1709851
370
    18
100
AcDbVertex
100
AcDb2dVertex
 10
85.88020153017926
 20
-137.4422566388165
 30
0.0
  0
SEQEND
  5
4AB
330
4A8
100
AcDbEntity
  8
Ebene 1
370
    18
  0
POLYLINE
  5
4AC
330
483
100
AcDbEntity
  8
Ebene 1
 62
   179
420
  1709851
370
    18
100
AcDb2dPolyline
 66
     1
 10
0.0
 20
0.0
 30
0.0
  0
VERTEX
  5
4AD
330
4AC
100
AcDbEntity
  8
Ebene 1
 62
   179
420
  1709851
370
    18
100
AcDbVertex
100
AcDb2dVertex
 10
75.91078421496329
 20
-141.8661037514258
 30
0.0
  0
VERTEX
  5
4AE
330
4AC
100
AcDbEntity
  8
Ebene 1
 62
   179
420
  1709851
370
    18
100
AcDbVertex
100
AcDb2dVertex
 10
77.60404864596357
 20
-141.8661037514258
 30
0.0
  0
SEQEND
  5
4AF
330
4AC
100
AcDbEntity
  8
Ebene 1
370
    18
  0
POLYLINE
  5
4B0
330
483
100
AcDbEntity
  8
Ebene 1
 62
   179
420
  1709851
370
    18
100
AcDb2dPolyline
 66
     1
 10
0.0
 20
0.0
 30
0.0
  0
VERTEX
  5
4B1
330
4B0
100
AcDbEntity
  8
Ebene 1
 62
   179
420
  1709851
370
    18
100
AcDbVertex
100
AcDb2dVertex
 10
73.54004175678861
 20
-141.8661037514258
 30
0.0
  0
VERTEX
  5
4B2
330
4B0
100
AcDbEntity
  8
Ebene 1
 62
   179
420
  1709851
370
    18
100
AcDbVertex
100
AcDb2dVertex
 10
74.91584063882313
 20
-141.8661037514258
 30
0.0
  0
SEQEND
  5
4B3
330
4B0
100
AcDbEntity
  8
Ebene 1
370
    18
  0
POLYLINE
  5
4B4
330
483
100
AcDbEntity
  8
Ebene 1
 62
   179
420
  1709851
370
    18
100
AcDb2dPolyline
 66
     1
 10
0.0
 20
0.0
 30
0.0
  0
VERTEX
  5
4B5
330
4B4
100
AcDbEntity
  8
Ebene 1
 62
   179
420
  1709851
370
    18
100
AcDbVertex
100
AcDb2dVertex
 10
73.54004175678861
 20
-141.8661037514258
 30
0.0
  0
VERTEX
  5
4B6
330
4B4
100
AcDbEntity
  8
Ebene 1
 62
   179
420
  1709851
370
    18
100
AcDbVertex
100
AcDb2dVertex
 10
71.74084063961688
 20
-141.8661037514258
 30
0.0
  0
SEQEND
  5
4B7
330
4B4
100
AcDbEntity
  8
Ebene 1
370
    18
  0
POLYLINE
  5
4B8
330
483
100
AcDbEntity
  8
Ebene 1
 62
   179
420
  1709851
370
    18
100
AcDb2dPolyline
 66
     1
 10
0.0
 20
0.0
 30
0.0
  0
VERTEX
  5
4B9
330
4B8
100
AcDbEntity
  8
Ebene 1
 62
   179
420
  1709851
370
    18
100
AcDbVertex
100
AcDb2dVertex
 10
79.25511065726955
 20
-141.8661037514258
 30
0.0
  0
VERTEX
  5
4BA
330
4B8
100
AcDbEntity
  8
Ebene 1
 62
   179
420
  1709851
370
    18
100
AcDbVertex
100
AcDb2dVertex
 10
77.60404864596357
 20
-141.8661037514258
 30
0.0
  0
SEQEND
  5
4BB
330
4B8
100
AcDbEntity
  8
Ebene 1
370
    18
  0
POLYLINE
  5
4BC
330
483
100
AcDbEntity
  8
Ebene 1
 62
   179
420
  1709851
370
    18
100
AcDb2dPolyline
 66
     1
 10
0.0
 20
0.0
 30
0.0
  0
VERTEX
  5
4BD
330
4BC
100
AcDbEntity
  8
Ebene 1
 62
   179
420
  1709851
370
    18
100
AcDbVertex
100
AcDb2dVertex
 10
79.36087508866673
 20
-135.7913668822848
 30
0.0
  0
VERTEX
  5
4BE
330
4BC
100
AcDbEntity
  8
Ebene 1
 62
   179
420
  1709851
370
    18
100
AcDbVertex
100
AcDb2dVertex
 10
81.32940264893848
 20
-135.4733845689962
 30
0.0
  0
SEQEND
  5
4BF
330
4BC
100
AcDbEntity
  8
Ebene 1
370
    18
  0
POLYLINE
  5
4C0
330
483
100
AcDbEntity
  8
Ebene 1
 62
   179
420
  1709851
370
    18
100
AcDb2dPolyline
 66
     1
 10
0.0
 20
0.0
 30
0.0
  0
VERTEX
  5
4C1
330
4C0
100
AcDbEntity
  8
Ebene 1
 62
   179
420
  1709851
370
    18
100
AcDbVertex
100
AcDb2dVertex
 10
72.3547566550884
 20
-136.8707152978136
 30
0.0
  0
VERTEX
  5
4C2
330
4C0
100
AcDbEntity
  8
Ebene 1
 62
   179
420
  1709851
370
    18
100
AcDbVertex
100
AcDb2dVertex
 10
79.25511065726955
 20
-135.7913668822848
 30
0.0
  0
SEQEND
  5
4C3
330
4C0
100
AcDbEntity
  8
Ebene 1
370
    18
  0
POLYLINE
  5
4C4
330
483
100
AcDbEntity
  8
Ebene 1
 62
   179
420
  1709851
370
    18
100
AcDb2dPolyline
 66
     1
 10
0.0
 20
0.0
 30
0.0
  0
VERTEX
  5
4C5
330
4C4
100
AcDbEntity
  8
Ebene 1
 62
   179
420
  1709851
370
    18
100
AcDbVertex
100
AcDb2dVertex
 10
81.75280488407569
 20
-66.4915486487417
 30
0.0
  0
VERTEX
  5
4C6
330
4C4
100
AcDbEntity
  8
Ebene 1
 62
   179
420
  1709851
370
    18
100
AcDbVertex
100
AcDb2dVertex
 10
81.75280488407569
 20
-65.77152369232448
 30
0.0
  0
SEQEND
  5
4C7
330
4C4
100
AcDbEntity
  8
Ebene 1
370
    18
  0
POLYLINE
  5
4C8
330
483
100
AcDbEntity
  8
Ebene 1
 62
   179
420
  1709851
370
    18
100
AcDb2dPolyline
 66
     1
 10
0.0
 20
0.0
 30
0.0
  0
VERTEX
  5
4C9
330
4C8
100
AcDbEntity
  8
Ebene 1
 62
   179
420
  1709851
370
    18
100
AcDbVertex
100
AcDb2dVertex
 10
81.75280488407569
 20
-69.49722220484792
 30
0.0
  0
VERTEX
  5
4CA
330
4C8
100
AcDbEntity
  8
Ebene 1
 62
   179
420
  1709851
370
    18
100
AcDbVertex
100
AcDb2dVertex
 10
81.75280488407569
 20
-67.48631997010759
 30
0.0
  0
SEQEND
  5
4CB
330
4C8
100
AcDbEntity
  8
Ebene 1
370
    18
  0
POLYLINE
  5
4CC
330
483
100
AcDbEntity
  8
Ebene 1
 62
   179
420
  1709851
370
    18
100
AcDb2dPolyline
 66
     1
 10
0.0
 20
0.0
 30
0.0
  0
VERTEX
  5
4CD
330
4CC
100
AcDbEntity
  8
Ebene 1
 62
   179
420
  1709851
370
    18
100
AcDbVertex
100
AcDb2dVertex
 10
81.75280488407569
 20
-72.48136391417133
 30
0.0
  0
VERTEX
  5
4CE
330
4CC
100
AcDbEntity
  8
Ebene 1
 62
   179
420
  1709851
370
    18
100
AcDbVertex
100
AcDb2dVertex
 10
81.75280488407569
 20
-70.4919935262138
 30
0.0
  0
SEQEND
  5
4CF
330
4CC
100
AcDbEntity
  8
Ebene 1
370
    18
  0
POLYLINE
  5
4D0
330
483
100
AcDbEntity
  8
Ebene 1
 62
   179
420
  1709851
370
    18
100
AcDb2dPolyline
 66
     1
 10
0.0
 20
0.0
 30
0.0
  0
VERTEX
  5
4D1
330
4D0
100
AcDbEntity
  8
Ebene 1
 62
   179
420
  1709851
370
    18
100
AcDbVertex
100
AcDb2dVertex
 10
81.75280488407569
 20
-75.48738197982607
 30
0.0
  0
VERTEX
  5
4D2
330
4D0
100
AcDbEntity
  8
Ebene 1
 62
   179
420
  1709851
370
    18
100
AcDbVertex
100
AcDb2dVertex
 10
81.75280488407569
 20
-73.47647974508574
 30
0.0
  0
SEQEND
  5
4D3
330
4D0
100
AcDbEntity
  8
Ebene 1
370
    18
  0
POLYLINE
  5
4D4
330
483
100
AcDbEntity
  8
Ebene 1
 62
   179
420
  1709851
370
    18
100
AcDb2dPolyline
 66
     1
 10
0.0
 20
0.0
 30
0.0
  0
VERTEX
  5
4D5
330
4D4
100
AcDbEntity
  8
Ebene 1
 62
   179
420
  1709851
370
    18
100
AcDbVertex
100
AcDb2dVertex
 10
81.75280488407569
 20
-78.4930555359323
 30
0.0
  0
VERTEX
  5
4D6
330
4D4
100
AcDbEntity
  8
Ebene 1
 62
   179
420
  1709851
370
    18
100
AcDbVertex
100
AcDb2dVertex
 10
81.75280488407569
 20
-76.48215330119197
 30
0.0
  0
SEQEND
  5
4D7
330
4D4
100
AcDbEntity
  8
Ebene 1
370
    18
  0
POLYLINE
  5
4D8
330
483
100
AcDbEntity
  8
Ebene 1
 62
   179
420
  1709851
370
    18
100
AcDb2dPolyline
 66
     1
 10
0.0
 20
0.0
 30
0.0
  0
VERTEX
  5
4D9
330
4D8
100
AcDbEntity
  8
Ebene 1
 62
   179
420
  1709851
370
    18
100
AcDbVertex
100
AcDb2dVertex
 10
81.75280488407569
 20
-81.47719724525571
 30
0.0
  0
VERTEX
  5
4DA
330
4D8
100
AcDbEntity
  8
Ebene 1
 62
   179
420
  1709851
370
    18
100
AcDbVertex
100
AcDb2dVertex
 10
81.75280488407569
 20
-79.48782685729819
 30
0.0
  0
SEQEND
  5
4DB
330
4D8
100
AcDbEntity
  8
Ebene 1
370
    18
  0
POLYLINE
  5
4DC
330
483
100
AcDbEntity
  8
Ebene 1
 62
   179
420
  1709851
370
    18
100
AcDb2dPolyline
 66
     1
 10
0.0
 20
0.0
 30
0.0
  0
VERTEX
  5
4DD
330
4DC
100
AcDbEntity
  8
Ebene 1
 62
   179
420
  1709851
370
    18
100
AcDbVertex
100
AcDb2dVertex
 10
81.75280488407569
 20
-84.48321531091045
 30
0.0
  0
VERTEX
  5
4DE
330
4DC
100
AcDbEntity
  8
Ebene 1
 62
   179
420
  1709851
370
    18
100
AcDbVertex
100
AcDb2dVertex
 10
81.75280488407569
 20
-82.4935004134044
 30
0.0
  0
SEQEND
  5
4DF
330
4DC
100
AcDbEntity
  8
Ebene 1
370
    18
  0
POLYLINE
  5
4E0
330
483
100
AcDbEntity
  8
Ebene 1
 62
   179
420
  1709851
370
    18
100
AcDb2dPolyline
 66
     1
 10
0.0
 20
0.0
 30
0.0
  0
VERTEX
  5
4E1
330
4E0
100
AcDbEntity
  8
Ebene 1
 62
   179
420
  1709851
370
    18
100
AcDbVertex
100
AcDb2dVertex
 10
81.75280488407569
 20
-87.48871661224241
 30
0.0
  0
VERTEX
  5
4E2
330
4E0
100
AcDbEntity
  8
Ebene 1
 62
   179
420
  1709851
370
    18
100
AcDbVertex
100
AcDb2dVertex
 10
81.75280488407569
 20
-85.47798663227634
 30
0.0
  0
SEQEND
  5
4E3
330
4E0
100
AcDbEntity
  8
Ebene 1
370
    18
  0
POLYLINE
  5
4E4
330
483
100
AcDbEntity
  8
Ebene 1
 62
   179
420
  1709851
370
    18
100
AcDb2dPolyline
 66
     1
 10
0.0
 20
0.0
 30
0.0
  0
VERTEX
  5
4E5
330
4E4
100
AcDbEntity
  8
Ebene 1
 62
   179
420
  1709851
370
    18
100
AcDbVertex
100
AcDb2dVertex
 10
81.75280488407569
 20
-90.49421791357436
 30
0.0
  0
VERTEX
  5
4E6
330
4E4
100
AcDbEntity
  8
Ebene 1
 62
   179
420
  1709851
370
    18
100
AcDbVertex
100
AcDb2dVertex
 10
81.75280488407569
 20
-88.48366018838256
 30
0.0
  0
SEQEND
  5
4E7
330
4E4
100
AcDbEntity
  8
Ebene 1
370
    18
  0
POLYLINE
  5
4E8
330
483
100
AcDbEntity
  8
Ebene 1
 62
   179
420
  1709851
370
    18
100
AcDb2dPolyline
 66
     1
 10
0.0
 20
0.0
 30
0.0
  0
VERTEX
  5
4E9
330
4E8
100
AcDbEntity
  8
Ebene 1
 62
   179
420
  1709851
370
    18
100
AcDbVertex
100
AcDb2dVertex
 10
81.75280488407569
 20
-93.47904864199482
 30
0.0
  0
VERTEX
  5
4EA
330
4E8
100
AcDbEntity
  8
Ebene 1
 62
   179
420
  1709851
370
    18
100
AcDbVertex
100
AcDb2dVertex
 10
81.75280488407569
 20
-91.48950599926305
 30
0.0
  0
SEQEND
  5
4EB
330
4E8
100
AcDbEntity
  8
Ebene 1
370
    18
  0
POLYLINE
  5
4EC
330
483
100
AcDbEntity
  8
Ebene 1
 62
   179
420
  1709851
370
    18
100
AcDb2dPolyline
 66
     1
 10
0.0
 20
0.0
 30
0.0
  0
VERTEX
  5
4ED
330
4EC
100
AcDbEntity
  8
Ebene 1
 62
   179
420
  1709851
370
    18
100
AcDbVertex
100
AcDb2dVertex
 10
81.75280488407569
 20
-96.48454994332678
 30
0.0
  0
VERTEX
  5
4EE
330
4EC
100
AcDbEntity
  8
Ebene 1
 62
   179
420
  1709851
370
    18
100
AcDbVertex
100
AcDb2dVertex
 10
81.75280488407569
 20
-94.495007300595
 30
0.0
  0
SEQEND
  5
4EF
330
4EC
100
AcDbEntity
  8
Ebene 1
370
    18
  0
POLYLINE
  5
4F0
330
483
100
AcDbEntity
  8
Ebene 1
 62
   179
420
  1709851
370
    18
100
AcDb2dPolyline
 66
     1
 10
0.0
 20
0.0
 30
0.0
  0
VERTEX
  5
4F1
330
4F0
100
AcDbEntity
  8
Ebene 1
 62
   179
420
  1709851
370
    18
100
AcDbVertex
100
AcDb2dVertex
 10
81.75280488407569
 20
-99.49005124465874
 30
0.0
  0
VERTEX
  5
4F2
330
4F0
100
AcDbEntity
  8
Ebene 1
 62
   179
420
  1709851
370
    18
100
AcDbVertex
100
AcDb2dVertex
 10
81.75280488407569
 20
-97.47949351946694
 30
0.0
  0
SEQEND
  5
4F3
330
4F0
100
AcDbEntity
  8
Ebene 1
370
    18
  0
POLYLINE
  5
4F4
330
483
100
AcDbEntity
  8
Ebene 1
 62
   179
420
  1709851
370
    18
100
AcDb2dPolyline
 66
     1
 10
0.0
 20
0.0
 30
0.0
  0
VERTEX
  5
4F5
330
4F4
100
AcDbEntity
  8
Ebene 1
 62
   179
420
  1709851
370
    18
100
AcDbVertex
100
AcDb2dVertex
 10
81.75280488407569
 20
-102.4748819730792
 30
0.0
  0
VERTEX
  5
4F6
330
4F4
100
AcDbEntity
  8
Ebene 1
 62
   179
420
  1709851
370
    18
100
AcDbVertex
100
AcDb2dVertex
 10
81.75280488407569
 20
-100.4853393303474
 30
0.0
  0
SEQEND
  5
4F7
330
4F4
100
AcDbEntity
  8
Ebene 1
370
    18
  0
POLYLINE
  5
4F8
330
483
100
AcDbEntity
  8
Ebene 1
 62
   179
420
  1709851
370
    18
100
AcDb2dPolyline
 66
     1
 10
0.0
 20
0.0
 30
0.0
  0
VERTEX
  5
4F9
330
4F8
100
AcDbEntity
  8
Ebene 1
 62
   179
420
  1709851
370
    18
100
AcDbVertex
100
AcDb2dVertex
 10
81.75280488407569
 20
-105.4803832744112
 30
0.0
  0
VERTEX
  5
4FA
330
4F8
100
AcDbEntity
  8
Ebene 1
 62
   179
420
  1709851
370
    18
100
AcDbVertex
100
AcDb2dVertex
 10
81.75280488407569
 20
-103.4908406316794
 30
0.0
  0
SEQEND
  5
4FB
330
4F8
100
AcDbEntity
  8
Ebene 1
370
    18
  0
POLYLINE
  5
4FC
330
483
100
AcDbEntity
  8
Ebene 1
 62
   179
420
  1709851
370
    18
100
AcDb2dPolyline
 66
     1
 10
0.0
 20
0.0
 30
0.0
  0
VERTEX
  5
4FD
330
4FC
100
AcDbEntity
  8
Ebene 1
 62
   179
420
  1709851
370
    18
100
AcDbVertex
100
AcDb2dVertex
 10
81.75280488407569
 20
-108.4862290852916
 30
0.0
  0
VERTEX
  5
4FE
330
4FC
100
AcDbEntity
  8
Ebene 1
 62
   179
420
  1709851
370
    18
100
AcDbVertex
100
AcDb2dVertex
 10
81.75280488407569
 20
-106.4753268505513
 30
0.0
  0
SEQEND
  5
4FF
330
4FC
100
AcDbEntity
  8
Ebene 1
370
    18
  0
POLYLINE
  5
500
330
483
100
AcDbEntity
  8
Ebene 1
 62
   179
420
  1709851
370
    18
100
AcDb2dPolyline
 66
     1
 10
0.0
 20
0.0
 30
0.0
  0
VERTEX
  5
501
330
500
100
AcDbEntity
  8
Ebene 1
 62
   179
420
  1709851
370
    18
100
AcDbVertex
100
AcDb2dVertex
 10
81.75280488407569
 20
-111.4917303866236
 30
0.0
  0
VERTEX
  5
502
330
500
100
AcDbEntity
  8
Ebene 1
 62
   179
420
  1709851
370
    18
100
AcDbVertex
100
AcDb2dVertex
 10
81.75280488407569
 20
-109.4811726614318
 30
0.0
  0
SEQEND
  5
503
330
500
100
AcDbEntity
  8
Ebene 1
370
    18
  0
POLYLINE
  5
504
330
483
100
AcDbEntity
  8
Ebene 1
 62
   179
420
  1709851
370
    18
100
AcDb2dPolyline
 66
     1
 10
0.0
 20
0.0
 30
0.0
  0
VERTEX
  5
505
330
504
100
AcDbEntity
  8
Ebene 1
 62
   179
420
  1709851
370
    18
100
AcDbVertex
100
AcDb2dVertex
 10
81.75280488407569
 20
-114.4762166054955
 30
0.0
  0
VERTEX
  5
506
330
504
100
AcDbEntity
  8
Ebene 1
 62
   179
420
  1709851
370
    18
100
AcDbVertex
100
AcDb2dVertex
 10
81.75280488407569
 20
-112.4866739627638
 30
0.0
  0
SEQEND
  5
507
330
504
100
AcDbEntity
  8
Ebene 1
370
    18
  0
POLYLINE
  5
508
330
483
100
AcDbEntity
  8
Ebene 1
 62
   179
420
  1709851
370
    18
100
AcDb2dPolyline
 66
     1
 10
0.0
 20
0.0
 30
0.0
  0
VERTEX
  5
509
330
508
100
AcDbEntity
  8
Ebene 1
 62
   179
420
  1709851
370
    18
100
AcDbVertex
100
AcDb2dVertex
 10
81.75280488407569
 20
-117.482062416376
 30
0.0
  0
VERTEX
  5
50A
330
508
100
AcDbEntity
  8
Ebene 1
 62
   179
420
  1709851
370
    18
100
AcDbVertex
100
AcDb2dVertex
 10
81.75280488407569
 20
-115.4925197736442
 30
0.0
  0
SEQEND
  5
50B
330
508
100
AcDbEntity
  8
Ebene 1
370
    18
  0
POLYLINE
  5
50C
330
483
100
AcDbEntity
  8
Ebene 1
 62
   179
420
  1709851
370
    18
100
AcDb2dPolyline
 66
     1
 10
0.0
 20
0.0
 30
0.0
  0
VERTEX
  5
50D
330
50C
100
AcDbEntity
  8
Ebene 1
 62
   179
420
  1709851
370
    18
100
AcDbVertex
100
AcDb2dVertex
 10
81.75280488407569
 20
-120.487563717708
 30
0.0
  0
VERTEX
  5
50E
330
50C
100
AcDbEntity
  8
Ebene 1
 62
   179
420
  1709851
370
    18
100
AcDbVertex
100
AcDb2dVertex
 10
81.75280488407569
 20
-118.4770059925162
 30
0.0
  0
SEQEND
  5
50F
330
50C
100
AcDbEntity
  8
Ebene 1
370
    18
  0
POLYLINE
  5
510
330
483
100
AcDbEntity
  8
Ebene 1
 62
   179
420
  1709851
370
    18
100
AcDb2dPolyline
 66
     1
 10
0.0
 20
0.0
 30
0.0
  0
VERTEX
  5
511
330
510
100
AcDbEntity
  8
Ebene 1
 62
   179
420
  1709851
370
    18
100
AcDbVertex
100
AcDb2dVertex
 10
81.75280488407569
 20
-123.4720499365799
 30
0.0
  0
VERTEX
  5
512
330
510
100
AcDbEntity
  8
Ebene 1
 62
   179
420
  1709851
370
    18
100
AcDbVertex
100
AcDb2dVertex
 10
81.75280488407569
 20
-121.4825072938481
 30
0.0
  0
SEQEND
  5
513
330
510
100
AcDbEntity
  8
Ebene 1
370
    18
  0
POLYLINE
  5
514
330
483
100
AcDbEntity
  8
Ebene 1
 62
   179
420
  1709851
370
    18
100
AcDb2dPolyline
 66
     1
 10
0.0
 20
0.0
 30
0.0
  0
VERTEX
  5
515
330
514
100
AcDbEntity
  8
Ebene 1
 62
   179
420
  1709851
370
    18
100
AcDbVertex
100
AcDb2dVertex
 10
81.75280488407569
 20
-126.4778957474604
 30
0.0
  0
VERTEX
  5
516
330
514
100
AcDbEntity
  8
Ebene 1
 62
   179
420
  1709851
370
    18
100
AcDbVertex
100
AcDb2dVertex
 10
81.75280488407569
 20
-124.4883531047286
 30
0.0
  0
SEQEND
  5
517
330
514
100
AcDbEntity
  8
Ebene 1
370
    18
  0
POLYLINE
  5
518
330
483
100
AcDbEntity
  8
Ebene 1
 62
   179
420
  1709851
370
    18
100
AcDb2dPolyline
 66
     1
 10
0.0
 20
0.0
 30
0.0
  0
VERTEX
  5
519
330
518
100
AcDbEntity
  8
Ebene 1
 62
   179
420
  1709851
370
    18
100
AcDbVertex
100
AcDb2dVertex
 10
81.75280488407569
 20
-129.4833970487923
 30
0.0
  0
VERTEX
  5
51A
330
518
100
AcDbEntity
  8
Ebene 1
 62
   179
420
  1709851
370
    18
100
AcDbVertex
100
AcDb2dVertex
 10
81.75280488407569
 20
-127.4728393236006
 30
0.0
  0
SEQEND
  5
51B
330
518
100
AcDbEntity
  8
Ebene 1
370
    18
  0
POLYLINE
  5
51C
330
483
100
AcDbEntity
  8
Ebene 1
 62
   179
420
  1709851
370
    18
100
AcDb2dPolyline
 66
     1
 10
0.0
 20
0.0
 30
0.0
  0
VERTEX
  5
51D
330
51C
100
AcDbEntity
  8
Ebene 1
 62
   179
420
  1709851
370
    18
100
AcDbVertex
100
AcDb2dVertex
 10
81.75280488407569
 20
-132.4892428596728
 30
0.0
  0
VERTEX
  5
51E
330
51C
100
AcDbEntity
  8
Ebene 1
 62
   179
420
  1709851
370
    18
100
AcDbVertex
100
AcDb2dVertex
 10
81.75280488407569
 20
-130.4783406249325
 30
0.0
  0
SEQEND
  5
51F
330
51C
100
AcDbEntity
  8
Ebene 1
370
    18
  0
POLYLINE
  5
520
330
483
100
AcDbEntity
  8
Ebene 1
 62
   179
420
  1709851
370
    18
100
AcDb2dPolyline
 66
     1
 10
0.0
 20
0.0
 30
0.0
  0
VERTEX
  5
521
330
520
100
AcDbEntity
  8
Ebene 1
 62
   179
420
  1709851
370
    18
100
AcDbVertex
100
AcDb2dVertex
 10
81.75280488407569
 20
-135.4103393216162
 30
0.0
  0
VERTEX
  5
522
330
520
100
AcDbEntity
  8
Ebene 1
 62
   179
420
  1709851
370
    18
100
AcDbVertex
100
AcDb2dVertex
 10
81.75280488407569
 20
-135.4103393216162
 30
0.0
  0
VERTEX
  5
523
330
520
100
AcDbEntity
  8
Ebene 1
 62
   179
420
  1709851
370
    18
100
AcDbVertex
100
AcDb2dVertex
 10
81.75280488407569
 20
-133.484186435813
 30
0.0
  0
SEQEND
  5
524
330
520
100
AcDbEntity
  8
Ebene 1
370
    18
  0
POLYLINE
  5
525
330
483
100
AcDbEntity
  8
Ebene 1
 62
   179
420
  1709851
370
    18
100
AcDb2dPolyline
 66
     1
 10
0.0
 20
0.0
 30
0.0
  0
VERTEX
  5
526
330
525
100
AcDbEntity
  8
Ebene 1
 62
   179
420
  1709851
370
    18
100
AcDbVertex
100
AcDb2dVertex
 10
72.3547566550884
 20
-136.8707152978136
 30
0.0
  0
VERTEX
  5
527
330
525
100
AcDbEntity
  8
Ebene 1
 62
   179
420
  1709851
370
    18
100
AcDbVertex
100
AcDb2dVertex
 10
71.74084063961688
 20
-136.8707152978136
 30
0.0
  0
SEQEND
  5
528
330
525
100
AcDbEntity
  8
Ebene 1
370
    18
  0
POLYLINE
  5
529
330
483
100
AcDbEntity
  8
Ebene 1
 62
   179
420
  1709851
370
    18
100
AcDb2dPolyline
 66
     1
 10
0.0
 20
0.0
 30
0.0
  0
VERTEX
  5
52A
330
529
100
AcDbEntity
  8
Ebene 1
 62
   179
420
  1709851
370
    18
100
AcDbVertex
100
AcDb2dVertex
 10
65.34863822151007
 20
-140.2152139948941
 30
0.0
  0
VERTEX
  5
52B
330
529
100
AcDbEntity
  8
Ebene 1
 62
   179
420
  1709851
370
    18
100
AcDbVertex
100
AcDb2dVertex
 10
65.34863822151007
 20
-144.4905774920892
 30
0.0
  0
SEQEND
  5
52C
330
529
100
AcDbEntity
  8
Ebene 1
370
    18
  0
POLYLINE
  5
52D
330
483
100
AcDbEntity
  8
Ebene 1
 62
   179
420
  1709851
370
    18
100
AcDb2dPolyline
 66
     1
 10
0.0
 20
0.0
 30
0.0
  0
VERTEX
  5
52E
330
52D
100
AcDbEntity
  8
Ebene 1
 62
   179
420
  1709851
370
    18
100
AcDbVertex
100
AcDb2dVertex
 10
65.75068086463872
 20
-143.5169935079576
 30
0.0
  0
VERTEX
  5
52F
330
52D
100
AcDbEntity
  8
Ebene 1
 62
   179
420
  1709851
370
    18
100
AcDbVertex
100
AcDb2dVertex
 10
65.75068086463872
 20
-140.5538668810942
 30
0.0
  0
SEQEND
  5
530
330
52D
100
AcDbEntity
  8
Ebene 1
370
    18
  0
SPLINE
  5
531
330
483
100
AcDbEntity
  8
Ebene 1
 62
   179
420
  1709851
370
    18
100
AcDbSpline
210
0.0
220
0.0
230
1.0
 70
     8
 71
     3
 72
    23
 73
    19
 74
     0
 42
0.0000000001
 43
0.0000000001
 40
0.0
 40
0.0
 40
0.0
 40
0.0
 40
1.0
 40
1.0
 40
1.0
 40
2.0
 40
2.0
 40
2.0
 40
3.0
 40
3.0
 40
3.0
 40
4.0
 40
4.0
 40
4.0
 40
5.0
 40
5.0
 40
5.0
 40
6.0
 40
6.0
 40
6.0
 40
6.0
 10
76.84216577940057
 20
-143.6441175313633
 30
0.0
 10
76.84216577940057
 20
-143.6441175313633
 30
0.0
 10
76.8209784421663
 20
-143.5803832648862
 30
0.0
 10
76.8209784421663
 20
-143.5803832648862
 30
0.0
 10
76.799791104932
 20
-143.0512165983518
 30
0.0
 10
76.35520153256051
 20
-142.6491739552231
 30
0.0
 10
75.84722220326042
 20
-142.6491739552231
 30
0.0
 10
75.29686819949175
 20
-142.6491739552231
 30
0.0
 10
74.85245088189453
 20
-143.0935912728204
 30
0.0
 10
74.85245088189453
 20
-143.6441175313633
 30
0.0
 10
74.85245088189453
 20
-144.1732841978977
 30
0.0
 10
75.29686819949175
 20
-144.6387165979549
 30
0.0
 10
75.84722220326042
 20
-144.6387165979549
 30
0.0
 10
76.39757620702908
 20
-144.6387165979549
 30
0.0
 10
76.84216577940057
 20
-144.1732841978977
 30
0.0
 10
76.84216577940057
 20
-143.6441175313633
 30
0.0
 10
76.84216577940057
 20
-143.6227579393547
 30
0.0
 10
76.84216577940057
 20
-143.6017428568947
 30
0.0
 10
76.8209784421663
 20
-143.5803832648862
 30
0.0
  0
SPLINE
  5
532
330
483
100
AcDbEntity
  8
Ebene 1
 62
   179
420
  1709851
370
    18
100
AcDbSpline
210
0.0
220
0.0
230
1.0
 70
     8
 71
     3
 72
    23
 73
    19
 74
     0
 42
0.0000000001
 43
0.0000000001
 40
0.0
 40
0.0
 40
0.0
 40
0.0
 40
1.0
 40
1.0
 40
1.0
 40
2.0
 40
2.0
 40
2.0
 40
3.0
 40
3.0
 40
3.0
 40
4.0
 40
4.0
 40
4.0
 40
5.0
 40
5.0
 40
5.0
 40
6.0
 40
6.0
 40
6.0
 40
6.0
 10
76.14367266976618
 20
-143.6441175313633
 30
0.0
 10
76.14367266976618
 20
-143.6441175313633
 30
0.0
 10
76.14367266976618
 20
-143.6227579393547
 30
0.0
 10
76.14367266976618
 20
-143.6227579393547
 30
0.0
 10
76.12248533253188
 20
-143.453603751029
 30
0.0
 10
75.99536130912617
 20
-143.3478393196318
 30
0.0
 10
75.84722220326042
 20
-143.3478393196318
 30
0.0
 10
75.6778957601604
 20
-143.3478393196318
 30
0.0
 10
75.55094399152894
 20
-143.474618833489
 30
0.0
 10
75.55094399152894
 20
-143.6441175313633
 30
0.0
 10
75.55094399152894
 20
-143.792256637229
 30
0.0
 10
75.6778957601604
 20
-143.9403957430948
 30
0.0
 10
75.84722220326042
 20
-143.9403957430948
 30
0.0
 10
75.99536130912617
 20
-143.9403957430948
 30
0.0
 10
76.14367266976618
 20
-143.792256637229
 30
0.0
 10
76.14367266976618
 20
-143.6441175313633
 30
0.0
 10
76.14367266976618
 20
-143.6441175313633
 30
0.0
 10
76.14367266976618
 20
-143.6227579393547
 30
0.0
 10
76.14367266976618
 20
-143.6227579393547
 30
0.0
  0
POLYLINE
  5
533
330
483
100
AcDbEntity
  8
Ebene 1
 62
   179
420
  1709851
370
    18
100
AcDb2dPolyline
 66
     1
 10
0.0
 20
0.0
 30
0.0
  0
VERTEX
  5
534
330
533
100
AcDbEntity
  8
Ebene 1
 62
   179
420
  1709851
370
    18
100
AcDbVertex
100
AcDb2dVertex
 10
73.15901419611997
 20
-139.4107841990883
 30
0.0
  0
VERTEX
  5
535
330
533
100
AcDbEntity
  8
Ebene 1
 62
   179
420
  1709851
370
    18
100
AcDbVertex
100
AcDb2dVertex
 10
74.23853486642301
 20
-146.3109659464952
 30
0.0
  0
SEQEND
  5
536
330
533
100
AcDbEntity
  8
Ebene 1
370
    18
  0
POLYLINE
  5
537
330
483
100
AcDbEntity
  8
Ebene 1
 62
   179
420
  1709851
370
    18
100
AcDb2dPolyline
 66
     1
 10
0.0
 20
0.0
 30
0.0
  0
VERTEX
  5
538
330
537
100
AcDbEntity
  8
Ebene 1
 62
   179
420
  1709851
370
    18
100
AcDbVertex
100
AcDb2dVertex
 10
74.23853486642301
 20
-146.3109659464952
 30
0.0
  0
VERTEX
  5
539
330
537
100
AcDbEntity
  8
Ebene 1
 62
   179
420
  1709851
370
    18
100
AcDbVertex
100
AcDb2dVertex
 10
78.19677732420081
 20
-145.6970499310237
 30
0.0
  0
VERTEX
  5
53A
330
537
100
AcDbEntity
  8
Ebene 1
 62
   179
420
  1709851
370
    18
100
AcDbVertex
100
AcDb2dVertex
 10
77.11725665389777
 20
-138.7968681836168
 30
0.0
  0
SEQEND
  5
53B
330
537
100
AcDbEntity
  8
Ebene 1
370
    18
  0
POLYLINE
  5
53C
330
483
100
AcDbEntity
  8
Ebene 1
 62
   179
420
  1709851
370
    18
100
AcDb2dPolyline
 66
     1
 10
0.0
 20
0.0
 30
0.0
  0
VERTEX
  5
53D
330
53C
100
AcDbEntity
  8
Ebene 1
 62
   179
420
  1709851
370
    18
100
AcDbVertex
100
AcDb2dVertex
 10
74.93702797605741
 20
-137.717519768088
 30
0.0
  0
VERTEX
  5
53E
330
53C
100
AcDbEntity
  8
Ebene 1
 62
   179
420
  1709851
370
    18
100
AcDbVertex
100
AcDb2dVertex
 10
74.93702797605741
 20
-137.717519768088
 30
0.0
  0
VERTEX
  5
53F
330
53C
100
AcDbEntity
  8
Ebene 1
 62
   179
420
  1709851
370
    18
100
AcDbVertex
100
AcDb2dVertex
 10
75.29686819949175
 20
-140.0247002145598
 30
0.0
  0
SEQEND
  5
540
330
53C
100
AcDbEntity
  8
Ebene 1
370
    18
  0
POLYLINE
  5
541
330
483
100
AcDbEntity
  8
Ebene 1
 62
   179
420
  1709851
370
    18
100
AcDb2dPolyline
 66
     1
 10
0.0
 20
0.0
 30
0.0
  0
VERTEX
  5
542
330
541
100
AcDbEntity
  8
Ebene 1
 62
   179
420
  1709851
370
    18
100
AcDbVertex
100
AcDb2dVertex
 10
73.22257620782283
 20
-139.7918117597569
 30
0.0
  0
VERTEX
  5
543
330
541
100
AcDbEntity
  8
Ebene 1
 62
   179
420
  1709851
370
    18
100
AcDbVertex
100
AcDb2dVertex
 10
77.18081866560063
 20
-139.1778957442854
 30
0.0
  0
SEQEND
  5
544
330
541
100
AcDbEntity
  8
Ebene 1
370
    18
  0
POLYLINE
  5
545
330
483
100
AcDbEntity
  8
Ebene 1
 62
   179
420
  1709851
370
    18
100
AcDb2dPolyline
 66
     1
 10
0.0
 20
0.0
 30
0.0
  0
VERTEX
  5
546
330
545
100
AcDbEntity
  8
Ebene 1
 62
   179
420
  1709851
370
    18
100
AcDbVertex
100
AcDb2dVertex
 10
65.75068086463872
 20
-140.5538668810942
 30
0.0
  0
VERTEX
  5
547
330
545
100
AcDbEntity
  8
Ebene 1
 62
   179
420
  1709851
370
    18
100
AcDbVertex
100
AcDb2dVertex
 10
95.25706242193226
 20
-135.9818806626191
 30
0.0
  0
SEQEND
  5
548
330
545
100
AcDbEntity
  8
Ebene 1
370
    18
  0
POLYLINE
  5
549
330
483
100
AcDbEntity
  8
Ebene 1
 62
   179
420
  1709851
370
    18
100
AcDb2dPolyline
 66
     1
 10
0.0
 20
0.0
 30
0.0
  0
VERTEX
  5
54A
330
549
100
AcDbEntity
  8
Ebene 1
 62
   179
420
  1709851
370
    18
100
AcDbVertex
100
AcDb2dVertex
 10
65.34863822151007
 20
-140.2152139948941
 30
0.0
  0
VERTEX
  5
54B
330
549
100
AcDbEntity
  8
Ebene 1
 62
   179
420
  1709851
370
    18
100
AcDbVertex
100
AcDb2dVertex
 10
94.85484752402935
 20
-135.6428832668705
 30
0.0
  0
SEQEND
  5
54C
330
549
100
AcDbEntity
  8
Ebene 1
370
    18
  0
POLYLINE
  5
54D
330
483
100
AcDbEntity
  8
Ebene 1
 62
   179
420
  1709851
370
    18
100
AcDb2dPolyline
 66
     1
 10
0.0
 20
0.0
 30
0.0
  0
VERTEX
  5
54E
330
54D
100
AcDbEntity
  8
Ebene 1
 62
   179
420
  1709851
370
    18
100
AcDbVertex
100
AcDb2dVertex
 10
68.77754175797922
 20
-137.4632717212766
 30
0.0
  0
VERTEX
  5
54F
330
54D
100
AcDbEntity
  8
Ebene 1
 62
   179
420
  1709851
370
    18
100
AcDbVertex
100
AcDb2dVertex
 10
68.8199164324478
 20
-137.6327704191508
 30
0.0
  0
VERTEX
  5
550
330
54D
100
AcDbEntity
  8
Ebene 1
 62
   179
420
  1709851
370
    18
100
AcDbVertex
100
AcDb2dVertex
 10
68.92568086384497
 20
-137.738534850548
 30
0.0
  0
VERTEX
  5
551
330
54D
100
AcDbEntity
  8
Ebene 1
 62
   179
420
  1709851
370
    18
100
AcDbVertex
100
AcDb2dVertex
 10
69.07399222448498
 20
-137.7809095250166
 30
0.0
  0
SEQEND
  5
552
330
54D
100
AcDbEntity
  8
Ebene 1
370
    18
  0
POLYLINE
  5
553
330
483
100
AcDbEntity
  8
Ebene 1
 62
   179
420
  1709851
370
    18
100
AcDb2dPolyline
 66
     1
 10
0.0
 20
0.0
 30
0.0
  0
VERTEX
  5
554
330
553
100
AcDbEntity
  8
Ebene 1
 62
   179
420
  1709851
370
    18
100
AcDbVertex
100
AcDb2dVertex
 10
69.98401419691372
 20
-137.5480210702137
 30
0.0
  0
VERTEX
  5
555
330
553
100
AcDbEntity
  8
Ebene 1
 62
   179
420
  1709851
370
    18
100
AcDbVertex
100
AcDb2dVertex
 10
69.22213133035072
 20
-137.5480210702137
 30
0.0
  0
SEQEND
  5
556
330
553
100
AcDbEntity
  8
Ebene 1
370
    18
  0
POLYLINE
  5
557
330
483
100
AcDbEntity
  8
Ebene 1
 62
   179
420
  1709851
370
    18
100
AcDb2dPolyline
 66
     1
 10
0.0
 20
0.0
 30
0.0
  0
VERTEX
  5
558
330
557
100
AcDbEntity
  8
Ebene 1
 62
   179
420
  1709851
370
    18
100
AcDbVertex
100
AcDb2dVertex
 10
69.07399222448498
 20
-137.7809095250166
 30
0.0
  0
VERTEX
  5
559
330
557
100
AcDbEntity
  8
Ebene 1
 62
   179
420
  1709851
370
    18
100
AcDbVertex
100
AcDb2dVertex
 10
69.98401419691372
 20
-137.7809095250166
 30
0.0
  0
SEQEND
  5
55A
330
557
100
AcDbEntity
  8
Ebene 1
370
    18
  0
POLYLINE
  5
55B
330
483
100
AcDbEntity
  8
Ebene 1
 62
   179
420
  1709851
370
    18
100
AcDb2dPolyline
 66
     1
 10
0.0
 20
0.0
 30
0.0
  0
VERTEX
  5
55C
330
55B
100
AcDbEntity
  8
Ebene 1
 62
   179
420
  1709851
370
    18
100
AcDbVertex
100
AcDb2dVertex
 10
69.01043021278211
 20
-137.3364922074194
 30
0.0
  0
VERTEX
  5
55D
330
55B
100
AcDbEntity
  8
Ebene 1
 62
   179
420
  1709851
370
    18
100
AcDbVertex
100
AcDb2dVertex
 10
69.0316175500164
 20
-135.3889797296076
 30
0.0
  0
SEQEND
  5
55E
330
55B
100
AcDbEntity
  8
Ebene 1
370
    18
  0
POLYLINE
  5
55F
330
483
100
AcDbEntity
  8
Ebene 1
 62
   179
420
  1709851
370
    18
100
AcDb2dPolyline
 66
     1
 10
0.0
 20
0.0
 30
0.0
  0
VERTEX
  5
560
330
55F
100
AcDbEntity
  8
Ebene 1
 62
   179
420
  1709851
370
    18
100
AcDbVertex
100
AcDb2dVertex
 10
68.77754175797922
 20
-135.3889797296076
 30
0.0
  0
VERTEX
  5
561
330
55F
100
AcDbEntity
  8
Ebene 1
 62
   179
420
  1709851
370
    18
100
AcDbVertex
100
AcDb2dVertex
 10
68.77754175797922
 20
-137.4632717212766
 30
0.0
  0
SEQEND
  5
562
330
55F
100
AcDbEntity
  8
Ebene 1
370
    18
  0
POLYLINE
  5
563
330
483
100
AcDbEntity
  8
Ebene 1
 62
   179
420
  1709851
370
    18
100
AcDb2dPolyline
 66
     1
 10
0.0
 20
0.0
 30
0.0
  0
VERTEX
  5
564
330
563
100
AcDbEntity
  8
Ebene 1
 62
   179
420
  1709851
370
    18
100
AcDbVertex
100
AcDb2dVertex
 10
69.01043021278211
 20
-137.3364922074194
 30
0.0
  0
VERTEX
  5
565
330
563
100
AcDbEntity
  8
Ebene 1
 62
   179
420
  1709851
370
    18
100
AcDbVertex
100
AcDb2dVertex
 10
69.05280488725069
 20
-137.4632717212766
 30
0.0
  0
VERTEX
  5
566
330
563
100
AcDbEntity
  8
Ebene 1
 62
   179
420
  1709851
370
    18
100
AcDbVertex
100
AcDb2dVertex
 10
69.15856931864786
 20
-137.5270059877537
 30
0.0
  0
VERTEX
  5
567
330
563
100
AcDbEntity
  8
Ebene 1
 62
   179
420
  1709851
370
    18
100
AcDbVertex
100
AcDb2dVertex
 10
69.22213133035072
 20
-137.5480210702137
 30
0.0
  0
SEQEND
  5
568
330
563
100
AcDbEntity
  8
Ebene 1
370
    18
  0
POLYLINE
  5
569
330
483
100
AcDbEntity
  8
Ebene 1
 62
   179
420
  1709851
370
    18
100
AcDb2dPolyline
 66
     1
 10
0.0
 20
0.0
 30
0.0
  0
VERTEX
  5
56A
330
569
100
AcDbEntity
  8
Ebene 1
 62
   179
420
  1709851
370
    18
100
AcDbVertex
100
AcDb2dVertex
 10
69.0316175500164
 20
-135.3889797296076
 30
0.0
  0
VERTEX
  5
56B
330
569
100
AcDbEntity
  8
Ebene 1
 62
   179
420
  1709851
370
    18
100
AcDbVertex
100
AcDb2dVertex
 10
68.77754175797922
 20
-135.3889797296076
 30
0.0
  0
SEQEND
  5
56C
330
569
100
AcDbEntity
  8
Ebene 1
370
    18
  0
POLYLINE
  5
56D
330
483
100
AcDbEntity
  8
Ebene 1
 62
   179
420
  1709851
370
    18
100
AcDb2dPolyline
 66
     1
 10
0.0
 20
0.0
 30
0.0
  0
VERTEX
  5
56E
330
56D
100
AcDbEntity
  8
Ebene 1
 62
   179
420
  1709851
370
    18
100
AcDbVertex
100
AcDb2dVertex
 10
71.25404864755107
 20
-137.7809095250166
 30
0.0
  0
VERTEX
  5
56F
330
56D
100
AcDbEntity
  8
Ebene 1
 62
   179
420
  1709851
370
    18
100
AcDbVertex
100
AcDb2dVertex
 10
71.10590954168534
 20
-137.717519768088
 30
0.0
  0
VERTEX
  5
570
330
56D
100
AcDbEntity
  8
Ebene 1
 62
   179
420
  1709851
370
    18
100
AcDbVertex
100
AcDb2dVertex
 10
70.9365830985853
 20
-137.738534850548
 30
0.0
  0
VERTEX
  5
571
330
56D
100
AcDbEntity
  8
Ebene 1
 62
   179
420
  1709851
370
    18
100
AcDbVertex
100
AcDb2dVertex
 10
70.89420842411673
 20
-137.7809095250166
 30
0.0
  0
SEQEND
  5
572
330
56D
100
AcDbEntity
  8
Ebene 1
370
    18
  0
POLYLINE
  5
573
330
483
100
AcDbEntity
  8
Ebene 1
 62
   179
420
  1709851
370
    18
100
AcDb2dPolyline
 66
     1
 10
0.0
 20
0.0
 30
0.0
  0
VERTEX
  5
574
330
573
100
AcDbEntity
  8
Ebene 1
 62
   179
420
  1709851
370
    18
100
AcDbVertex
100
AcDb2dVertex
 10
71.27523598478535
 20
-127.5152139980691
 30
0.0
  0
VERTEX
  5
575
330
573
100
AcDbEntity
  8
Ebene 1
 62
   179
420
  1709851
370
    18
100
AcDbVertex
100
AcDb2dVertex
 10
71.06353486721676
 20
-127.6209784294663
 30
0.0
  0
VERTEX
  5
576
330
573
100
AcDbEntity
  8
Ebene 1
 62
   179
420
  1709851
370
    18
100
AcDbVertex
100
AcDb2dVertex
 10
70.9365830985853
 20
-127.7901326177921
 30
0.0
  0
VERTEX
  5
577
330
573
100
AcDbEntity
  8
Ebene 1
 62
   179
420
  1709851
370
    18
100
AcDbVertex
100
AcDb2dVertex
 10
70.87302108688245
 20
-128.0020059901349
 30
0.0
  0
VERTEX
  5
578
330
573
100
AcDbEntity
  8
Ebene 1
 62
   179
420
  1709851
370
    18
100
AcDbVertex
100
AcDb2dVertex
 10
70.89420842411673
 20
-128.2345499353893
 30
0.0
  0
VERTEX
  5
579
330
573
100
AcDbEntity
  8
Ebene 1
 62
   179
420
  1709851
370
    18
100
AcDbVertex
100
AcDb2dVertex
 10
70.97895777305388
 20
-128.4250637157236
 30
0.0
  0
VERTEX
  5
57A
330
573
100
AcDbEntity
  8
Ebene 1
 62
   179
420
  1709851
370
    18
100
AcDbVertex
100
AcDb2dVertex
 10
71.14828421615391
 20
-128.5945624135979
 30
0.0
  0
VERTEX
  5
57B
330
573
100
AcDbEntity
  8
Ebene 1
 62
   179
420
  1709851
370
    18
100
AcDbVertex
100
AcDb2dVertex
 10
71.27523598478535
 20
-128.6369370880665
 30
0.0
  0
SEQEND
  5
57C
330
573
100
AcDbEntity
  8
Ebene 1
370
    18
  0
POLYLINE
  5
57D
330
483
100
AcDbEntity
  8
Ebene 1
 62
   179
420
  1709851
370
    18
100
AcDb2dPolyline
 66
     1
 10
0.0
 20
0.0
 30
0.0
  0
VERTEX
  5
57E
330
57D
100
AcDbEntity
  8
Ebene 1
 62
   179
420
  1709851
370
    18
100
AcDbVertex
100
AcDb2dVertex
 10
71.27523598478535
 20
-131.6000637149299
 30
0.0
  0
VERTEX
  5
57F
330
57D
100
AcDbEntity
  8
Ebene 1
 62
   179
420
  1709851
370
    18
100
AcDbVertex
100
AcDb2dVertex
 10
71.12709687891962
 20
-131.663797981407
 30
0.0
  0
VERTEX
  5
580
330
57D
100
AcDbEntity
  8
Ebene 1
 62
   179
420
  1709851
370
    18
100
AcDbVertex
100
AcDb2dVertex
 10
71.02133244752245
 20
-131.7905774952642
 30
0.0
  0
VERTEX
  5
581
330
57D
100
AcDbEntity
  8
Ebene 1
 62
   179
420
  1709851
370
    18
100
AcDbVertex
100
AcDb2dVertex
 10
71.00014511028816
 20
-131.8966864362099
 30
0.0
  0
SEQEND
  5
582
330
57D
100
AcDbEntity
  8
Ebene 1
370
    18
  0
POLYLINE
  5
583
330
483
100
AcDbEntity
  8
Ebene 1
 62
   179
420
  1709851
370
    18
100
AcDb2dPolyline
 66
     1
 10
0.0
 20
0.0
 30
0.0
  0
VERTEX
  5
584
330
583
100
AcDbEntity
  8
Ebene 1
 62
   179
420
  1709851
370
    18
100
AcDbVertex
100
AcDb2dVertex
 10
71.00014511028816
 20
-131.8966864362099
 30
0.0
  0
VERTEX
  5
585
330
583
100
AcDbEntity
  8
Ebene 1
 62
   179
420
  1709851
370
    18
100
AcDbVertex
100
AcDb2dVertex
 10
71.00014511028816
 20
-135.1350761923447
 30
0.0
  0
SEQEND
  5
586
330
583
100
AcDbEntity
  8
Ebene 1
370
    18
  0
POLYLINE
  5
587
330
483
100
AcDbEntity
  8
Ebene 1
 62
   179
420
  1709851
370
    18
100
AcDb2dPolyline
 66
     1
 10
0.0
 20
0.0
 30
0.0
  0
VERTEX
  5
588
330
587
100
AcDbEntity
  8
Ebene 1
 62
   179
420
  1709851
370
    18
100
AcDbVertex
100
AcDb2dVertex
 10
71.00014511028816
 20
-135.1350761923447
 30
0.0
  0
VERTEX
  5
589
330
587
100
AcDbEntity
  8
Ebene 1
 62
   179
420
  1709851
370
    18
100
AcDbVertex
100
AcDb2dVertex
 10
71.04234752998248
 20
-135.2832152982105
 30
0.0
  0
VERTEX
  5
58A
330
587
100
AcDbEntity
  8
Ebene 1
 62
   179
420
  1709851
370
    18
100
AcDbVertex
100
AcDb2dVertex
 10
71.16947155338819
 20
-135.4103393216162
 30
0.0
  0
VERTEX
  5
58B
330
587
100
AcDbEntity
  8
Ebene 1
 62
   179
420
  1709851
370
    18
100
AcDbVertex
100
AcDb2dVertex
 10
71.27523598478535
 20
-135.4313544040762
 30
0.0
  0
SEQEND
  5
58C
330
587
100
AcDbEntity
  8
Ebene 1
370
    18
  0
POLYLINE
  5
58D
330
483
100
AcDbEntity
  8
Ebene 1
 62
   179
420
  1709851
370
    18
100
AcDb2dPolyline
 66
     1
 10
0.0
 20
0.0
 30
0.0
  0
VERTEX
  5
58E
330
58D
100
AcDbEntity
  8
Ebene 1
 62
   179
420
  1709851
370
    18
100
AcDbVertex
100
AcDb2dVertex
 10
71.80440265131973
 20
-135.4947441610048
 30
0.0
  0
VERTEX
  5
58F
330
58D
100
AcDbEntity
  8
Ebene 1
 62
   179
420
  1709851
370
    18
100
AcDbVertex
100
AcDb2dVertex
 10
71.76202797685116
 20
-135.346605055139
 30
0.0
  0
VERTEX
  5
590
330
58D
100
AcDbEntity
  8
Ebene 1
 62
   179
420
  1709851
370
    18
100
AcDbVertex
100
AcDb2dVertex
 10
71.74084063961688
 20
-135.325589972679
 30
0.0
  0
SEQEND
  5
591
330
58D
100
AcDbEntity
  8
Ebene 1
370
    18
  0
POLYLINE
  5
592
330
483
100
AcDbEntity
  8
Ebene 1
 62
   179
420
  1709851
370
    18
100
AcDb2dPolyline
 66
     1
 10
0.0
 20
0.0
 30
0.0
  0
VERTEX
  5
593
330
592
100
AcDbEntity
  8
Ebene 1
 62
   179
420
  1709851
370
    18
100
AcDbVertex
100
AcDb2dVertex
 10
71.46574976511968
 20
-137.5480210702137
 30
0.0
  0
VERTEX
  5
594
330
592
100
AcDbEntity
  8
Ebene 1
 62
   179
420
  1709851
370
    18
100
AcDbVertex
100
AcDb2dVertex
 10
71.55049911405682
 20
-137.5056463957451
 30
0.0
  0
VERTEX
  5
595
330
592
100
AcDbEntity
  8
Ebene 1
 62
   179
420
  1709851
370
    18
100
AcDbVertex
100
AcDb2dVertex
 10
71.57151419651684
 20
-137.4422566388165
 30
0.0
  0
SEQEND
  5
596
330
592
100
AcDbEntity
  8
Ebene 1
370
    18
  0
POLYLINE
  5
597
330
483
100
AcDbEntity
  8
Ebene 1
 62
   179
420
  1709851
370
    18
100
AcDb2dPolyline
 66
     1
 10
0.0
 20
0.0
 30
0.0
  0
VERTEX
  5
598
330
597
100
AcDbEntity
  8
Ebene 1
 62
   179
420
  1709851
370
    18
100
AcDbVertex
100
AcDb2dVertex
 10
71.27523598478535
 20
-135.897131313682
 30
0.0
  0
VERTEX
  5
599
330
597
100
AcDbEntity
  8
Ebene 1
 62
   179
420
  1709851
370
    18
100
AcDbVertex
100
AcDb2dVertex
 10
71.06353486721676
 20
-136.0239108275392
 30
0.0
  0
VERTEX
  5
59A
330
597
100
AcDbEntity
  8
Ebene 1
 62
   179
420
  1709851
370
    18
100
AcDbVertex
100
AcDb2dVertex
 10
70.9365830985853
 20
-136.1934095254135
 30
0.0
  0
VERTEX
  5
59B
330
597
100
AcDbEntity
  8
Ebene 1
 62
   179
420
  1709851
370
    18
100
AcDbVertex
100
AcDb2dVertex
 10
70.87302108688245
 20
-136.4049383882078
 30
0.0
  0
VERTEX
  5
59C
330
597
100
AcDbEntity
  8
Ebene 1
 62
   179
420
  1709851
370
    18
100
AcDbVertex
100
AcDb2dVertex
 10
70.89420842411673
 20
-136.6378268430107
 30
0.0
  0
VERTEX
  5
59D
330
597
100
AcDbEntity
  8
Ebene 1
 62
   179
420
  1709851
370
    18
100
AcDbVertex
100
AcDb2dVertex
 10
70.97895777305388
 20
-136.828340623345
 30
0.0
  0
VERTEX
  5
59E
330
597
100
AcDbEntity
  8
Ebene 1
 62
   179
420
  1709851
370
    18
100
AcDbVertex
100
AcDb2dVertex
 10
71.14828421615391
 20
-136.9764797292108
 30
0.0
  0
VERTEX
  5
59F
330
597
100
AcDbEntity
  8
Ebene 1
 62
   179
420
  1709851
370
    18
100
AcDbVertex
100
AcDb2dVertex
 10
71.27523598478535
 20
-137.0402139956879
 30
0.0
  0
SEQEND
  5
5A0
330
597
100
AcDbEntity
  8
Ebene 1
370
    18
  0
POLYLINE
  5
5A1
330
483
100
AcDbEntity
  8
Ebene 1
 62
   179
420
  1709851
370
    18
100
AcDb2dPolyline
 66
     1
 10
0.0
 20
0.0
 30
0.0
  0
VERTEX
  5
5A2
330
5A1
100
AcDbEntity
  8
Ebene 1
 62
   179
420
  1709851
370
    18
100
AcDbVertex
100
AcDb2dVertex
 10
71.57151419651684
 20
-137.2517428584822
 30
0.0
  0
VERTEX
  5
5A3
330
5A1
100
AcDbEntity
  8
Ebene 1
 62
   179
420
  1709851
370
    18
100
AcDbVertex
100
AcDb2dVertex
 10
71.57151419651684
 20
-137.4422566388165
 30
0.0
  0
SEQEND
  5
5A4
330
5A1
100
AcDbEntity
  8
Ebene 1
370
    18
  0
POLYLINE
  5
5A5
330
483
100
AcDbEntity
  8
Ebene 1
 62
   179
420
  1709851
370
    18
100
AcDb2dPolyline
 66
     1
 10
0.0
 20
0.0
 30
0.0
  0
VERTEX
  5
5A6
330
5A5
100
AcDbEntity
  8
Ebene 1
 62
   179
420
  1709851
370
    18
100
AcDbVertex
100
AcDb2dVertex
 10
71.27523598478535
 20
-137.420897046808
 30
0.0
  0
VERTEX
  5
5A7
330
5A5
100
AcDbEntity
  8
Ebene 1
 62
   179
420
  1709851
370
    18
100
AcDbVertex
100
AcDb2dVertex
 10
71.50812443958824
 20
-136.9130899722821
 30
0.0
  0
SEQEND
  5
5A8
330
5A5
100
AcDbEntity
  8
Ebene 1
370
    18
  0
POLYLINE
  5
5A9
330
483
100
AcDbEntity
  8
Ebene 1
 62
   179
420
  1709851
370
    18
100
AcDb2dPolyline
 66
     1
 10
0.0
 20
0.0
 30
0.0
  0
VERTEX
  5
5AA
330
5A9
100
AcDbEntity
  8
Ebene 1
 62
   179
420
  1709851
370
    18
100
AcDbVertex
100
AcDb2dVertex
 10
71.46574976511968
 20
-137.4632717212766
 30
0.0
  0
VERTEX
  5
5AB
330
5A9
100
AcDbEntity
  8
Ebene 1
 62
   179
420
  1709851
370
    18
100
AcDbVertex
100
AcDb2dVertex
 10
71.74084063961688
 20
-136.8707152978136
 30
0.0
  0
SEQEND
  5
5AC
330
5A9
100
AcDbEntity
  8
Ebene 1
370
    18
  0
POLYLINE
  5
5AD
330
483
100
AcDbEntity
  8
Ebene 1
 62
   179
420
  1709851
370
    18
100
AcDb2dPolyline
 66
     1
 10
0.0
 20
0.0
 30
0.0
  0
VERTEX
  5
5AE
330
5AD
100
AcDbEntity
  8
Ebene 1
 62
   179
420
  1709851
370
    18
100
AcDbVertex
100
AcDb2dVertex
 10
71.80440265131973
 20
-137.4846313132851
 30
0.0
  0
VERTEX
  5
5AF
330
5AD
100
AcDbEntity
  8
Ebene 1
 62
   179
420
  1709851
370
    18
100
AcDbVertex
100
AcDb2dVertex
 10
71.80440265131973
 20
-135.4947441610048
 30
0.0
  0
SEQEND
  5
5B0
330
5AD
100
AcDbEntity
  8
Ebene 1
370
    18
  0
POLYLINE
  5
5B1
330
483
100
AcDbEntity
  8
Ebene 1
 62
   179
420
  1709851
370
    18
100
AcDb2dPolyline
 66
     1
 10
0.0
 20
0.0
 30
0.0
  0
VERTEX
  5
5B2
330
5B1
100
AcDbEntity
  8
Ebene 1
 62
   179
420
  1709851
370
    18
100
AcDbVertex
100
AcDb2dVertex
 10
71.46574976511968
 20
-127.0704521709234
 30
0.0
  0
VERTEX
  5
5B3
330
5B1
100
AcDbEntity
  8
Ebene 1
 62
   179
420
  1709851
370
    18
100
AcDbVertex
100
AcDb2dVertex
 10
71.74084063961688
 20
-127.6633531039349
 30
0.0
  0
VERTEX
  5
5B4
330
5B1
100
AcDbEntity
  8
Ebene 1
 62
   179
420
  1709851
370
    18
100
AcDbVertex
100
AcDb2dVertex
 10
71.74084063961688
 20
-136.8707152978136
 30
0.0
  0
SEQEND
  5
5B5
330
5B1
100
AcDbEntity
  8
Ebene 1
370
    18
  0
POLYLINE
  5
5B6
330
483
100
AcDbEntity
  8
Ebene 1
 62
   179
420
  1709851
370
    18
100
AcDb2dPolyline
 66
     1
 10
0.0
 20
0.0
 30
0.0
  0
VERTEX
  5
5B7
330
5B6
100
AcDbEntity
  8
Ebene 1
 62
   179
420
  1709851
370
    18
100
AcDbVertex
100
AcDb2dVertex
 10
71.46574976511968
 20
-127.0704521709234
 30
0.0
  0
VERTEX
  5
5B8
330
5B6
100
AcDbEntity
  8
Ebene 1
 62
   179
420
  1709851
370
    18
100
AcDbVertex
100
AcDb2dVertex
 10
71.27523598478535
 20
-127.0704521709234
 30
0.0
  0
SEQEND
  5
5B9
330
5B6
100
AcDbEntity
  8
Ebene 1
370
    18
  0
POLYLINE
  5
5BA
330
483
100
AcDbEntity
  8
Ebene 1
 62
   179
420
  1709851
370
    18
100
AcDb2dPolyline
 66
     1
 10
0.0
 20
0.0
 30
0.0
  0
VERTEX
  5
5BB
330
5BA
100
AcDbEntity
  8
Ebene 1
 62
   179
420
  1709851
370
    18
100
AcDbVertex
100
AcDb2dVertex
 10
71.27523598478535
 20
-127.1128268453919
 30
0.0
  0
VERTEX
  5
5BC
330
5BA
100
AcDbEntity
  8
Ebene 1
 62
   179
420
  1709851
370
    18
100
AcDbVertex
100
AcDb2dVertex
 10
71.50812443958824
 20
-127.6209784294663
 30
0.0
  0
SEQEND
  5
5BD
330
5BA
100
AcDbEntity
  8
Ebene 1
370
    18
  0
POLYLINE
  5
5BE
330
483
100
AcDbEntity
  8
Ebene 1
 62
   179
420
  1709851
370
    18
100
AcDb2dPolyline
 66
     1
 10
0.0
 20
0.0
 30
0.0
  0
VERTEX
  5
5BF
330
5BE
100
AcDbEntity
  8
Ebene 1
 62
   179
420
  1709851
370
    18
100
AcDbVertex
100
AcDb2dVertex
 10
71.50812443958824
 20
-127.6209784294663
 30
0.0
  0
VERTEX
  5
5C0
330
5BE
100
AcDbEntity
  8
Ebene 1
 62
   179
420
  1709851
370
    18
100
AcDbVertex
100
AcDb2dVertex
 10
71.50812443958824
 20
-136.9130899722821
 30
0.0
  0
SEQEND
  5
5C1
330
5BE
100
AcDbEntity
  8
Ebene 1
370
    18
  0
POLYLINE
  5
5C2
330
483
100
AcDbEntity
  8
Ebene 1
 62
   179
420
  1709851
370
    18
100
AcDb2dPolyline
 66
     1
 10
0.0
 20
0.0
 30
0.0
  0
VERTEX
  5
5C3
330
5C2
100
AcDbEntity
  8
Ebene 1
 62
   179
420
  1709851
370
    18
100
AcDbVertex
100
AcDb2dVertex
 10
71.27523598478535
 20
-137.4632717212766
 30
0.0
  0
VERTEX
  5
5C4
330
5C2
100
AcDbEntity
  8
Ebene 1
 62
   179
420
  1709851
370
    18
100
AcDbVertex
100
AcDb2dVertex
 10
71.27523598478535
 20
-127.0704521709234
 30
0.0
  0
SEQEND
  5
5C5
330
5C2
100
AcDbEntity
  8
Ebene 1
370
    18
  0
POLYLINE
  5
5C6
330
483
100
AcDbEntity
  8
Ebene 1
 62
   179
420
  1709851
370
    18
100
AcDb2dPolyline
 66
     1
 10
0.0
 20
0.0
 30
0.0
  0
VERTEX
  5
5C7
330
5C6
100
AcDbEntity
  8
Ebene 1
 62
   179
420
  1709851
370
    18
100
AcDbVertex
100
AcDb2dVertex
 10
71.46574976511968
 20
-137.5480210702137
 30
0.0
  0
VERTEX
  5
5C8
330
5C6
100
AcDbEntity
  8
Ebene 1
 62
   179
420
  1709851
370
    18
100
AcDbVertex
100
AcDb2dVertex
 10
71.25404864755107
 20
-137.5480210702137
 30
0.0
  0
SEQEND
  5
5C9
330
5C6
100
AcDbEntity
  8
Ebene 1
370
    18
  0
POLYLINE
  5
5CA
330
483
100
AcDbEntity
  8
Ebene 1
 62
   179
420
  1709851
370
    18
100
AcDb2dPolyline
 66
     1
 10
0.0
 20
0.0
 30
0.0
  0
VERTEX
  5
5CB
330
5CA
100
AcDbEntity
  8
Ebene 1
 62
   179
420
  1709851
370
    18
100
AcDbVertex
100
AcDb2dVertex
 10
71.25404864755107
 20
-137.5480210702137
 30
0.0
  0
VERTEX
  5
5CC
330
5CA
100
AcDbEntity
  8
Ebene 1
 62
   179
420
  1709851
370
    18
100
AcDbVertex
100
AcDb2dVertex
 10
71.10590954168534
 20
-137.4846313132851
 30
0.0
  0
VERTEX
  5
5CD
330
5CA
100
AcDbEntity
  8
Ebene 1
 62
   179
420
  1709851
370
    18
100
AcDbVertex
100
AcDb2dVertex
 10
70.9365830985853
 20
-137.5056463957451
 30
0.0
  0
VERTEX
  5
5CE
330
5CA
100
AcDbEntity
  8
Ebene 1
 62
   179
420
  1709851
370
    18
100
AcDbVertex
100
AcDb2dVertex
 10
70.89420842411673
 20
-137.5480210702137
 30
0.0
  0
SEQEND
  5
5CF
330
5CA
100
AcDbEntity
  8
Ebene 1
370
    18
  0
POLYLINE
  5
5D0
330
483
100
AcDbEntity
  8
Ebene 1
 62
   179
420
  1709851
370
    18
100
AcDb2dPolyline
 66
     1
 10
0.0
 20
0.0
 30
0.0
  0
VERTEX
  5
5D1
330
5D0
100
AcDbEntity
  8
Ebene 1
 62
   179
420
  1709851
370
    18
100
AcDbVertex
100
AcDb2dVertex
 10
70.89420842411673
 20
-137.5480210702137
 30
0.0
  0
VERTEX
  5
5D2
330
5D0
100
AcDbEntity
  8
Ebene 1
 62
   179
420
  1709851
370
    18
100
AcDbVertex
100
AcDb2dVertex
 10
69.98401419691372
 20
-137.5480210702137
 30
0.0
  0
SEQEND
  5
5D3
330
5D0
100
AcDbEntity
  8
Ebene 1
370
    18
  0
POLYLINE
  5
5D4
330
483
100
AcDbEntity
  8
Ebene 1
 62
   179
420
  1709851
370
    18
100
AcDb2dPolyline
 66
     1
 10
0.0
 20
0.0
 30
0.0
  0
VERTEX
  5
5D5
330
5D4
100
AcDbEntity
  8
Ebene 1
 62
   179
420
  1709851
370
    18
100
AcDbVertex
100
AcDb2dVertex
 10
69.98401419691372
 20
-137.7809095250166
 30
0.0
  0
VERTEX
  5
5D6
330
5D4
100
AcDbEntity
  8
Ebene 1
 62
   179
420
  1709851
370
    18
100
AcDbVertex
100
AcDb2dVertex
 10
70.89420842411673
 20
-137.7809095250166
 30
0.0
  0
SEQEND
  5
5D7
330
5D4
100
AcDbEntity
  8
Ebene 1
370
    18
  0
POLYLINE
  5
5D8
330
483
100
AcDbEntity
  8
Ebene 1
 62
   179
420
  1709851
370
    18
100
AcDb2dPolyline
 66
     1
 10
0.0
 20
0.0
 30
0.0
  0
VERTEX
  5
5D9
330
5D8
100
AcDbEntity
  8
Ebene 1
 62
   179
420
  1709851
370
    18
100
AcDbVertex
100
AcDb2dVertex
 10
71.25404864755107
 20
-137.7809095250166
 30
0.0
  0
VERTEX
  5
5DA
330
5D8
100
AcDbEntity
  8
Ebene 1
 62
   179
420
  1709851
370
    18
100
AcDbVertex
100
AcDb2dVertex
 10
71.50812443958824
 20
-137.7809095250166
 30
0.0
  0
SEQEND
  5
5DB
330
5D8
100
AcDbEntity
  8
Ebene 1
370
    18
  0
POLYLINE
  5
5DC
330
483
100
AcDbEntity
  8
Ebene 1
 62
   179
420
  1709851
370
    18
100
AcDb2dPolyline
 66
     1
 10
0.0
 20
0.0
 30
0.0
  0
VERTEX
  5
5DD
330
5DC
100
AcDbEntity
  8
Ebene 1
 62
   179
420
  1709851
370
    18
100
AcDbVertex
100
AcDb2dVertex
 10
71.50812443958824
 20
-137.7809095250166
 30
0.0
  0
VERTEX
  5
5DE
330
5DC
100
AcDbEntity
  8
Ebene 1
 62
   179
420
  1709851
370
    18
100
AcDbVertex
100
AcDb2dVertex
 10
71.656263545454
 20
-137.738534850548
 30
0.0
  0
VERTEX
  5
5DF
330
5DC
100
AcDbEntity
  8
Ebene 1
 62
   179
420
  1709851
370
    18
100
AcDbVertex
100
AcDb2dVertex
 10
71.76202797685116
 20
-137.6327704191508
 30
0.0
  0
VERTEX
  5
5E0
330
5DC
100
AcDbEntity
  8
Ebene 1
 62
   179
420
  1709851
370
    18
100
AcDbVertex
100
AcDb2dVertex
 10
71.80440265131973
 20
-137.4846313132851
 30
0.0
  0
SEQEND
  5
5E1
330
5DC
100
AcDbEntity
  8
Ebene 1
370
    18
  0
POLYLINE
  5
5E2
330
483
100
AcDbEntity
  8
Ebene 1
 62
   179
420
  1709851
370
    18
100
AcDb2dPolyline
 66
     1
 10
0.0
 20
0.0
 30
0.0
  0
VERTEX
  5
5E3
330
5E2
100
AcDbEntity
  8
Ebene 1
 62
   179
420
  1709851
370
    18
100
AcDbVertex
100
AcDb2dVertex
 10
71.46574976511968
 20
-137.4632717212766
 30
0.0
  0
VERTEX
  5
5E4
330
5E2
100
AcDbEntity
  8
Ebene 1
 62
   179
420
  1709851
370
    18
100
AcDbVertex
100
AcDb2dVertex
 10
71.27523598478535
 20
-137.4632717212766
 30
0.0
  0
SEQEND
  5
5E5
330
5E2
100
AcDbEntity
  8
Ebene 1
370
    18
  0
POLYLINE
  5
5E6
330
483
100
AcDbEntity
  8
Ebene 1
 62
   179
420
  1709851
370
    18
100
AcDb2dPolyline
 66
     1
 10
0.0
 20
0.0
 30
0.0
  0
VERTEX
  5
5E7
330
5E6
100
AcDbEntity
  8
Ebene 1
 62
   179
420
  1709851
370
    18
100
AcDbVertex
100
AcDb2dVertex
 10
79.25511065726955
 20
-94.36788327718928
 30
0.0
  0
VERTEX
  5
5E8
330
5E6
100
AcDbEntity
  8
Ebene 1
 62
   179
420
  1709851
370
    18
100
AcDbVertex
100
AcDb2dVertex
 10
79.25511065726955
 20
-65.771868201873
 30
0.0
  0
SEQEND
  5
5E9
330
5E6
100
AcDbEntity
  8
Ebene 1
370
    18
  0
POLYLINE
  5
5EA
330
483
100
AcDbEntity
  8
Ebene 1
 62
   179
420
  1709851
370
    18
100
AcDb2dPolyline
 66
     1
 10
0.0
 20
0.0
 30
0.0
  0
VERTEX
  5
5EB
330
5EA
100
AcDbEntity
  8
Ebene 1
 62
   179
420
  1709851
370
    18
100
AcDbVertex
100
AcDb2dVertex
 10
70.9365830985853
 20
-129.271868185998
 30
0.0
  0
VERTEX
  5
5EC
330
5EA
100
AcDbEntity
  8
Ebene 1
 62
   179
420
  1709851
370
    18
100
AcDbVertex
100
AcDb2dVertex
 10
73.34952797645428
 20
-129.271868185998
 30
0.0
  0
SEQEND
  5
5ED
330
5EA
100
AcDbEntity
  8
Ebene 1
370
    18
  0
POLYLINE
  5
5EE
330
483
100
AcDbEntity
  8
Ebene 1
 62
   179
420
  1709851
370
    18
100
AcDb2dPolyline
 66
     1
 10
0.0
 20
0.0
 30
0.0
  0
VERTEX
  5
5EF
330
5EE
100
AcDbEntity
  8
Ebene 1
 62
   179
420
  1709851
370
    18
100
AcDbVertex
100
AcDb2dVertex
 10
73.34952797645428
 20
-135.2622002157504
 30
0.0
  0
VERTEX
  5
5F0
330
5EE
100
AcDbEntity
  8
Ebene 1
 62
   179
420
  1709851
370
    18
100
AcDbVertex
100
AcDb2dVertex
 10
70.9365830985853
 20
-135.2622002157504
 30
0.0
  0
SEQEND
  5
5F1
330
5EE
100
AcDbEntity
  8
Ebene 1
370
    18
  0
POLYLINE
  5
5F2
330
483
100
AcDbEntity
  8
Ebene 1
 62
   179
420
  1709851
370
    18
100
AcDb2dPolyline
 66
     1
 10
0.0
 20
0.0
 30
0.0
  0
VERTEX
  5
5F3
330
5F2
100
AcDbEntity
  8
Ebene 1
 62
   179
420
  1709851
370
    18
100
AcDbVertex
100
AcDb2dVertex
 10
71.74084063961688
 20
-117.7573255456475
 30
0.0
  0
VERTEX
  5
5F4
330
5F2
100
AcDbEntity
  8
Ebene 1
 62
   179
420
  1709851
370
    18
100
AcDbVertex
100
AcDb2dVertex
 10
70.87302108688245
 20
-117.7573255456475
 30
0.0
  0
SEQEND
  5
5F5
330
5F2
100
AcDbEntity
  8
Ebene 1
370
    18
  0
POLYLINE
  5
5F6
330
483
100
AcDbEntity
  8
Ebene 1
 62
   179
420
  1709851
370
    18
100
AcDb2dPolyline
 66
     1
 10
0.0
 20
0.0
 30
0.0
  0
VERTEX
  5
5F7
330
5F6
100
AcDbEntity
  8
Ebene 1
 62
   179
420
  1709851
370
    18
100
AcDbVertex
100
AcDb2dVertex
 10
71.74084063961688
 20
-123.7686726578599
 30
0.0
  0
VERTEX
  5
5F8
330
5F6
100
AcDbEntity
  8
Ebene 1
 62
   179
420
  1709851
370
    18
100
AcDbVertex
100
AcDb2dVertex
 10
70.87302108688245
 20
-123.7686726578599
 30
0.0
  0
SEQEND
  5
5F9
330
5F6
100
AcDbEntity
  8
Ebene 1
370
    18
  0
POLYLINE
  5
5FA
330
483
100
AcDbEntity
  8
Ebene 1
 62
   179
420
  1709851
370
    18
100
AcDb2dPolyline
 66
     1
 10
0.0
 20
0.0
 30
0.0
  0
VERTEX
  5
5FB
330
5FA
100
AcDbEntity
  8
Ebene 1
 62
   179
420
  1709851
370
    18
100
AcDbVertex
100
AcDb2dVertex
 10
157.9104301905571
 20
-65.771868201873
 30
0.0
  0
VERTEX
  5
5FC
330
5FA
100
AcDbEntity
  8
Ebene 1
 62
   179
420
  1709851
370
    18
100
AcDbVertex
100
AcDb2dVertex
 10
159.2653862449059
 20
-65.771868201873
 30
0.0
  0
SEQEND
  5
5FD
330
5FA
100
AcDbEntity
  8
Ebene 1
370
    18
  0
POLYLINE
  5
5FE
330
483
100
AcDbEntity
  8
Ebene 1
 62
   179
420
  1709851
370
    18
100
AcDb2dPolyline
 66
     1
 10
0.0
 20
0.0
 30
0.0
  0
VERTEX
  5
5FF
330
5FE
100
AcDbEntity
  8
Ebene 1
 62
   179
420
  1709851
370
    18
100
AcDbVertex
100
AcDb2dVertex
 10
155.8998724653653
 20
-65.771868201873
 30
0.0
  0
VERTEX
  5
600
330
5FE
100
AcDbEntity
  8
Ebene 1
 62
   179
420
  1709851
370
    18
100
AcDbVertex
100
AcDb2dVertex
 10
156.9158311239655
 20
-65.771868201873
 30
0.0
  0
SEQEND
  5
601
330
5FE
100
AcDbEntity
  8
Ebene 1
370
    18
  0
POLYLINE
  5
602
330
483
100
AcDbEntity
  8
Ebene 1
 62
   179
420
  1709851
370
    18
100
AcDb2dPolyline
 66
     1
 10
0.0
 20
0.0
 30
0.0
  0
VERTEX
  5
603
330
602
100
AcDbEntity
  8
Ebene 1
 62
   179
420
  1709851
370
    18
100
AcDbVertex
100
AcDb2dVertex
 10
147.8986382008726
 20
-65.771868201873
 30
0.0
  0
VERTEX
  5
604
330
602
100
AcDbEntity
  8
Ebene 1
 62
   179
420
  1709851
370
    18
100
AcDbVertex
100
AcDb2dVertex
 10
154.9045843796766
 20
-65.771868201873
 30
0.0
  0
SEQEND
  5
605
330
602
100
AcDbEntity
  8
Ebene 1
370
    18
  0
POLYLINE
  5
606
330
483
100
AcDbEntity
  8
Ebene 1
 62
   179
420
  1709851
370
    18
100
AcDb2dPolyline
 66
     1
 10
0.0
 20
0.0
 30
0.0
  0
VERTEX
  5
607
330
606
100
AcDbEntity
  8
Ebene 1
 62
   179
420
  1709851
370
    18
100
AcDbVertex
100
AcDb2dVertex
 10
145.9087510485923
 20
-65.771868201873
 30
0.0
  0
VERTEX
  5
608
330
606
100
AcDbEntity
  8
Ebene 1
 62
   179
420
  1709851
370
    18
100
AcDbVertex
100
AcDb2dVertex
 10
146.9040391342809
 20
-65.771868201873
 30
0.0
  0
SEQEND
  5
609
330
606
100
AcDbEntity
  8
Ebene 1
370
    18
  0
POLYLINE
  5
60A
330
483
100
AcDbEntity
  8
Ebene 1
 62
   179
420
  1709851
370
    18
100
AcDb2dPolyline
 66
     1
 10
0.0
 20
0.0
 30
0.0
  0
VERTEX
  5
60B
330
60A
100
AcDbEntity
  8
Ebene 1
 62
   179
420
  1709851
370
    18
100
AcDbVertex
100
AcDb2dVertex
 10
137.9082058031966
 20
-65.771868201873
 30
0.0
  0
VERTEX
  5
60C
330
60A
100
AcDbEntity
  8
Ebene 1
 62
   179
420
  1709851
370
    18
100
AcDbVertex
100
AcDb2dVertex
 10
144.9141519820006
 20
-65.771868201873
 30
0.0
  0
SEQEND
  5
60D
330
60A
100
AcDbEntity
  8
Ebene 1
370
    18
  0
POLYLINE
  5
60E
330
483
100
AcDbEntity
  8
Ebene 1
 62
   179
420
  1709851
370
    18
100
AcDb2dPolyline
 66
     1
 10
0.0
 20
0.0
 30
0.0
  0
VERTEX
  5
60F
330
60E
100
AcDbEntity
  8
Ebene 1
 62
   179
420
  1709851
370
    18
100
AcDbVertex
100
AcDb2dVertex
 10
135.9183186509163
 20
-65.771868201873
 30
0.0
  0
VERTEX
  5
610
330
60E
100
AcDbEntity
  8
Ebene 1
 62
   179
420
  1709851
370
    18
100
AcDbVertex
100
AcDb2dVertex
 10
136.9129177175079
 20
-65.771868201873
 30
0.0
  0
SEQEND
  5
611
330
60E
100
AcDbEntity
  8
Ebene 1
370
    18
  0
POLYLINE
  5
612
330
483
100
AcDbEntity
  8
Ebene 1
 62
   179
420
  1709851
370
    18
100
AcDb2dPolyline
 66
     1
 10
0.0
 20
0.0
 30
0.0
  0
VERTEX
  5
613
330
612
100
AcDbEntity
  8
Ebene 1
 62
   179
420
  1709851
370
    18
100
AcDbVertex
100
AcDb2dVertex
 10
127.9170843864235
 20
-65.771868201873
 30
0.0
  0
VERTEX
  5
614
330
612
100
AcDbEntity
  8
Ebene 1
 62
   179
420
  1709851
370
    18
100
AcDbVertex
100
AcDb2dVertex
 10
134.9023599923161
 20
-65.771868201873
 30
0.0
  0
SEQEND
  5
615
330
612
100
AcDbEntity
  8
Ebene 1
370
    18
  0
POLYLINE
  5
616
330
483
100
AcDbEntity
  8
Ebene 1
 62
   179
420
  1709851
370
    18
100
AcDb2dPolyline
 66
     1
 10
0.0
 20
0.0
 30
0.0
  0
VERTEX
  5
617
330
616
100
AcDbEntity
  8
Ebene 1
 62
   179
420
  1709851
370
    18
100
AcDbVertex
100
AcDb2dVertex
 10
125.9065266612317
 20
-65.771868201873
 30
0.0
  0
VERTEX
  5
618
330
616
100
AcDbEntity
  8
Ebene 1
 62
   179
420
  1709851
370
    18
100
AcDbVertex
100
AcDb2dVertex
 10
126.9014702373719
 20
-65.771868201873
 30
0.0
  0
SEQEND
  5
619
330
616
100
AcDbEntity
  8
Ebene 1
370
    18
  0
POLYLINE
  5
61A
330
483
100
AcDbEntity
  8
Ebene 1
 62
   179
420
  1709851
370
    18
100
AcDb2dPolyline
 66
     1
 10
0.0
 20
0.0
 30
0.0
  0
VERTEX
  5
61B
330
61A
100
AcDbEntity
  8
Ebene 1
 62
   179
420
  1709851
370
    18
100
AcDbVertex
100
AcDb2dVertex
 10
117.9056369062875
 20
-65.771868201873
 30
0.0
  0
VERTEX
  5
61C
330
61A
100
AcDbEntity
  8
Ebene 1
 62
   179
420
  1709851
370
    18
100
AcDbVertex
100
AcDb2dVertex
 10
124.9115830850916
 20
-65.771868201873
 30
0.0
  0
SEQEND
  5
61D
330
61A
100
AcDbEntity
  8
Ebene 1
370
    18
  0
POLYLINE
  5
61E
330
483
100
AcDbEntity
  8
Ebene 1
 62
   179
420
  1709851
370
    18
100
AcDb2dPolyline
 66
     1
 10
0.0
 20
0.0
 30
0.0
  0
VERTEX
  5
61F
330
61E
100
AcDbEntity
  8
Ebene 1
 62
   179
420
  1709851
370
    18
100
AcDbVertex
100
AcDb2dVertex
 10
115.9157497540072
 20
-65.771868201873
 30
0.0
  0
VERTEX
  5
620
330
61E
100
AcDbEntity
  8
Ebene 1
 62
   179
420
  1709851
370
    18
100
AcDbVertex
100
AcDb2dVertex
 10
116.9106933301473
 20
-65.771868201873
 30
0.0
  0
SEQEND
  5
621
330
61E
100
AcDbEntity
  8
Ebene 1
370
    18
  0
POLYLINE
  5
622
330
483
100
AcDbEntity
  8
Ebene 1
 62
   179
420
  1709851
370
    18
100
AcDb2dPolyline
 66
     1
 10
0.0
 20
0.0
 30
0.0
  0
VERTEX
  5
623
330
622
100
AcDbEntity
  8
Ebene 1
 62
   179
420
  1709851
370
    18
100
AcDbVertex
100
AcDb2dVertex
 10
107.914859999063
 20
-65.771868201873
 30
0.0
  0
VERTEX
  5
624
330
622
100
AcDbEntity
  8
Ebene 1
 62
   179
420
  1709851
370
    18
100
AcDbVertex
100
AcDb2dVertex
 10
114.920806177867
 20
-65.771868201873
 30
0.0
  0
SEQEND
  5
625
330
622
100
AcDbEntity
  8
Ebene 1
370
    18
  0
POLYLINE
  5
626
330
483
100
AcDbEntity
  8
Ebene 1
 62
   179
420
  1709851
370
    18
100
AcDb2dPolyline
 66
     1
 10
0.0
 20
0.0
 30
0.0
  0
VERTEX
  5
627
330
626
100
AcDbEntity
  8
Ebene 1
 62
   179
420
  1709851
370
    18
100
AcDbVertex
100
AcDb2dVertex
 10
105.9039577643226
 20
-65.771868201873
 30
0.0
  0
VERTEX
  5
628
330
626
100
AcDbEntity
  8
Ebene 1
 62
   179
420
  1709851
370
    18
100
AcDbVertex
100
AcDb2dVertex
 10
106.9199164229228
 20
-65.771868201873
 30
0.0
  0
SEQEND
  5
629
330
626
100
AcDbEntity
  8
Ebene 1
370
    18
  0
POLYLINE
  5
62A
330
483
100
AcDbEntity
  8
Ebene 1
 62
   179
420
  1709851
370
    18
100
AcDb2dPolyline
 66
     1
 10
0.0
 20
0.0
 30
0.0
  0
VERTEX
  5
62B
330
62A
100
AcDbEntity
  8
Ebene 1
 62
   179
420
  1709851
370
    18
100
AcDbVertex
100
AcDb2dVertex
 10
97.90289575460415
 20
-65.771868201873
 30
0.0
  0
VERTEX
  5
62C
330
62A
100
AcDbEntity
  8
Ebene 1
 62
   179
420
  1709851
370
    18
100
AcDbVertex
100
AcDb2dVertex
 10
104.9090141881825
 20
-65.771868201873
 30
0.0
  0
SEQEND
  5
62D
330
62A
100
AcDbEntity
  8
Ebene 1
370
    18
  0
POLYLINE
  5
62E
330
483
100
AcDbEntity
  8
Ebene 1
 62
   179
420
  1709851
370
    18
100
AcDb2dPolyline
 66
     1
 10
0.0
 20
0.0
 30
0.0
  0
VERTEX
  5
62F
330
62E
100
AcDbEntity
  8
Ebene 1
 62
   179
420
  1709851
370
    18
100
AcDbVertex
100
AcDb2dVertex
 10
95.9131808570981
 20
-65.771868201873
 30
0.0
  0
VERTEX
  5
630
330
62E
100
AcDbEntity
  8
Ebene 1
 62
   179
420
  1709851
370
    18
100
AcDbVertex
100
AcDb2dVertex
 10
96.90812443323826
 20
-65.771868201873
 30
0.0
  0
SEQEND
  5
631
330
62E
100
AcDbEntity
  8
Ebene 1
370
    18
  0
POLYLINE
  5
632
330
483
100
AcDbEntity
  8
Ebene 1
 62
   179
420
  1709851
370
    18
100
AcDb2dPolyline
 66
     1
 10
0.0
 20
0.0
 30
0.0
  0
VERTEX
  5
633
330
632
100
AcDbEntity
  8
Ebene 1
 62
   179
420
  1709851
370
    18
100
AcDbVertex
100
AcDb2dVertex
 10
87.91229110215387
 20
-65.771868201873
 30
0.0
  0
VERTEX
  5
634
330
632
100
AcDbEntity
  8
Ebene 1
 62
   179
420
  1709851
370
    18
100
AcDbVertex
100
AcDb2dVertex
 10
94.91840953573221
 20
-65.771868201873
 30
0.0
  0
SEQEND
  5
635
330
632
100
AcDbEntity
  8
Ebene 1
370
    18
  0
POLYLINE
  5
636
330
483
100
AcDbEntity
  8
Ebene 1
 62
   179
420
  1709851
370
    18
100
AcDb2dPolyline
 66
     1
 10
0.0
 20
0.0
 30
0.0
  0
VERTEX
  5
637
330
636
100
AcDbEntity
  8
Ebene 1
 62
   179
420
  1709851
370
    18
100
AcDbVertex
100
AcDb2dVertex
 10
85.92257620464783
 20
-65.771868201873
 30
0.0
  0
VERTEX
  5
638
330
636
100
AcDbEntity
  8
Ebene 1
 62
   179
420
  1709851
370
    18
100
AcDbVertex
100
AcDb2dVertex
 10
86.91734752601373
 20
-65.771868201873
 30
0.0
  0
SEQEND
  5
639
330
636
100
AcDbEntity
  8
Ebene 1
370
    18
  0
POLYLINE
  5
63A
330
483
100
AcDbEntity
  8
Ebene 1
 62
   179
420
  1709851
370
    18
100
AcDb2dPolyline
 66
     1
 10
0.0
 20
0.0
 30
0.0
  0
VERTEX
  5
63B
330
63A
100
AcDbEntity
  8
Ebene 1
 62
   179
420
  1709851
370
    18
100
AcDbVertex
100
AcDb2dVertex
 10
77.92151419492934
 20
-65.771868201873
 30
0.0
  0
VERTEX
  5
63C
330
63A
100
AcDbEntity
  8
Ebene 1
 62
   179
420
  1709851
370
    18
100
AcDbVertex
100
AcDb2dVertex
 10
84.90661754604766
 20
-65.771868201873
 30
0.0
  0
SEQEND
  5
63D
330
63A
100
AcDbEntity
  8
Ebene 1
370
    18
  0
POLYLINE
  5
63E
330
483
100
AcDbEntity
  8
Ebene 1
 62
   179
420
  1709851
370
    18
100
AcDb2dPolyline
 66
     1
 10
0.0
 20
0.0
 30
0.0
  0
VERTEX
  5
63F
330
63E
100
AcDbEntity
  8
Ebene 1
 62
   179
420
  1709851
370
    18
100
AcDbVertex
100
AcDb2dVertex
 10
75.91078421496329
 20
-65.771868201873
 30
0.0
  0
VERTEX
  5
640
330
63E
100
AcDbEntity
  8
Ebene 1
 62
   179
420
  1709851
370
    18
100
AcDbVertex
100
AcDb2dVertex
 10
76.90555553632917
 20
-65.771868201873
 30
0.0
  0
SEQEND
  5
641
330
63E
100
AcDbEntity
  8
Ebene 1
370
    18
  0
POLYLINE
  5
642
330
483
100
AcDbEntity
  8
Ebene 1
 62
   179
420
  1709851
370
    18
100
AcDb2dPolyline
 66
     1
 10
0.0
 20
0.0
 30
0.0
  0
VERTEX
  5
643
330
642
100
AcDbEntity
  8
Ebene 1
 62
   179
420
  1709851
370
    18
100
AcDbVertex
100
AcDb2dVertex
 10
67.90972220524479
 20
-65.771868201873
 30
0.0
  0
VERTEX
  5
644
330
642
100
AcDbEntity
  8
Ebene 1
 62
   179
420
  1709851
370
    18
100
AcDbVertex
100
AcDb2dVertex
 10
74.91584063882313
 20
-65.771868201873
 30
0.0
  0
SEQEND
  5
645
330
642
100
AcDbEntity
  8
Ebene 1
370
    18
  0
POLYLINE
  5
646
330
483
100
AcDbEntity
  8
Ebene 1
 62
   179
420
  1709851
370
    18
100
AcDb2dPolyline
 66
     1
 10
0.0
 20
0.0
 30
0.0
  0
VERTEX
  5
647
330
646
100
AcDbEntity
  8
Ebene 1
 62
   179
420
  1709851
370
    18
100
AcDbVertex
100
AcDb2dVertex
 10
65.92000730773876
 20
-65.771868201873
 30
0.0
  0
VERTEX
  5
648
330
646
100
AcDbEntity
  8
Ebene 1
 62
   179
420
  1709851
370
    18
100
AcDbVertex
100
AcDb2dVertex
 10
66.9149508838789
 20
-65.771868201873
 30
0.0
  0
SEQEND
  5
649
330
646
100
AcDbEntity
  8
Ebene 1
370
    18
  0
POLYLINE
  5
64A
330
483
100
AcDbEntity
  8
Ebene 1
 62
   179
420
  1709851
370
    18
100
AcDb2dPolyline
 66
     1
 10
0.0
 20
0.0
 30
0.0
  0
VERTEX
  5
64B
330
64A
100
AcDbEntity
  8
Ebene 1
 62
   179
420
  1709851
370
    18
100
AcDbVertex
100
AcDb2dVertex
 10
71.74084063961688
 20
-65.771868201873
 30
0.0
  0
VERTEX
  5
64C
330
64A
100
AcDbEntity
  8
Ebene 1
 62
   179
420
  1709851
370
    18
100
AcDbVertex
100
AcDb2dVertex
 10
71.74084063961688
 20
-136.8707152978136
 30
0.0
  0
SEQEND
  5
64D
330
64A
100
AcDbEntity
  8
Ebene 1
370
    18
  0
POLYLINE
  5
64E
330
483
100
AcDbEntity
  8
Ebene 1
 62
   179
420
  1709851
370
    18
100
AcDb2dPolyline
 66
     1
 10
0.0
 20
0.0
 30
0.0
  0
VERTEX
  5
64F
330
64E
100
AcDbEntity
  8
Ebene 1
 62
   179
420
  1709851
370
    18
100
AcDbVertex
100
AcDb2dVertex
 10
72.3547566550884
 20
-65.771868201873
 30
0.0
  0
VERTEX
  5
650
330
64E
100
AcDbEntity
  8
Ebene 1
 62
   179
420
  1709851
370
    18
100
AcDbVertex
100
AcDb2dVertex
 10
72.3547566550884
 20
-136.8707152978136
 30
0.0
  0
SEQEND
  5
651
330
64E
100
AcDbEntity
  8
Ebene 1
370
    18
  0
POLYLINE
  5
652
330
483
100
AcDbEntity
  8
Ebene 1
 62
   179
420
  1709851
370
    18
100
AcDb2dPolyline
 66
     1
 10
0.0
 20
0.0
 30
0.0
  0
VERTEX
  5
653
330
652
100
AcDbEntity
  8
Ebene 1
 62
   179
420
  1709851
370
    18
100
AcDbVertex
100
AcDb2dVertex
 10
71.74084063961688
 20
-136.8707152978136
 30
0.0
  0
VERTEX
  5
654
330
652
100
AcDbEntity
  8
Ebene 1
 62
   179
420
  1709851
370
    18
100
AcDbVertex
100
AcDb2dVertex
 10
71.74084063961688
 20
-133.7591050555359
 30
0.0
  0
SEQEND
  5
655
330
652
100
AcDbEntity
  8
Ebene 1
370
    18
  0
POLYLINE
  5
656
330
483
100
AcDbEntity
  8
Ebene 1
370
     0
100
AcDb2dPolyline
 66
     1
 10
0.0
 20
0.0
 30
0.0
  0
VERTEX
  5
657
330
656
100
AcDbEntity
  8
Ebene 1
370
     0
100
AcDbVertex
100
AcDb2dVertex
 10
65.26388887257292
 20
-235.2641926495173
 30
0.0
  0
VERTEX
  5
658
330
656
100
AcDbEntity
  8
Ebene 1
370
     0
100
AcDbVertex
100
AcDb2dVertex
 10
159.350135593843
 20
-235.2641926495173
 30
0.0
  0
VERTEX
  5
659
330
656
100
AcDbEntity
  8
Ebene 1
370
     0
100
AcDbVertex
100
AcDb2dVertex
 10
159.350135593843
 20
-65.5284722058401
 30
0.0
  0
VERTEX
  5
65A
330
656
100
AcDbEntity
  8
Ebene 1
370
     0
100
AcDbVertex
100
AcDb2dVertex
 10
65.26388887257292
 20
-65.5284722058401
 30
0.0
  0
VERTEX
  5
65B
330
656
100
AcDbEntity
  8
Ebene 1
370
     0
100
AcDbVertex
100
AcDb2dVertex
 10
65.26388887257292
 20
-235.2641926495173
 30
0.0
  0
SEQEND
  5
65C
330
656
100
AcDbEntity
  8
Ebene 1
370
     0
  0
ENDBLK
  5
486
330
483
100
AcDbEntity
  8
0
100
AcDbBlockEnd
  0
BLOCK
  5
66C
330
66A
100
AcDbEntity
  8
0
100
AcDbBlockBegin
  2
block 6
 70
     0
 71
     0
 10
0.0
 20
0.0
 30
0.0
  3
block 6
  1

  0
POLYLINE
  5
66E
330
66A
100
AcDbEntity
  8
Ebene 1
 62
   179
420
  1709851
370
    18
100
AcDb2dPolyline
 66
     1
 10
0.0
 20
0.0
 30
0.0
  0
VERTEX
  5
66F
330
66E
100
AcDbEntity
  8
Ebene 1
 62
   179
420
  1709851
370
    18
100
AcDbVertex
100
AcDb2dVertex
 10
66.4281588918131
 20
-142.8396877355574
 30
0.0
  0
VERTEX
  5
670
330
66E
100
AcDbEntity
  8
Ebene 1
 62
   179
420
  1709851
370
    18
100
AcDbVertex
100
AcDb2dVertex
 10
65.75085311941298
 20
-143.5169935079576
 30
0.0
  0
SEQEND
  5
671
330
66E
100
AcDbEntity
  8
Ebene 1
370
    18
  0
POLYLINE
  5
672
330
66A
100
AcDbEntity
  8
Ebene 1
 62
   179
420
  1709851
370
    18
100
AcDb2dPolyline
 66
     1
 10
0.0
 20
0.0
 30
0.0
  0
VERTEX
  5
673
330
672
100
AcDbEntity
  8
Ebene 1
 62
   179
420
  1709851
370
    18
100
AcDbVertex
100
AcDb2dVertex
 10
65.34863822151007
 20
-144.4905774920892
 30
0.0
  0
VERTEX
  5
674
330
672
100
AcDbEntity
  8
Ebene 1
 62
   179
420
  1709851
370
    18
100
AcDbVertex
100
AcDb2dVertex
 10
66.70324976631031
 20
-143.1146063552804
 30
0.0
  0
SEQEND
  5
675
330
672
100
AcDbEntity
  8
Ebene 1
370
    18
  0
POLYLINE
  5
676
330
66A
100
AcDbEntity
  8
Ebene 1
 62
   179
420
  1709851
370
    18
100
AcDb2dPolyline
 66
     1
 10
0.0
 20
0.0
 30
0.0
  0
VERTEX
  5
677
330
676
100
AcDbEntity
  8
Ebene 1
 62
   179
420
  1709851
370
    18
100
AcDbVertex
100
AcDb2dVertex
 10
66.70324976631031
 20
-143.1146063552804
 30
0.0
  0
VERTEX
  5
678
330
676
100
AcDbEntity
  8
Ebene 1
 62
   179
420
  1709851
370
    18
100
AcDbVertex
100
AcDb2dVertex
 10
66.4281588918131
 20
-142.8396877355574
 30
0.0
  0
SEQEND
  5
679
330
676
100
AcDbEntity
  8
Ebene 1
370
    18
  0
POLYLINE
  5
67A
330
66A
100
AcDbEntity
  8
Ebene 1
370
     0
100
AcDb2dPolyline
 66
     1
 10
0.0
 20
0.0
 30
0.0
  0
VERTEX
  5
67B
330
67A
100
AcDbEntity
  8
Ebene 1
370
     0
100
AcDbVertex
100
AcDb2dVertex
 10
65.26388887257292
 20
-235.2641926495173
 30
0.0
  0
VERTEX
  5
67C
330
67A
100
AcDbEntity
  8
Ebene 1
370
     0
100
AcDbVertex
100
AcDb2dVertex
 10
159.350135593843
 20
-235.2641926495173
 30
0.0
  0
VERTEX
  5
67D
330
67A
100
AcDbEntity
  8
Ebene 1
370
     0
100
AcDbVertex
100
AcDb2dVertex
 10
159.350135593843
 20
-65.5284722058401
 30
0.0
  0
VERTEX
  5
67E
330
67A
100
AcDbEntity
  8
Ebene 1
370
     0
100
AcDbVertex
100
AcDb2dVertex
 10
65.26388887257292
 20
-65.5284722058401
 30
0.0
  0
VERTEX
  5
67F
330
67A
100
AcDbEntity
  8
Ebene 1
370
     0
100
AcDbVertex
100
AcDb2dVertex
 10
65.26388887257292
 20
-235.2641926495173
 30
0.0
  0
SEQEND
  5
680
330
67A
100
AcDbEntity
  8
Ebene 1
370
     0
  0
ENDBLK
  5
66D
330
66A
100
AcDbEntity
  8
0
100
AcDbBlockEnd
  0
ENDSEC
  0
SECTION
  2
ENTITIES
  0
POLYLINE
  5
3C
330
1F
100
AcDbEntity
  8
Ebene 1
370
     0
100
AcDb2dPolyline
 66
     1
 10
0.0
 20
0.0
 30
0.0
  0
VERTEX
  5
3D
330
3C
100
AcDbEntity
  8
Ebene 1
370
     0
100
AcDbVertex
100
AcDb2dVertex
 10
65.34863822151007
 20
-144.4909220016377
 30
0.0
  0
VERTEX
  5
3E
330
3C
100
AcDbEntity
  8
Ebene 1
370
     0
100
AcDbVertex
100
AcDb2dVertex
 10
65.75050860986445
 20
-143.5169935079576
 30
0.0
  0
VERTEX
  5
3F
330
3C
100
AcDbEntity
  8
Ebene 1
370
     0
100
AcDbVertex
100
AcDb2dVertex
 10
65.34863822151007
 20
-140.2152139948941
 30
0.0
  0
VERTEX
  5
40
330
3C
100
AcDbEntity
  8
Ebene 1
370
     0
100
AcDbVertex
100
AcDb2dVertex
 10
65.34863822151007
 20
-144.4909220016377
 30
0.0
  0
SEQEND
  5
41
330
3C
100
AcDbEntity
  8
Ebene 1
370
     0
  0
HATCH
  5
42
330
1F
100
AcDbEntity
  8
Ebene 1
 62
   139
420
  4081750
100
AcDbHatch
 10
0.0
 20
0.0
 30
0.0
210
0.0
220
0.0
230
1.0
  2
SOLID
 70
     1
 71
     0
 91
        1
 92
        1
 93
        3
 72
     1
 10
65.34863822151007
 20
-144.4909220016377
 11
65.75050860986445
 21
-143.5169935079576
 72
     1
 10
65.75050860986445
 20
-143.5169935079576
 11
65.34863822151007
 21
-140.2152139948941
 72
     1
 10
65.34863822151007
 20
-140.2152139948941
 11
65.34863822151007
 21
-144.4909220016377
 97
        0
 75
     2
 76
     1
 98
        0
  0
POLYLINE
  5
43
330
1F
100
AcDbEntity
  8
Ebene 1
370
     0
100
AcDb2dPolyline
 66
     1
 10
0.0
 20
0.0
 30
0.0
  0
VERTEX
  5
44
330
43
100
AcDbEntity
  8
Ebene 1
370
     0
100
AcDbVertex
100
AcDb2dVertex
 10
65.75068086463872
 20
-143.5169935079576
 30
0.0
  0
VERTEX
  5
45
330
43
100
AcDbEntity
  8
Ebene 1
370
     0
100
AcDbVertex
100
AcDb2dVertex
 10
65.34881047628433
 20
-144.4905774920892
 30
0.0
  0
VERTEX
  5
46
330
43
100
AcDbEntity
  8
Ebene 1
370
     0
100
AcDbVertex
100
AcDb2dVertex
 10
66.70342202108456
 20
-143.1149508648289
 30
0.0
  0
VERTEX
  5
47
330
43
100
AcDbEntity
  8
Ebene 1
370
     0
100
AcDbVertex
100
AcDb2dVertex
 10
65.75068086463872
 20
-143.5169935079576
 30
0.0
  0
SEQEND
  5
48
330
43
100
AcDbEntity
  8
Ebene 1
370
     0
  0
HATCH
  5
49
330
1F
100
AcDbEntity
  8
Ebene 1
 62
   139
420
  4081750
100
AcDbHatch
 10
0.0
 20
0.0
 30
0.0
210
0.0
220
0.0
230
1.0
  2
SOLID
 70
     1
 71
     0
 91
        1
 92
        1
 93
        3
 72
     1
 10
65.75068086463872
 20
-143.5169935079576
 11
65.34881047628433
 21
-144.4905774920892
 72
     1
 10
65.34881047628433
 20
-144.4905774920892
 11
66.70342202108456
 21
-143.1149508648289
 72
     1
 10
66.70342202108456
 20
-143.1149508648289
 11
65.75068086463872
 21
-143.5169935079576
 97
        0
 75
     2
 76
     1
 98
        0
  0
POLYLINE
  5
4A
330
1F
100
AcDbEntity
  8
Ebene 1
370
     0
100
AcDb2dPolyline
 66
     1
 10
0.0
 20
0.0
 30
0.0
  0
VERTEX
  5
4B
330
4A
100
AcDbEntity
  8
Ebene 1
370
     0
100
AcDbVertex
100
AcDb2dVertex
 10
65.75068086463872
 20
-143.5169935079576
 30
0.0
  0
VERTEX
  5
4C
330
4A
100
AcDbEntity
  8
Ebene 1
370
     0
100
AcDbVertex
100
AcDb2dVertex
 10
66.70324976631031
 20
-143.1149508648289
 30
0.0
  0
VERTEX
  5
4D
330
4A
100
AcDbEntity
  8
Ebene 1
370
     0
100
AcDbVertex
100
AcDb2dVertex
 10
66.4281588918131
 20
-142.8396877355574
 30
0.0
  0
VERTEX
  5
4E
330
4A
100
AcDbEntity
  8
Ebene 1
370
     0
100
AcDbVertex
100
AcDb2dVertex
 10
65.75068086463872
 20
-143.5169935079576
 30
0.0
  0
SEQEND
  5
4F
330
4A
100
AcDbEntity
  8
Ebene 1
370
     0
  0
HATCH
  5
50
330
1F
100
AcDbEntity
  8
Ebene 1
 62
   139
420
  4081750
100
AcDbHatch
 10
0.0
 20
0.0
 30
0.0
210
0.0
220
0.0
230
1.0
  2
SOLID
 70
     1
 71
     0
 91
        1
 92
        1
 93
        3
 72
     1
 10
65.75068086463872
 20
-143.5169935079576
 11
66.70324976631031
 21
-143.1149508648289
 72
     1
 10
66.70324976631031
 20
-143.1149508648289
 11
66.4281588918131
 21
-142.8396877355574
 72
     1
 10
66.4281588918131
 20
-142.8396877355574
 11
65.75068086463872
 21
-143.5169935079576
 97
        0
 75
     2
 76
     1
 98
        0
  0
POLYLINE
  5
51
330
1F
100
AcDbEntity
  8
Ebene 1
370
     0
100
AcDb2dPolyline
 66
     1
 10
0.0
 20
0.0
 30
0.0
  0
VERTEX
  5
52
330
51
100
AcDbEntity
  8
Ebene 1
370
     0
100
AcDbVertex
100
AcDb2dVertex
 10
65.34863822151007
 20
-140.2148694853456
 30
0.0
  0
VERTEX
  5
53
330
51
100
AcDbEntity
  8
Ebene 1
370
     0
100
AcDbVertex
100
AcDb2dVertex
 10
65.75050860986445
 20
-140.5535223715457
 30
0.0
  0
VERTEX
  5
54
330
51
100
AcDbEntity
  8
Ebene 1
370
     0
100
AcDbVertex
100
AcDb2dVertex
 10
94.85501977880361
 20
-135.6428832668705
 30
0.0
  0
VERTEX
  5
55
330
51
100
AcDbEntity
  8
Ebene 1
370
     0
100
AcDbVertex
100
AcDb2dVertex
 10
65.34863822151007
 20
-140.2148694853456
 30
0.0
  0
SEQEND
  5
56
330
51
100
AcDbEntity
  8
Ebene 1
370
     0
  0
HATCH
  5
57
330
1F
100
AcDbEntity
  8
Ebene 1
 62
   139
420
  4081750
100
AcDbHatch
 10
0.0
 20
0.0
 30
0.0
210
0.0
220
0.0
230
1.0
  2
SOLID
 70
     1
 71
     0
 91
        1
 92
        1
 93
        3
 72
     1
 10
65.34863822151007
 20
-140.2148694853456
 11
65.75050860986445
 21
-140.5535223715457
 72
     1
 10
65.75050860986445
 20
-140.5535223715457
 11
94.85501977880361
 21
-135.6428832668705
 72
     1
 10
94.85501977880361
 20
-135.6428832668705
 11
65.34863822151007
 21
-140.2148694853456
 97
        0
 75
     2
 76
     1
 98
        0
  0
POLYLINE
  5
58
330
1F
100
AcDbEntity
  8
Ebene 1
370
     0
100
AcDb2dPolyline
 66
     1
 10
0.0
 20
0.0
 30
0.0
  0
VERTEX
  5
59
330
58
100
AcDbEntity
  8
Ebene 1
370
     0
100
AcDbVertex
100
AcDb2dVertex
 10
65.75068086463872
 20
-143.5169935079576
 30
0.0
  0
VERTEX
  5
5A
330
58
100
AcDbEntity
  8
Ebene 1
370
     0
100
AcDbVertex
100
AcDb2dVertex
 10
65.75068086463872
 20
-140.5535223715457
 30
0.0
  0
VERTEX
  5
5B
330
58
100
AcDbEntity
  8
Ebene 1
370
     0
100
AcDbVertex
100
AcDb2dVertex
 10
65.34881047628433
 20
-140.2148694853456
 30
0.0
  0
VERTEX
  5
5C
330
58
100
AcDbEntity
  8
Ebene 1
370
     0
100
AcDbVertex
100
AcDb2dVertex
 10
65.75068086463872
 20
-143.5169935079576
 30
0.0
  0
SEQEND
  5
5D
330
58
100
AcDbEntity
  8
Ebene 1
370
     0
  0
HATCH
  5
5E
330
1F
100
AcDbEntity
  8
Ebene 1
 62
   139
420
  4081750
100
AcDbHatch
 10
0.0
 20
0.0
 30
0.0
210
0.0
220
0.0
230
1.0
  2
SOLID
 70
     1
 71
     0
 91
        1
 92
        1
 93
        3
 72
     1
 10
65.75068086463872
 20
-143.5169935079576
 11
65.75068086463872
 21
-140.5535223715457
 72
     1
 10
65.75068086463872
 20
-140.5535223715457
 11
65.34881047628433
 21
-140.2148694853456
 72
     1
 10
65.34881047628433
 20
-140.2148694853456
 11
65.75068086463872
 21
-143.5169935079576
 97
        0
 75
     2
 76
     1
 98
        0
  0
POLYLINE
  5
5F
330
1F
100
AcDbEntity
  8
Ebene 1
370
     0
100
AcDb2dPolyline
 66
     1
 10
0.0
 20
0.0
 30
0.0
  0
VERTEX
  5
60
330
5F
100
AcDbEntity
  8
Ebene 1
370
     0
100
AcDbVertex
100
AcDb2dVertex
 10
94.85484752402935
 20
-135.6428832668705
 30
0.0
  0
VERTEX
  5
61
330
5F
100
AcDbEntity
  8
Ebene 1
370
     0
100
AcDbVertex
100
AcDb2dVertex
 10
65.75068086463872
 20
-140.5538668810942
 30
0.0
  0
VERTEX
  5
62
330
5F
100
AcDbEntity
  8
Ebene 1
370
     0
100
AcDbVertex
100
AcDb2dVertex
 10
95.25706242193226
 20
-135.9818806626191
 30
0.0
  0
VERTEX
  5
63
330
5F
100
AcDbEntity
  8
Ebene 1
370
     0
100
AcDbVertex
100
AcDb2dVertex
 10
94.85484752402935
 20
-135.6428832668705
 30
0.0
  0
SEQEND
  5
64
330
5F
100
AcDbEntity
  8
Ebene 1
370
     0
  0
HATCH
  5
65
330
1F
100
AcDbEntity
  8
Ebene 1
 62
   139
420
  4081750
100
AcDbHatch
 10
0.0
 20
0.0
 30
0.0
210
0.0
220
0.0
230
1.0
  2
SOLID
 70
     1
 71
     0
 91
        1
 92
        1
 93
        3
 72
     1
 10
94.85484752402935
 20
-135.6428832668705
 11
65.75068086463872
 21
-140.5538668810942
 72
     1
 10
65.75068086463872
 20
-140.5538668810942
 11
95.25706242193226
 21
-135.9818806626191
 72
     1
 10
95.25706242193226
 20
-135.9818806626191
 11
94.85484752402935
 21
-135.6428832668705
 97
        0
 75
     2
 76
     1
 98
        0
  0
POLYLINE
  5
66
330
1F
100
AcDbEntity
  8
Ebene 1
370
     0
100
AcDb2dPolyline
 66
     1
 10
0.0
 20
0.0
 30
0.0
  0
VERTEX
  5
67
330
66
100
AcDbEntity
  8
Ebene 1
370
     0
100
AcDbVertex
100
AcDb2dVertex
 10
94.85484752402935
 20
-135.6428832668705
 30
0.0
  0
VERTEX
  5
68
330
66
100
AcDbEntity
  8
Ebene 1
370
     0
100
AcDbVertex
100
AcDb2dVertex
 10
95.25706242193226
 20
-135.9818806626191
 30
0.0
  0
VERTEX
  5
69
330
66
100
AcDbEntity
  8
Ebene 1
370
     0
100
AcDbVertex
100
AcDb2dVertex
 10
94.85484752402935
 20
-127.9806463981264
 30
0.0
  0
VERTEX
  5
6A
330
66
100
AcDbEntity
  8
Ebene 1
370
     0
100
AcDbVertex
100
AcDb2dVertex
 10
94.85484752402935
 20
-135.6428832668705
 30
0.0
  0
SEQEND
  5
6B
330
66
100
AcDbEntity
  8
Ebene 1
370
     0
  0
HATCH
  5
6C
330
1F
100
AcDbEntity
  8
Ebene 1
 62
   139
420
  4081750
100
AcDbHatch
 10
0.0
 20
0.0
 30
0.0
210
0.0
220
0.0
230
1.0
  2
SOLID
 70
     1
 71
     0
 91
        1
 92
        1
 93
        3
 72
     1
 10
94.85484752402935
 20
-135.6428832668705
 11
95.25706242193226
 21
-135.9818806626191
 72
     1
 10
95.25706242193226
 20
-135.9818806626191
 11
94.85484752402935
 21
-127.9806463981264
 72
     1
 10
94.85484752402935
 20
-127.9806463981264
 11
94.85484752402935
 21
-135.6428832668705
 97
        0
 75
     2
 76
     1
 98
        0
  0
POLYLINE
  5
6D
330
1F
100
AcDbEntity
  8
Ebene 1
370
     0
100
AcDb2dPolyline
 66
     1
 10
0.0
 20
0.0
 30
0.0
  0
VERTEX
  5
6E
330
6D
100
AcDbEntity
  8
Ebene 1
370
     0
100
AcDbVertex
100
AcDb2dVertex
 10
94.85484752402935
 20
-127.9806463981264
 30
0.0
  0
VERTEX
  5
6F
330
6D
100
AcDbEntity
  8
Ebene 1
370
     0
100
AcDbVertex
100
AcDb2dVertex
 10
95.25706242193226
 20
-135.9815361530706
 30
0.0
  0
VERTEX
  5
70
330
6D
100
AcDbEntity
  8
Ebene 1
370
     0
100
AcDbVertex
100
AcDb2dVertex
 10
95.25706242193226
 20
-127.9806463981264
 30
0.0
  0
VERTEX
  5
71
330
6D
100
AcDbEntity
  8
Ebene 1
370
     0
100
AcDbVertex
100
AcDb2dVertex
 10
94.85484752402935
 20
-127.9806463981264
 30
0.0
  0
SEQEND
  5
72
330
6D
100
AcDbEntity
  8
Ebene 1
370
     0
  0
HATCH
  5
73
330
1F
100
AcDbEntity
  8
Ebene 1
 62
   139
420
  4081750
100
AcDbHatch
 10
0.0
 20
0.0
 30
0.0
210
0.0
220
0.0
230
1.0
  2
SOLID
 70
     1
 71
     0
 91
        1
 92
        1
 93
        3
 72
     1
 10
94.85484752402935
 20
-127.9806463981264
 11
95.25706242193226
 21
-135.9815361530706
 72
     1
 10
95.25706242193226
 20
-135.9815361530706
 11
95.25706242193226
 21
-127.9806463981264
 72
     1
 10
95.25706242193226
 20
-127.9806463981264
 11
94.85484752402935
 21
-127.9806463981264
 97
        0
 75
     2
 76
     1
 98
        0
  0
POLYLINE
  5
74
330
1F
100
AcDbEntity
  8
Ebene 1
370
     0
100
AcDb2dPolyline
 66
     1
 10
0.0
 20
0.0
 30
0.0
  0
VERTEX
  5
75
330
74
100
AcDbEntity
  8
Ebene 1
370
     0
100
AcDbVertex
100
AcDb2dVertex
 10
69.26433375004503
 20
-141.3579521673515
 30
0.0
  0
VERTEX
  5
76
330
74
100
AcDbEntity
  8
Ebene 1
370
     0
100
AcDbVertex
100
AcDb2dVertex
 10
69.26433375004503
 20
-235.0202798891616
 30
0.0
  0
VERTEX
  5
77
330
74
100
AcDbEntity
  8
Ebene 1
370
     0
100
AcDbVertex
100
AcDb2dVertex
 10
70.87302108688245
 20
-141.3579521673515
 30
0.0
  0
VERTEX
  5
78
330
74
100
AcDbEntity
  8
Ebene 1
370
     0
100
AcDbVertex
100
AcDb2dVertex
 10
69.26433375004503
 20
-141.3579521673515
 30
0.0
  0
SEQEND
  5
79
330
74
100
AcDbEntity
  8
Ebene 1
370
     0
  0
HATCH
  5
7A
330
1F
100
AcDbEntity
  8
Ebene 1
 62
   254
420
 14803683
100
AcDbHatch
 10
0.0
 20
0.0
 30
0.0
210
0.0
220
0.0
230
1.0
  2
SOLID
 70
     1
 71
     0
 91
        1
 92
        1
 93
        3
 72
     1
 10
69.26433375004503
 20
-141.3579521673515
 11
69.26433375004503
 21
-235.0202798891616
 72
     1
 10
69.26433375004503
 20
-235.0202798891616
 11
70.87302108688245
 21
-141.3579521673515
 72
     1
 10
70.87302108688245
 20
-141.3579521673515
 11
69.26433375004503
 21
-141.3579521673515
 97
        0
 75
     2
 76
     1
 98
        0
  0
POLYLINE
  5
7B
330
1F
100
AcDbEntity
  8
Ebene 1
370
     0
100
AcDb2dPolyline
 66
     1
 10
0.0
 20
0.0
 30
0.0
  0
VERTEX
  5
7C
330
7B
100
AcDbEntity
  8
Ebene 1
370
     0
100
AcDbVertex
100
AcDb2dVertex
 10
69.26433375004503
 20
-235.0202798891616
 30
0.0
  0
VERTEX
  5
7D
330
7B
100
AcDbEntity
  8
Ebene 1
370
     0
100
AcDbVertex
100
AcDb2dVertex
 10
70.87302108688245
 20
-235.0202798891616
 30
0.0
  0
VERTEX
  5
7E
330
7B
100
AcDbEntity
  8
Ebene 1
370
     0
100
AcDbVertex
100
AcDb2dVertex
 10
70.87302108688245
 20
-141.3579521673515
 30
0.0
  0
VERTEX
  5
7F
330
7B
100
AcDbEntity
  8
Ebene 1
370
     0
100
AcDbVertex
100
AcDb2dVertex
 10
69.26433375004503
 20
-235.0202798891616
 30
0.0
  0
SEQEND
  5
80
330
7B
100
AcDbEntity
  8
Ebene 1
370
     0
  0
HATCH
  5
81
330
1F
100
AcDbEntity
  8
Ebene 1
 62
   254
420
 14803683
100
AcDbHatch
 10
0.0
 20
0.0
 30
0.0
210
0.0
220
0.0
230
1.0
  2
SOLID
 70
     1
 71
     0
 91
        1
 92
        1
 93
        3
 72
     1
 10
69.26433375004503
 20
-235.0202798891616
 11
70.87302108688245
 21
-235.0202798891616
 72
     1
 10
70.87302108688245
 20
-235.0202798891616
 11
70.87302108688245
 21
-141.3579521673515
 72
     1
 10
70.87302108688245
 20
-141.3579521673515
 11
69.26433375004503
 21
-235.0202798891616
 97
        0
 75
     2
 76
     1
 98
        0
  0
POLYLINE
  5
82
330
1F
100
AcDbEntity
  8
Ebene 1
370
     0
100
AcDb2dPolyline
 66
     1
 10
0.0
 20
0.0
 30
0.0
  0
VERTEX
  5
83
330
82
100
AcDbEntity
  8
Ebene 1
370
     0
100
AcDbVertex
100
AcDb2dVertex
 10
71.74084063961688
 20
-154.9679741366052
 30
0.0
  0
VERTEX
  5
84
330
82
100
AcDbEntity
  8
Ebene 1
370
     0
100
AcDbVertex
100
AcDb2dVertex
 10
70.87302108688245
 20
-160.9583061663577
 30
0.0
  0
VERTEX
  5
85
330
82
100
AcDbEntity
  8
Ebene 1
370
     0
100
AcDbVertex
100
AcDb2dVertex
 10
70.87302108688245
 20
-154.9679741366052
 30
0.0
  0
VERTEX
  5
86
330
82
100
AcDbEntity
  8
Ebene 1
370
     0
100
AcDbVertex
100
AcDb2dVertex
 10
71.74084063961688
 20
-154.9679741366052
 30
0.0
  0
SEQEND
  5
87
330
82
100
AcDbEntity
  8
Ebene 1
370
     0
  0
HATCH
  5
88
330
1F
100
AcDbEntity
  8
Ebene 1
 62
     9
420
 12435136
100
AcDbHatch
 10
0.0
 20
0.0
 30
0.0
210
0.0
220
0.0
230
1.0
  2
SOLID
 70
     1
 71
     0
 91
        1
 92
        1
 93
        3
 72
     1
 10
71.74084063961688
 20
-154.9679741366052
 11
70.87302108688245
 21
-160.9583061663577
 72
     1
 10
70.87302108688245
 20
-160.9583061663577
 11
70.87302108688245
 21
-154.9679741366052
 72
     1
 10
70.87302108688245
 20
-154.9679741366052
 11
71.74084063961688
 21
-154.9679741366052
 97
        0
 75
     2
 76
     1
 98
        0
  0
POLYLINE
  5
89
330
1F
100
AcDbEntity
  8
Ebene 1
370
     0
100
AcDb2dPolyline
 66
     1
 10
0.0
 20
0.0
 30
0.0
  0
VERTEX
  5
8A
330
89
100
AcDbEntity
  8
Ebene 1
370
     0
100
AcDbVertex
100
AcDb2dVertex
 10
70.8731933416567
 20
-160.9583061663577
 30
0.0
  0
VERTEX
  5
8B
330
89
100
AcDbEntity
  8
Ebene 1
370
     0
100
AcDbVertex
100
AcDb2dVertex
 10
71.74101289439113
 20
-154.9679741366052
 30
0.0
  0
VERTEX
  5
8C
330
89
100
AcDbEntity
  8
Ebene 1
370
     0
100
AcDbVertex
100
AcDb2dVertex
 10
71.74101289439113
 20
-160.9583061663577
 30
0.0
  0
VERTEX
  5
8D
330
89
100
AcDbEntity
  8
Ebene 1
370
     0
100
AcDbVertex
100
AcDb2dVertex
 10
70.8731933416567
 20
-160.9583061663577
 30
0.0
  0
SEQEND
  5
8E
330
89
100
AcDbEntity
  8
Ebene 1
370
     0
  0
HATCH
  5
8F
330
1F
100
AcDbEntity
  8
Ebene 1
 62
     9
420
 12435136
100
AcDbHatch
 10
0.0
 20
0.0
 30
0.0
210
0.0
220
0.0
230
1.0
  2
SOLID
 70
     1
 71
     0
 91
        1
 92
        1
 93
        3
 72
     1
 10
70.8731933416567
 20
-160.9583061663577
 11
71.74101289439113
 21
-154.9679741366052
 72
     1
 10
71.74101289439113
 20
-154.9679741366052
 11
71.74101289439113
 21
-160.9583061663577
 72
     1
 10
71.74101289439113
 20
-160.9583061663577
 11
70.8731933416567
 21
-160.9583061663577
 97
        0
 75
     2
 76
     1
 98
        0
  0
INSERT
  5
91
330
1F
100
AcDbEntity
  8
Ebene 1
100
AcDbBlockReference
  2
block 2
 10
0.0
 20
0.0
 30
0.0
  0
POLYLINE
  5
11B
330
1F
100
AcDbEntity
  8
Ebene 1
370
     0
100
AcDb2dPolyline
 66
     1
 10
0.0
 20
0.0
 30
0.0
  0
VERTEX
  5
11C
330
11B
100
AcDbEntity
  8
Ebene 1
370
     0
100
AcDbVertex
100
AcDb2dVertex
 10
70.8731933416567
 20
-65.771868201873
 30
0.0
  0
VERTEX
  5
11D
330
11B
100
AcDbEntity
  8
Ebene 1
370
     0
100
AcDbVertex
100
AcDb2dVertex
 10
69.2645060048193
 20
-137.3575072898794
 30
0.0
  0
VERTEX
  5
11E
330
11B
100
AcDbEntity
  8
Ebene 1
370
     0
100
AcDbVertex
100
AcDb2dVertex
 10
69.2645060048193
 20
-65.771868201873
 30
0.0
  0
VERTEX
  5
11F
330
11B
100
AcDbEntity
  8
Ebene 1
370
     0
100
AcDbVertex
100
AcDb2dVertex
 10
70.8731933416567
 20
-65.771868201873
 30
0.0
  0
SEQEND
  5
120
330
11B
100
AcDbEntity
  8
Ebene 1
370
     0
  0
HATCH
  5
121
330
1F
100
AcDbEntity
  8
Ebene 1
 62
   254
420
 14803683
100
AcDbHatch
 10
0.0
 20
0.0
 30
0.0
210
0.0
220
0.0
230
1.0
  2
SOLID
 70
     1
 71
     0
 91
        1
 92
        1
 93
        3
 72
     1
 10
70.8731933416567
 20
-65.771868201873
 11
69.2645060048193
 21
-137.3575072898794
 72
     1
 10
69.2645060048193
 20
-137.3575072898794
 11
69.2645060048193
 21
-65.771868201873
 72
     1
 10
69.2645060048193
 20
-65.771868201873
 11
70.8731933416567
 21
-65.771868201873
 97
        0
 75
     2
 76
     1
 98
        0
  0
POLYLINE
  5
122
330
1F
100
AcDbEntity
  8
Ebene 1
370
     0
100
AcDb2dPolyline
 66
     1
 10
0.0
 20
0.0
 30
0.0
  0
VERTEX
  5
123
330
122
100
AcDbEntity
  8
Ebene 1
370
     0
100
AcDbVertex
100
AcDb2dVertex
 10
69.2645060048193
 20
-137.3575072898794
 30
0.0
  0
VERTEX
  5
124
330
122
100
AcDbEntity
  8
Ebene 1
370
     0
100
AcDbVertex
100
AcDb2dVertex
 10
70.87302108688245
 20
-65.771868201873
 30
0.0
  0
VERTEX
  5
125
330
122
100
AcDbEntity
  8
Ebene 1
370
     0
100
AcDbVertex
100
AcDb2dVertex
 10
70.87302108688245
 20
-137.3575072898794
 30
0.0
  0
VERTEX
  5
126
330
122
100
AcDbEntity
  8
Ebene 1
370
     0
100
AcDbVertex
100
AcDb2dVertex
 10
69.2645060048193
 20
-137.3575072898794
 30
0.0
  0
SEQEND
  5
127
330
122
100
AcDbEntity
  8
Ebene 1
370
     0
  0
HATCH
  5
128
330
1F
100
AcDbEntity
  8
Ebene 1
 62
   254
420
 14803683
100
AcDbHatch
 10
0.0
 20
0.0
 30
0.0
210
0.0
220
0.0
230
1.0
  2
SOLID
 70
     1
 71
     0
 91
        1
 92
        1
 93
        3
 72
     1
 10
69.2645060048193
 20
-137.3575072898794
 11
70.87302108688245
 21
-65.771868201873
 72
     1
 10
70.87302108688245
 20
-65.771868201873
 11
70.87302108688245
 21
-137.3575072898794
 72
     1
 10
70.87302108688245
 20
-137.3575072898794
 11
69.2645060048193
 21
-137.3575072898794
 97
        0
 75
     2
 76
     1
 98
        0
  0
POLYLINE
  5
129
330
1F
100
AcDbEntity
  8
Ebene 1
370
     0
100
AcDb2dPolyline
 66
     1
 10
0.0
 20
0.0
 30
0.0
  0
VERTEX
  5
12A
330
129
100
AcDbEntity
  8
Ebene 1
370
     0
100
AcDbVertex
100
AcDb2dVertex
 10
71.74084063961688
 20
-117.7569810360989
 30
0.0
  0
VERTEX
  5
12B
330
129
100
AcDbEntity
  8
Ebene 1
370
     0
100
AcDbVertex
100
AcDb2dVertex
 10
70.87302108688245
 20
-123.7683281483114
 30
0.0
  0
VERTEX
  5
12C
330
129
100
AcDbEntity
  8
Ebene 1
370
     0
100
AcDbVertex
100
AcDb2dVertex
 10
70.87302108688245
 20
-117.7569810360989
 30
0.0
  0
VERTEX
  5
12D
330
129
100
AcDbEntity
  8
Ebene 1
370
     0
100
AcDbVertex
100
AcDb2dVertex
 10
71.74084063961688
 20
-117.7569810360989
 30
0.0
  0
SEQEND
  5
12E
330
129
100
AcDbEntity
  8
Ebene 1
370
     0
  0
HATCH
  5
12F
330
1F
100
AcDbEntity
  8
Ebene 1
 62
     9
420
 12435136
100
AcDbHatch
 10
0.0
 20
0.0
 30
0.0
210
0.0
220
0.0
230
1.0
  2
SOLID
 70
     1
 71
     0
 91
        1
 92
        1
 93
        3
 72
     1
 10
71.74084063961688
 20
-117.7569810360989
 11
70.87302108688245
 21
-123.7683281483114
 72
     1
 10
70.87302108688245
 20
-123.7683281483114
 11
70.87302108688245
 21
-117.7569810360989
 72
     1
 10
70.87302108688245
 20
-117.7569810360989
 11
71.74084063961688
 21
-117.7569810360989
 97
        0
 75
     2
 76
     1
 98
        0
  0
POLYLINE
  5
130
330
1F
100
AcDbEntity
  8
Ebene 1
370
     0
100
AcDb2dPolyline
 66
     1
 10
0.0
 20
0.0
 30
0.0
  0
VERTEX
  5
131
330
130
100
AcDbEntity
  8
Ebene 1
370
     0
100
AcDbVertex
100
AcDb2dVertex
 10
70.8731933416567
 20
-123.7683281483114
 30
0.0
  0
VERTEX
  5
132
330
130
100
AcDbEntity
  8
Ebene 1
370
     0
100
AcDbVertex
100
AcDb2dVertex
 10
71.74101289439113
 20
-117.7573255456475
 30
0.0
  0
VERTEX
  5
133
330
130
100
AcDbEntity
  8
Ebene 1
370
     0
100
AcDbVertex
100
AcDb2dVertex
 10
71.74101289439113
 20
-123.7683281483114
 30
0.0
  0
VERTEX
  5
134
330
130
100
AcDbEntity
  8
Ebene 1
370
     0
100
AcDbVertex
100
AcDb2dVertex
 10
70.8731933416567
 20
-123.7683281483114
 30
0.0
  0
SEQEND
  5
135
330
130
100
AcDbEntity
  8
Ebene 1
370
     0
  0
HATCH
  5
136
330
1F
100
AcDbEntity
  8
Ebene 1
 62
     9
420
 12435136
100
AcDbHatch
 10
0.0
 20
0.0
 30
0.0
210
0.0
220
0.0
230
1.0
  2
SOLID
 70
     1
 71
     0
 91
        1
 92
        1
 93
        3
 72
     1
 10
70.8731933416567
 20
-123.7683281483114
 11
71.74101289439113
 21
-117.7573255456475
 72
     1
 10
71.74101289439113
 20
-117.7573255456475
 11
71.74101289439113
 21
-123.7683281483114
 72
     1
 10
71.74101289439113
 20
-123.7683281483114
 11
70.8731933416567
 21
-123.7683281483114
 97
        0
 75
     2
 76
     1
 98
        0
  0
INSERT
  5
138
330
1F
100
AcDbEntity
  8
Ebene 1
100
AcDbBlockReference
  2
block 3
 10
0.0
 20
0.0
 30
0.0
  0
POLYLINE
  5
14E
330
1F
100
AcDbEntity
  8
Ebene 1
 62
   179
420
  1709851
370
    18
100
AcDb2dPolyline
 66
     1
 10
0.0
 20
0.0
 30
0.0
  0
VERTEX
  5
14F
330
14E
100
AcDbEntity
  8
Ebene 1
 62
   179
420
  1709851
370
    18
100
AcDbVertex
100
AcDb2dVertex
 10
94.26229110056637
 20
-202.3600856698961
 30
0.0
  0
VERTEX
  5
150
330
14E
100
AcDbEntity
  8
Ebene 1
 62
   179
420
  1709851
370
    18
100
AcDbVertex
100
AcDb2dVertex
 10
94.26229110056637
 20
-170.3558376310222
 30
0.0
  0
SEQEND
  5
151
330
14E
100
AcDbEntity
  8
Ebene 1
370
    18
  0
POLYLINE
  5
152
330
1F
100
AcDbEntity
  8
Ebene 1
 62
   179
420
  1709851
370
    35
100
AcDb2dPolyline
 66
     1
 10
0.0
 20
0.0
 30
0.0
  0
VERTEX
  5
153
330
152
100
AcDbEntity
  8
Ebene 1
 62
   179
420
  1709851
370
    35
100
AcDbVertex
100
AcDb2dVertex
 10
107.914859999063
 20
-176.2621093309345
 30
0.0
  0
VERTEX
  5
154
330
152
100
AcDbEntity
  8
Ebene 1
 62
   179
420
  1709851
370
    35
100
AcDbVertex
100
AcDb2dVertex
 10
114.920806177867
 20
-176.2621093309345
 30
0.0
  0
SEQEND
  5
155
330
152
100
AcDbEntity
  8
Ebene 1
370
    35
  0
POLYLINE
  5
156
330
1F
100
AcDbEntity
  8
Ebene 1
 62
   179
420
  1709851
370
    35
100
AcDb2dPolyline
 66
     1
 10
0.0
 20
0.0
 30
0.0
  0
VERTEX
  5
157
330
156
100
AcDbEntity
  8
Ebene 1
 62
   179
420
  1709851
370
    35
100
AcDbVertex
100
AcDb2dVertex
 10
105.9039577643226
 20
-176.2621093309345
 30
0.0
  0
VERTEX
  5
158
330
156
100
AcDbEntity
  8
Ebene 1
 62
   179
420
  1709851
370
    35
100
AcDbVertex
100
AcDb2dVertex
 10
106.9199164229228
 20
-176.2621093309345
 30
0.0
  0
SEQEND
  5
159
330
156
100
AcDbEntity
  8
Ebene 1
370
    35
  0
POLYLINE
  5
15A
330
1F
100
AcDbEntity
  8
Ebene 1
 62
   179
420
  1709851
370
    35
100
AcDb2dPolyline
 66
     1
 10
0.0
 20
0.0
 30
0.0
  0
VERTEX
  5
15B
330
15A
100
AcDbEntity
  8
Ebene 1
 62
   179
420
  1709851
370
    35
100
AcDbVertex
100
AcDb2dVertex
 10
97.90289575460415
 20
-176.2621093309345
 30
0.0
  0
VERTEX
  5
15C
330
15A
100
AcDbEntity
  8
Ebene 1
 62
   179
420
  1709851
370
    35
100
AcDbVertex
100
AcDb2dVertex
 10
104.9090141881825
 20
-176.2621093309345
 30
0.0
  0
SEQEND
  5
15D
330
15A
100
AcDbEntity
  8
Ebene 1
370
    35
  0
POLYLINE
  5
15E
330
1F
100
AcDbEntity
  8
Ebene 1
 62
   179
420
  1709851
370
    35
100
AcDb2dPolyline
 66
     1
 10
0.0
 20
0.0
 30
0.0
  0
VERTEX
  5
15F
330
15E
100
AcDbEntity
  8
Ebene 1
 62
   179
420
  1709851
370
    35
100
AcDbVertex
100
AcDb2dVertex
 10
95.9131808570981
 20
-176.2621093309345
 30
0.0
  0
VERTEX
  5
160
330
15E
100
AcDbEntity
  8
Ebene 1
 62
   179
420
  1709851
370
    35
100
AcDbVertex
100
AcDb2dVertex
 10
96.90812443323826
 20
-176.2621093309345
 30
0.0
  0
SEQEND
  5
161
330
15E
100
AcDbEntity
  8
Ebene 1
370
    35
  0
POLYLINE
  5
162
330
1F
100
AcDbEntity
  8
Ebene 1
 62
   179
420
  1709851
370
    35
100
AcDb2dPolyline
 66
     1
 10
0.0
 20
0.0
 30
0.0
  0
VERTEX
  5
163
330
162
100
AcDbEntity
  8
Ebene 1
 62
   179
420
  1709851
370
    35
100
AcDbVertex
100
AcDb2dVertex
 10
91.65883244236308
 20
-176.2621093309345
 30
0.0
  0
VERTEX
  5
164
330
162
100
AcDbEntity
  8
Ebene 1
 62
   179
420
  1709851
370
    35
100
AcDbVertex
100
AcDb2dVertex
 10
94.91840953573221
 20
-176.2621093309345
 30
0.0
  0
SEQEND
  5
165
330
162
100
AcDbEntity
  8
Ebene 1
370
    35
  0
POLYLINE
  5
166
330
1F
100
AcDbEntity
  8
Ebene 1
 62
   179
420
  1709851
370
    35
100
AcDb2dPolyline
 66
     1
 10
0.0
 20
0.0
 30
0.0
  0
VERTEX
  5
167
330
166
100
AcDbEntity
  8
Ebene 1
 62
   179
420
  1709851
370
    35
100
AcDbVertex
100
AcDb2dVertex
 10
107.914859999063
 20
-196.4545029890808
 30
0.0
  0
VERTEX
  5
168
330
166
100
AcDbEntity
  8
Ebene 1
 62
   179
420
  1709851
370
    35
100
AcDbVertex
100
AcDb2dVertex
 10
114.920806177867
 20
-196.4545029890808
 30
0.0
  0
SEQEND
  5
169
330
166
100
AcDbEntity
  8
Ebene 1
370
    35
  0
POLYLINE
  5
16A
330
1F
100
AcDbEntity
  8
Ebene 1
 62
   179
420
  1709851
370
    35
100
AcDb2dPolyline
 66
     1
 10
0.0
 20
0.0
 30
0.0
  0
VERTEX
  5
16B
330
16A
100
AcDbEntity
  8
Ebene 1
 62
   179
420
  1709851
370
    35
100
AcDbVertex
100
AcDb2dVertex
 10
105.9039577643226
 20
-196.4545029890808
 30
0.0
  0
VERTEX
  5
16C
330
16A
100
AcDbEntity
  8
Ebene 1
 62
   179
420
  1709851
370
    35
100
AcDbVertex
100
AcDb2dVertex
 10
106.9199164229228
 20
-196.4545029890808
 30
0.0
  0
SEQEND
  5
16D
330
16A
100
AcDbEntity
  8
Ebene 1
370
    35
  0
POLYLINE
  5
16E
330
1F
100
AcDbEntity
  8
Ebene 1
 62
   179
420
  1709851
370
    35
100
AcDb2dPolyline
 66
     1
 10
0.0
 20
0.0
 30
0.0
  0
VERTEX
  5
16F
330
16E
100
AcDbEntity
  8
Ebene 1
 62
   179
420
  1709851
370
    35
100
AcDbVertex
100
AcDb2dVertex
 10
97.90289575460415
 20
-196.4545029890808
 30
0.0
  0
VERTEX
  5
170
330
16E
100
AcDbEntity
  8
Ebene 1
 62
   179
420
  1709851
370
    35
100
AcDbVertex
100
AcDb2dVertex
 10
104.9090141881825
 20
-196.4545029890808
 30
0.0
  0
SEQEND
  5
171
330
16E
100
AcDbEntity
  8
Ebene 1
370
    35
  0
POLYLINE
  5
172
330
1F
100
AcDbEntity
  8
Ebene 1
 62
   179
420
  1709851
370
    35
100
AcDb2dPolyline
 66
     1
 10
0.0
 20
0.0
 30
0.0
  0
VERTEX
  5
173
330
172
100
AcDbEntity
  8
Ebene 1
 62
   179
420
  1709851
370
    35
100
AcDbVertex
100
AcDb2dVertex
 10
95.9131808570981
 20
-196.4545029890808
 30
0.0
  0
VERTEX
  5
174
330
172
100
AcDbEntity
  8
Ebene 1
 62
   179
420
  1709851
370
    35
100
AcDbVertex
100
AcDb2dVertex
 10
96.90812443323826
 20
-196.4545029890808
 30
0.0
  0
SEQEND
  5
175
330
172
100
AcDbEntity
  8
Ebene 1
370
    35
  0
POLYLINE
  5
176
330
1F
100
AcDbEntity
  8
Ebene 1
 62
   179
420
  1709851
370
    35
100
AcDb2dPolyline
 66
     1
 10
0.0
 20
0.0
 30
0.0
  0
VERTEX
  5
177
330
176
100
AcDbEntity
  8
Ebene 1
 62
   179
420
  1709851
370
    35
100
AcDbVertex
100
AcDb2dVertex
 10
91.65883244236308
 20
-196.4545029890808
 30
0.0
  0
VERTEX
  5
178
330
176
100
AcDbEntity
  8
Ebene 1
 62
   179
420
  1709851
370
    35
100
AcDbVertex
100
AcDb2dVertex
 10
94.91840953573221
 20
-196.4545029890808
 30
0.0
  0
SEQEND
  5
179
330
176
100
AcDbEntity
  8
Ebene 1
370
    35
  0
POLYLINE
  5
17A
330
1F
100
AcDbEntity
  8
Ebene 1
 62
   179
420
  1709851
370
    18
100
AcDb2dPolyline
 66
     1
 10
0.0
 20
0.0
 30
0.0
  0
VERTEX
  5
17B
330
17A
100
AcDbEntity
  8
Ebene 1
 62
   179
420
  1709851
370
    18
100
AcDbVertex
100
AcDb2dVertex
 10
95.25706242193226
 20
-170.3558376310222
 30
0.0
  0
VERTEX
  5
17C
330
17A
100
AcDbEntity
  8
Ebene 1
 62
   179
420
  1709851
370
    18
100
AcDbVertex
100
AcDb2dVertex
 10
76.27062443839762
 20
-170.3558376310222
 30
0.0
  0
VERTEX
  5
17D
330
17A
100
AcDbEntity
  8
Ebene 1
 62
   179
420
  1709851
370
    18
100
AcDbVertex
100
AcDb2dVertex
 10
76.27062443839762
 20
-202.3600856698961
 30
0.0
  0
SEQEND
  5
17E
330
17A
100
AcDbEntity
  8
Ebene 1
370
    18
  0
POLYLINE
  5
17F
330
1F
100
AcDbEntity
  8
Ebene 1
 62
   179
420
  1709851
370
    18
100
AcDb2dPolyline
 66
     1
 10
0.0
 20
0.0
 30
0.0
  0
VERTEX
  5
180
330
17F
100
AcDbEntity
  8
Ebene 1
 62
   179
420
  1709851
370
    18
100
AcDbVertex
100
AcDb2dVertex
 10
76.27062443839762
 20
-202.3600856698961
 30
0.0
  0
VERTEX
  5
181
330
17F
100
AcDbEntity
  8
Ebene 1
 62
   179
420
  1709851
370
    18
100
AcDbVertex
100
AcDb2dVertex
 10
95.25706242193226
 20
-202.3600856698961
 30
0.0
  0
SEQEND
  5
182
330
17F
100
AcDbEntity
  8
Ebene 1
370
    18
  0
POLYLINE
  5
183
330
1F
100
AcDbEntity
  8
Ebene 1
 62
   179
420
  1709851
370
    35
100
AcDb2dPolyline
 66
     1
 10
0.0
 20
0.0
 30
0.0
  0
VERTEX
  5
184
330
183
100
AcDbEntity
  8
Ebene 1
 62
   179
420
  1709851
370
    35
100
AcDbVertex
100
AcDb2dVertex
 10
107.914859999063
 20
-102.3687730321335
 30
0.0
  0
VERTEX
  5
185
330
183
100
AcDbEntity
  8
Ebene 1
 62
   179
420
  1709851
370
    35
100
AcDbVertex
100
AcDb2dVertex
 10
114.9211506874155
 20
-102.3687730321335
 30
0.0
  0
SEQEND
  5
186
330
183
100
AcDbEntity
  8
Ebene 1
370
    35
  0
POLYLINE
  5
187
330
1F
100
AcDbEntity
  8
Ebene 1
 62
   179
420
  1709851
370
    35
100
AcDb2dPolyline
 66
     1
 10
0.0
 20
0.0
 30
0.0
  0
VERTEX
  5
188
330
187
100
AcDbEntity
  8
Ebene 1
 62
   179
420
  1709851
370
    35
100
AcDbVertex
100
AcDb2dVertex
 10
105.9036132547741
 20
-102.3687730321335
 30
0.0
  0
VERTEX
  5
189
330
187
100
AcDbEntity
  8
Ebene 1
 62
   179
420
  1709851
370
    35
100
AcDbVertex
100
AcDb2dVertex
 10
106.9199164229228
 20
-102.3687730321335
 30
0.0
  0
SEQEND
  5
18A
330
187
100
AcDbEntity
  8
Ebene 1
370
    35
  0
POLYLINE
  5
18B
330
1F
100
AcDbEntity
  8
Ebene 1
 62
   179
420
  1709851
370
    35
100
AcDb2dPolyline
 66
     1
 10
0.0
 20
0.0
 30
0.0
  0
VERTEX
  5
18C
330
18B
100
AcDbEntity
  8
Ebene 1
 62
   179
420
  1709851
370
    35
100
AcDbVertex
100
AcDb2dVertex
 10
97.9030680093784
 20
-102.3687730321335
 30
0.0
  0
VERTEX
  5
18D
330
18B
100
AcDbEntity
  8
Ebene 1
 62
   179
420
  1709851
370
    35
100
AcDbVertex
100
AcDb2dVertex
 10
104.9091864429567
 20
-102.3687730321335
 30
0.0
  0
SEQEND
  5
18E
330
18B
100
AcDbEntity
  8
Ebene 1
370
    35
  0
POLYLINE
  5
18F
330
1F
100
AcDbEntity
  8
Ebene 1
 62
   179
420
  1709851
370
    35
100
AcDb2dPolyline
 66
     1
 10
0.0
 20
0.0
 30
0.0
  0
VERTEX
  5
190
330
18F
100
AcDbEntity
  8
Ebene 1
 62
   179
420
  1709851
370
    35
100
AcDbVertex
100
AcDb2dVertex
 10
95.91335311187235
 20
-102.3687730321335
 30
0.0
  0
VERTEX
  5
191
330
18F
100
AcDbEntity
  8
Ebene 1
 62
   179
420
  1709851
370
    35
100
AcDbVertex
100
AcDb2dVertex
 10
96.90795217846399
 20
-102.3687730321335
 30
0.0
  0
SEQEND
  5
192
330
18F
100
AcDbEntity
  8
Ebene 1
370
    35
  0
POLYLINE
  5
193
330
1F
100
AcDbEntity
  8
Ebene 1
 62
   179
420
  1709851
370
    35
100
AcDb2dPolyline
 66
     1
 10
0.0
 20
0.0
 30
0.0
  0
VERTEX
  5
194
330
193
100
AcDbEntity
  8
Ebene 1
 62
   179
420
  1709851
370
    35
100
AcDbVertex
100
AcDb2dVertex
 10
89.66928979963129
 20
-102.3687730321335
 30
0.0
  0
VERTEX
  5
195
330
193
100
AcDbEntity
  8
Ebene 1
 62
   179
420
  1709851
370
    35
100
AcDbVertex
100
AcDb2dVertex
 10
89.66928979963129
 20
-102.3687730321335
 30
0.0
  0
VERTEX
  5
196
330
193
100
AcDbEntity
  8
Ebene 1
 62
   179
420
  1709851
370
    35
100
AcDbVertex
100
AcDb2dVertex
 10
94.91858179050647
 20
-102.3687730321335
 30
0.0
  0
SEQEND
  5
197
330
193
100
AcDbEntity
  8
Ebene 1
370
    35
  0
INSERT
  5
199
330
1F
100
AcDbEntity
  8
Ebene 1
100
AcDbBlockReference
  2
block 4
 10
0.0
 20
0.0
 30
0.0
  0
POLYLINE
  5
477
330
1F
100
AcDbEntity
  8
Ebene 1
 62
   179
420
  1709851
370
    25
100
AcDb2dPolyline
 66
     1
 10
0.0
 20
0.0
 30
0.0
  0
VERTEX
  5
478
330
477
100
AcDbEntity
  8
Ebene 1
 62
   179
420
  1709851
370
    25
100
AcDbVertex
100
AcDb2dVertex
 10
70.87302108688245
 20
-137.3575072898794
 30
0.0
  0
VERTEX
  5
479
330
477
100
AcDbEntity
  8
Ebene 1
 62
   179
420
  1709851
370
    25
100
AcDbVertex
100
AcDb2dVertex
 10
70.87302108688245
 20
-65.771868201873
 30
0.0
  0
SEQEND
  5
47A
330
477
100
AcDbEntity
  8
Ebene 1
370
    25
  0
POLYLINE
  5
47B
330
1F
100
AcDbEntity
  8
Ebene 1
 62
   179
420
  1709851
370
    25
100
AcDb2dPolyline
 66
     1
 10
0.0
 20
0.0
 30
0.0
  0
VERTEX
  5
47C
330
47B
100
AcDbEntity
  8
Ebene 1
 62
   179
420
  1709851
370
    25
100
AcDbVertex
100
AcDb2dVertex
 10
69.2645060048193
 20
-65.771868201873
 30
0.0
  0
VERTEX
  5
47D
330
47B
100
AcDbEntity
  8
Ebene 1
 62
   179
420
  1709851
370
    25
100
AcDbVertex
100
AcDb2dVertex
 10
69.2645060048193
 20
-137.3575072898794
 30
0.0
  0
SEQEND
  5
47E
330
47B
100
AcDbEntity
  8
Ebene 1
370
    25
  0
POLYLINE
  5
47F
330
1F
100
AcDbEntity
  8
Ebene 1
 62
   179
420
  1709851
370
    25
100
AcDb2dPolyline
 66
     1
 10
0.0
 20
0.0
 30
0.0
  0
VERTEX
  5
480
330
47F
100
AcDbEntity
  8
Ebene 1
 62
   179
420
  1709851
370
    25
100
AcDbVertex
100
AcDb2dVertex
 10
69.2645060048193
 20
-137.3575072898794
 30
0.0
  0
VERTEX
  5
481
330
47F
100
AcDbEntity
  8
Ebene 1
 62
   179
420
  1709851
370
    25
100
AcDbVertex
100
AcDb2dVertex
 10
70.87302108688245
 20
-137.3575072898794
 30
0.0
  0
SEQEND
  5
482
330
47F
100
AcDbEntity
  8
Ebene 1
370
    25
  0
INSERT
  5
484
330
1F
100
AcDbEntity
  8
Ebene 1
100
AcDbBlockReference
  2
block 5
 10
0.0
 20
0.0
 30
0.0
  0
POLYLINE
  5
65D
330
1F
100
AcDbEntity
  8
Ebene 1
 62
   179
420
  1709851
370
    25
100
AcDb2dPolyline
 66
     1
 10
0.0
 20
0.0
 30
0.0
  0
VERTEX
  5
65E
330
65D
100
AcDbEntity
  8
Ebene 1
 62
   179
420
  1709851
370
    25
100
AcDbVertex
100
AcDb2dVertex
 10
97.90289575460415
 20
-131.9810912755985
 30
0.0
  0
VERTEX
  5
65F
330
65D
100
AcDbEntity
  8
Ebene 1
 62
   179
420
  1709851
370
    25
100
AcDbVertex
100
AcDb2dVertex
 10
98.89783933074429
 20
-131.9810912755985
 30
0.0
  0
SEQEND
  5
660
330
65D
100
AcDbEntity
  8
Ebene 1
370
    25
  0
POLYLINE
  5
661
330
1F
100
AcDbEntity
  8
Ebene 1
 62
   179
420
  1709851
370
    25
100
AcDb2dPolyline
 66
     1
 10
0.0
 20
0.0
 30
0.0
  0
VERTEX
  5
662
330
661
100
AcDbEntity
  8
Ebene 1
 62
   179
420
  1709851
370
    25
100
AcDbVertex
100
AcDb2dVertex
 10
95.9131808570981
 20
-131.9810912755985
 30
0.0
  0
VERTEX
  5
663
330
661
100
AcDbEntity
  8
Ebene 1
 62
   179
420
  1709851
370
    25
100
AcDbVertex
100
AcDb2dVertex
 10
96.90812443323826
 20
-131.9810912755985
 30
0.0
  0
SEQEND
  5
664
330
661
100
AcDbEntity
  8
Ebene 1
370
    25
  0
POLYLINE
  5
665
330
1F
100
AcDbEntity
  8
Ebene 1
 62
   179
420
  1709851
370
    25
100
AcDb2dPolyline
 66
     1
 10
0.0
 20
0.0
 30
0.0
  0
VERTEX
  5
666
330
665
100
AcDbEntity
  8
Ebene 1
 62
   179
420
  1709851
370
    25
100
AcDbVertex
100
AcDb2dVertex
 10
92.88649221853186
 20
-131.9810912755985
 30
0.0
  0
VERTEX
  5
667
330
665
100
AcDbEntity
  8
Ebene 1
 62
   179
420
  1709851
370
    25
100
AcDbVertex
100
AcDb2dVertex
 10
92.88649221853186
 20
-131.9810912755985
 30
0.0
  0
VERTEX
  5
668
330
665
100
AcDbEntity
  8
Ebene 1
 62
   179
420
  1709851
370
    25
100
AcDbVertex
100
AcDb2dVertex
 10
94.91840953573221
 20
-131.9810912755985
 30
0.0
  0
SEQEND
  5
669
330
665
100
AcDbEntity
  8
Ebene 1
370
    25
  0
INSERT
  5
66B
330
1F
100
AcDbEntity
  8
Ebene 1
100
AcDbBlockReference
  2
block 6
 10
0.0
 20
0.0
 30
0.0
  0
ENDSEC
  0
SECTION
  2
OBJECTS
  0
DICTIONARY
  5
C
330
0
100
AcDbDictionary
281
     1
  3
ACAD_GROUP
350
D
  3
ACAD_LAYOUT
350
1A
  3
ACAD_MLINESTYLE
350
17
  3
ACAD_PLOTSETTINGS
350
19
  3
ACAD_PLOTSTYLENAME
350
E
  3
ACAD_TABLESTYLE
350
681
  3
ACAD_VISUALSTYLE
350
2A
  0
DICTIONARY
  5
D
102
{ACAD_REACTORS
330
C
102
}
330
C
100
AcDbDictionary
281
     1
  0
DICTIONARY
  5
1A
102
{ACAD_REACTORS
330
C
102
}
330
C
100
AcDbDictionary
281
     1
  3
Layout1
350
1E
  3
Layout2
350
26
  3
Model
350
22
  0
DICTIONARY
  5
17
102
{ACAD_REACTORS
330
C
102
}
330
C
100
AcDbDictionary
281
     1
  3
Standard
350
18
  0
DICTIONARY
  5
19
102
{ACAD_REACTORS
330
C
102
}
330
C
100
AcDbDictionary
281
     1
  0
ACDBDICTIONARYWDFLT
  5
E
102
{ACAD_REACTORS
330
C
102
}
330
C
100
AcDbDictionary
281
     1
  3
Normal
350
F
100
AcDbDictionaryWithDefault
340
F
  0
DICTIONARY
  5
681
102
{ACAD_REACTORS
330
C
102
}
330
C
100
AcDbDictionary
281
     1
  0
DICTIONARY
  5
2A
102
{ACAD_REACTORS
330
C
102
}
330
C
100
AcDbDictionary
281
     1
  3
2dWireframe
350
2F
  3
3D Hidden
350
31
  3
3dWireframe
350
30
  3
Basic
350
32
  3
Brighten
350
36
  3
ColorChange
350
3A
  3
Conceptual
350
34
  3
Dim
350
35
  3
Facepattern
350
39
  3
Flat
350
2B
  3
FlatWithEdges
350
2C
  3
Gouraud
350
2D
  3
GouraudWithEdges
350
2E
  3
Linepattern
350
38
  3
Realistic
350
33
  3
Thicken
350
37
  0
LAYOUT
  5
1E
102
{ACAD_REACTORS
330
1A
102
}
330
1A
100
AcDbPlotSettings
  1

  2
none_device
  4

  6

 40
0.0
 41
0.0
 42
0.0
 43
0.0
 44
0.0
 45
0.0
 46
0.0
 47
0.0
 48
0.0
 49
0.0
140
0.0
141
0.0
142
1.0
143
1.0
 70
   688
 72
     0
 73
     0
 74
     5
  7

 75
    16
 76
     0
 77
     2
 78
   300
147
1.0
148
0.0
149
0.0
100
AcDbLayout
  1
Layout1
 70
     1
 71
     1
 10
0.0
 20
0.0
 11
12.0
 21
9.0
 12
0.0
 22
0.0
 32
0.0
 14
1.000000000000000E+20
 24
1.000000000000000E+20
 34
1.000000000000000E+20
 15
-1.000000000000000E+20
 25
-1.000000000000000E+20
 35
-1.000000000000000E+20
146
0.0
 13
0.0
 23
0.0
 33
0.0
 16
1.0
 26
0.0
 36
0.0
 17
0.0
 27
1.0
 37
0.0
 76
     0
330
1B
  0
LAYOUT
  5
26
102
{ACAD_REACTORS
330
1A
102
}
330
1A
100
AcDbPlotSettings
  1

  2
none_device
  4

  6

 40
0.0
 41
0.0
 42
0.0
 43
0.0
 44
0.0
 45
0.0
 46
0.0
 47
0.0
 48
0.0
 49
0.0
140
0.0
141
0.0
142
1.0
143
1.0
 70
   688
 72
     0
 73
     0
 74
     5
  7

 75
    16
 76
     0
 77
     2
 78
   300
147
1.0
148
0.0
149
0.0
100
AcDbLayout
  1
Layout2
 70
     1
 71
     2
 10
0.0
 20
0.0
 11
0.0
 21
0.0
 12
0.0
 22
0.0
 32
0.0
 14
0.0
 24
0.0
 34
0.0
 15
0.0
 25
0.0
 35
0.0
146
0.0
 13
0.0
 23
0.0
 33
0.0
 16
1.0
 26
0.0
 36
0.0
 17
0.0
 27
1.0
 37
0.0
 76
     0
330
23
  0
LAYOUT
  5
22
102
{ACAD_REACTORS
330
1A
102
}
330
1A
100
AcDbPlotSettings
  1

  2
none_device
  4

  6

 40
0.0
 41
0.0
 42
0.0
 43
0.0
 44
0.0
 45
0.0
 46
0.0
 47
0.0
 48
0.0
 49
0.0
140
0.0
141
0.0
142
1.0
143
1.0
 70
  1712
 72
     0
 73
     0
 74
     0
  7

 75
     0
 76
     0
 77
     2
 78
   300
147
1.0
148
0.0
149
0.0
100
AcDbLayout
  1
Model
 70
     1
 71
     0
 10
0.0
 20
0.0
 11
12.0
 21
9.0
 12
0.0
 22
0.0
 32
0.0
 14
1.000000000000000E+20
 24
1.000000000000000E+20
 34
1.000000000000000E+20
 15
-1.000000000000000E+20
 25
-1.000000000000000E+20
 35
-1.000000000000000E+20
146
0.0
 13
0.0
 23
0.0
 33
0.0
 16
1.0
 26
0.0
 36
0.0
 17
0.0
 27
1.0
 37
0.0
 76
     0
330
1F
331
29
  0
MLINESTYLE
  5
18
102
{ACAD_REACTORS
330
17
102
}
330
17
100
AcDbMlineStyle
  2
Standard
 70
     0
  3

 62
   256
 51
90.0
 52
90.0
 71
     2
 49
0.5
 62
   256
  6
BYLAYER
 49
-0.5
 62
   256
  6
BYLAYER
  0
ACDBPLACEHOLDER
  5
F
102
{ACAD_REACTORS
330
E
102
}
330
E
  0
VISUALSTYLE
  5
2F
102
{ACAD_REACTORS
330
2A
102
}
330
2A
100
AcDbVisualStyle
  2
2dWireframe
 70
     4
 71
     0
 72
     2
 73
     0
 90
        0
 40
-0.6
 41
-30.0
 62
     5
 63
     7
421
 16777215
 74
     1
 91
        4
 64
     7
 65
   257
 75
     1
175
     1
 42
1.0
 92
        0
 66
   257
 43
1.0
 76
     1
 77
     6
 78
     2
 67
     7
 79
     5
170
     0
171
     0
290
     0
174
     0
 93
        1
 44
0.0
173
     0
291
     0
 45
0.0
1001
ACAD
1000
AcDbSavedByObjectVersion
1070
     0
  0
VISUALSTYLE
  5
31
102
{ACAD_REACTORS
330
2A
102
}
330
2A
100
AcDbVisualStyle
  2
3D Hidden
 70
     6
 71
     1
 72
     2
 73
     2
 90
        0
 40
-0.6
 41
-30.0
 62
     5
 63
     7
421
 16777215
 74
     2
 91
        2
 64
     7
 65
   257
 75
     2
175
     1
 42
40.0
 92
        0
 66
   257
 43
1.0
 76
     1
 77
     6
 78
     2
 67
     7
 79
     3
170
     0
171
     0
290
     0
174
     0
 93
        1
 44
0.0
173
     0
291
     0
 45
0.0
1001
ACAD
1000
AcDbSavedByObjectVersion
1070
     0
  0
VISUALSTYLE
  5
30
102
{ACAD_REACTORS
330
2A
102
}
330
2A
100
AcDbVisualStyle
  2
3dWireframe
 70
     5
 71
     0
 72
     2
 73
     0
 90
        0
 40
-0.6
 41
-30.0
 62
     5
 63
     7
421
 16777215
 74
     1
 91
        4
 64
     7
 65
   257
 75
     1
175
     1
 42
1.0
 92
        0
 66
   257
 43
1.0
 76
     1
 77
     6
 78
     2
 67
     7
 79
     5
170
     0
171
     0
290
     0
174
     0
 93
        1
 44
0.0
173
     0
291
     0
 45
0.0
1001
ACAD
1000
AcDbSavedByObjectVersion
1070
     0
  0
VISUALSTYLE
  5
32
102
{ACAD_REACTORS
330
2A
102
}
330
2A
100
AcDbVisualStyle
  2
Basic
 70
     7
 71
     1
 72
     0
 73
     1
 90
        0
 40
-0.6
 41
-30.0
 62
     5
 63
     7
421
 16777215
 74
     0
 91
        4
 64
     7
 65
   257
 75
     1
175
     1
 42
1.0
 92
        8
 66
     7
 43
1.0
 76
     1
 77
     6
 78
     2
 67
     7
 79
     5
170
     0
171
     0
290
     0
174
     0
 93
        1
 44
0.0
173
     0
291
     1
 45
0.0
1001
ACAD
1000
AcDbSavedByObjectVersion
1070
     0
  0
VISUALSTYLE
  5
36
102
{ACAD_REACTORS
330
2A
102
}
330
2A
100
AcDbVisualStyle
  2
Brighten
 70
    12
 71
     2
 72
     2
 73
     0
 90
        0
 40
-0.6
 41
-30.0
 62
     5
 63
     7
421
 16777215
 74
     1
 91
        4
 64
     7
 65
   257
 75
     1
175
     1
 42
1.0
 92
        8
 66
     7
 43
1.0
 76
     1
 77
     6
 78
     2
 67
     7
 79
     5
170
     0
171
     0
290
     0
174
     0
 93
        1
 44
50.0
173
     0
291
     1
 45
0.0
1001
ACAD
1000
AcDbSavedByObjectVersion
1070
     0
  0
VISUALSTYLE
  5
3A
102
{ACAD_REACTORS
330
2A
102
}
330
2A
100
AcDbVisualStyle
  2
ColorChange
 70
    16
 71
     2
 72
     2
 73
     3
 90
        0
 40
-0.6
 41
-30.0
 62
     5
 63
     8
421
  8421504
 74
     1
 91
        4
 64
     7
 65
   257
 75
     1
175
     1
 42
1.0
 92
        8
 66
     8
424
  8421504
 43
1.0
 76
     1
 77
     6
 78
     2
 67
     7
 79
     5
170
     0
171
     0
290
     0
174
     0
 93
        1
 44
0.0
173
     0
291
     1
 45
0.0
1001
ACAD
1000
AcDbSavedByObjectVersion
1070
     0
  0
VISUALSTYLE
  5
34
102
{ACAD_REACTORS
330
2A
102
}
330
2A
100
AcDbVisualStyle
  2
Conceptual
 70
     9
 71
     3
 72
     2
 73
     0
 90
        0
 40
-0.6
 41
-30.0
 62
     5
 63
     7
421
 16777215
 74
     2
 91
        2
 64
     7
 65
   257
 75
     1
175
     1
 42
40.0
 92
        8
 66
     7
 43
1.0
 76
     1
 77
     6
 78
     2
 67
     7
 79
     3
170
     0
171
     0
290
     0
174
     0
 93
        1
 44
0.0
173
     0
291
     0
 45
0.0
1001
ACAD
1000
AcDbSavedByObjectVersion
1070
     0
  0
VISUALSTYLE
  5
35
102
{ACAD_REACTORS
330
2A
102
}
330
2A
100
AcDbVisualStyle
  2
Dim
 70
    11
 71
     2
 72
     2
 73
     0
 90
        0
 40
-0.6
 41
-30.0
 62
     5
 63
     7
421
 16777215
 74
     1
 91
        4
 64
     7
 65
   257
 75
     1
175
     1
 42
1.0
 92
        8
 66
     7
 43
1.0
 76
     1
 77
     6
 78
     2
 67
     7
 79
     5
170
     0
171
     0
290
     0
174
     0
 93
        1
 44
-50.0
173
     0
291
     1
 45
0.0
1001
ACAD
1000
AcDbSavedByObjectVersion
1070
     0
  0
VISUALSTYLE
  5
39
102
{ACAD_REACTORS
330
2A
102
}
330
2A
100
AcDbVisualStyle
  2
Facepattern
 70
    15
 71
     2
 72
     2
 73
     0
 90
        0
 40
-0.6
 41
-30.0
 62
     5
 63
     7
421
 16777215
 74
     1
 91
        4
 64
     7
 65
   257
 75
     1
175
     1
 42
1.0
 92
        8
 66
     7
 43
1.0
 76
     1
 77
     6
 78
     2
 67
     7
 79
     5
170
     0
171
     0
290
     0
174
     0
 93
        1
 44
0.0
173
     0
291
     1
 45
0.0
1001
ACAD
1000
AcDbSavedByObjectVersion
1070
     0
  0
VISUALSTYLE
  5
2B
102
{ACAD_REACTORS
330
2A
102
}
330
2A
100
AcDbVisualStyle
  2
Flat
 70
     0
 71
     2
 72
     1
 73
     1
 90
        2
 40
-0.6
 41
30.0
 62
     5
 63
     7
421
 16777215
 74
     0
 91
        4
 64
     7
 65
   257
 75
     1
175
     1
 42
1.0
 92
        8
 66
     7
 43
1.0
 76
     1
 77
     6
 78
     2
 67
     7
 79
     5
170
     0
171
     0
290
     0
174
     0
 93
       13
 44
0.0
173
     0
291
     1
 45
0.0
1001
ACAD
1000
AcDbSavedByObjectVersion
1070
     0
  0
VISUALSTYLE
  5
2C
102
{ACAD_REACTORS
330
2A
102
}
330
2A
100
AcDbVisualStyle
  2
FlatWithEdges
 70
     1
 71
     2
 72
     1
 73
     1
 90
        2
 40
-0.6
 41
30.0
 62
     5
 63
     7
421
 16777215
 74
     1
 91
        4
 64
     7
 65
   257
 75
     1
175
     1
 42
1.0
 92
        0
 66
   257
 43
1.0
 76
     1
 77
     6
 78
     2
 67
     7
 79
     5
170
     0
171
     0
290
     0
174
     0
 93
       13
 44
0.0
173
     0
291
     1
 45
0.0
1001
ACAD
1000
AcDbSavedByObjectVersion
1070
     0
  0
VISUALSTYLE
  5
2D
102
{ACAD_REACTORS
330
2A
102
}
330
2A
100
AcDbVisualStyle
  2
Gouraud
 70
     2
 71
     2
 72
     2
 73
     1
 90
        2
 40
-0.6
 41
30.0
 62
     5
 63
     7
421
 16777215
 74
     0
 91
        4
 64
     7
 65
   257
 75
     1
175
     1
 42
1.0
 92
        0
 66
     7
 43
1.0
 76
     1
 77
     6
 78
     2
 67
     7
 79
     5
170
     0
171
     0
290
     0
174
     0
 93
       13
 44
0.0
173
     0
291
     1
 45
0.0
1001
ACAD
1000
AcDbSavedByObjectVersion
1070
     0
  0
VISUALSTYLE
  5
2E
102
{ACAD_REACTORS
330
2A
102
}
330
2A
100
AcDbVisualStyle
  2
GouraudWithEdges
 70
     3
 71
     2
 72
     2
 73
     1
 90
        2
 40
-0.6
 41
30.0
 62
     5
 63
     7
421
 16777215
 74
     1
 91
        4
 64
     7
 65
   257
 75
     1
175
     1
 42
1.0
 92
        0
 66
   257
 43
1.0
 76
     1
 77
     6
 78
     2
 67
     7
 79
     5
170
     0
171
     0
290
     0
174
     0
 93
       13
 44
0.0
173
     0
291
     1
 45
0.0
1001
ACAD
1000
AcDbSavedByObjectVersion
1070
     0
  0
VISUALSTYLE
  5
38
102
{ACAD_REACTORS
330
2A
102
}
330
2A
100
AcDbVisualStyle
  2
Linepattern
 70
    14
 71
     2
 72
     2
 73
     0
 90
        0
 40
-0.6
 41
-30.0
 62
     5
 63
     7
421
 16777215
 74
     1
 91
        4
 64
     7
 65
   257
 75
     7
175
     7
 42
1.0
 92
        8
 66
     7
 43
1.0
 76
     1
 77
     6
 78
     2
 67
     7
 79
     5
170
     0
171
     0
290
     0
174
     0
 93
        1
 44
0.0
173
     0
291
     1
 45
0.0
1001
ACAD
1000
AcDbSavedByObjectVersion
1070
     0
  0
VISUALSTYLE
  5
33
102
{ACAD_REACTORS
330
2A
102
}
330
2A
100
AcDbVisualStyle
  2
Realistic
 70
     8
 71
     2
 72
     2
 73
     0
 90
        0
 40
-0.6
 41
-30.0
 62
     5
 63
     7
421
 16777215
 74
     1
 91
        0
 64
     7
 65
   257
 75
     1
175
     1
 42
1.0
 92
        8
 66
     8
424
  7895160
 43
1.0
 76
     1
 77
     6
 78
     2
 67
     7
 79
     5
170
     0
171
     0
290
     0
174
     0
 93
       13
 44
0.0
173
     0
291
     0
 45
0.0
1001
ACAD
1000
AcDbSavedByObjectVersion
1070
     0
  0
VISUALSTYLE
  5
37
102
{ACAD_REACTORS
330
2A
102
}
330
2A
100
AcDbVisualStyle
  2
Thicken
 70
    13
 71
     2
 72
     2
 73
     0
 90
        0
 40
-0.6
 41
-30.0
 62
     5
 63
     7
421
 16777215
 74
     1
 91
        4
 64
     7
 65
   257
 75
     1
175
     1
 42
1.0
 92
       12
 66
     7
 43
1.0
 76
     1
 77
     6
 78
     2
 67
     7
 79
     5
170
     0
171
     0
290
     0
174
     0
 93
        1
 44
0.0
173
     0
291
     1
 45
0.0
1001
ACAD
1000
AcDbSavedByObjectVersion
1070
     0
  0
ENDSEC
  0
EOF
