  0
SECTION
  2
HEADER
  9
$ACADVER
  1
AC1018
  9
$ACADMAINTVER
 70
     0
  9
$DWGCODEPAGE
  3
ANSI_1252
  9
$INSBASE
 10
0.0
 20
0.0
 30
0.0
  9
$EXTMIN
 10
-8.995833333333314
 20
-3.81
 30
-8.995833333333314
  9
$EXTMAX
 10
-5.845833333333314
 20
0.645
 30
-5.845833333333314
  9
$LIMMIN
 10
-8.995833333333314
 20
-3.81
  9
$LIMMAX
 10
-5.845833333333314
 20
0.645
  9
$ORTHOMODE
 70
     0
  9
$REGENMODE
 70
     1
  9
$FILLMODE
 70
     1
  9
$QTEXTMODE
 70
     0
  9
$MIRRTEXT
 70
     1
  9
$LTSCALE
 40
1.0
  9
$ATTMODE
 70
     1
  9
$TEXTSIZE
 40
0.2
  9
$TRACEWID
 40
0.05
  9
$TEXTSTYLE
  7
Standard
  9
$CLAYER
  8
0
  9
$CELTYPE
  6
ByLayer
  9
$CECOLOR
 62
   256
  9
$CELTSCALE
 40
1.0
  9
$DISPSILH
 70
     0
  9
$DIMSCALE
 40
1.0
  9
$DIMASZ
 40
0.18
  9
$DIMEXO
 40
0.0625
  9
$DIMDLI
 40
0.38
  9
$DIMRND
 40
0.0
  9
$DIMDLE
 40
0.0
  9
$DIMEXE
 40
0.18
  9
$DIMTP
 40
0.0
  9
$DIMTM
 40
0.0
  9
$DIMTXT
 40
0.18
  9
$DIMCEN
 40
0.09
  9
$DIMTSZ
 40
0.0
  9
$DIMTOL
 70
     0
  9
$DIMLIM
 70
     0
  9
$DIMTIH
 70
     1
  9
$DIMTOH
 70
     1
  9
$DIMSE1
 70
     0
  9
$DIMSE2
 70
     0
  9
$DIMTAD
 70
     0
  9
$DIMZIN
 70
     0
  9
$DIMBLK
  1

  9
$DIMASO
 70
     1
  9
$DIMSHO
 70
     1
  9
$DIMPOST
  1

  9
$DIMAPOST
  1

  9
$DIMALT
 70
     0
  9
$DIMALTD
 70
     2
  9
$DIMALTF
 40
25.4
  9
$DIMLFAC
 40
1.0
  9
$DIMTOFL
 70
     0
  9
$DIMTVP
 40
0.0
  9
$DIMTIX
 70
     0
  9
$DIMSOXD
 70
     0
  9
$DIMSAH
 70
     0
  9
$DIMBLK1
  1

  9
$DIMBLK2
  1

  9
$DIMSTYLE
  2
Standard
  9
$DIMCLRD
 70
     0
  9
$DIMCLRE
 70
     0
  9
$DIMCLRT
 70
     0
  9
$DIMTFAC
 40
1.0
  9
$DIMGAP
 40
0.09
  9
$DIMJUST
 70
     0
  9
$DIMSD1
 70
     0
  9
$DIMSD2
 70
     0
  9
$DIMTOLJ
 70
     1
  9
$DIMTZIN
 70
     0
  9
$DIMALTZ
 70
     0
  9
$DIMALTTZ
 70
     0
  9
$DIMUPT
 70
     0
  9
$DIMDEC
 70
     4
  9
$DIMTDEC
 70
     4
  9
$DIMALTU
 70
     2
  9
$DIMALTTD
 70
     2
  9
$DIMTXSTY
  7
Standard
  9
$DIMAUNIT
 70
     0
  9
$DIMADEC
 70
     0
  9
$DIMALTRND
 40
0.0
  9
$DIMAZIN
 70
     0
  9
$DIMDSEP
 70
    46
  9
$DIMATFIT
 70
     3
  9
$DIMFRAC
 70
     0
  9
$DIMLDRBLK
  1

  9
$DIMLUNIT
 70
     2
  9
$DIMLWD
 70
    -2
  9
$DIMLWE
 70
    -2
  9
$DIMTMOVE
 70
     0
  9
$LUNITS
 70
     2
  9
$LUPREC
 70
     4
  9
$SKETCHINC
 40
0.1
  9
$FILLETRAD
 40
0.5
  9
$AUNITS
 70
     0
  9
$AUPREC
 70
     0
  9
$MENU
  1
.
  9
$ELEVATION
 40
0.0
  9
$PELEVATION
 40
0.0
  9
$THICKNESS
 40
0.0
  9
$LIMCHECK
 70
     0
  9
$CHAMFERA
 40
0.5
  9
$CHAMFERB
 40
0.5
  9
$CHAMFERC
 40
1.0
  9
$CHAMFERD
 40
0.0
  9
$SKPOLY
 70
     0
  9
$TDCREATE
 40
2456756.391718322
  9
$TDUCREATE
 40
2456756.308384988
  9
$TDUPDATE
 40
2456756.391718333
  9
$TDUUPDATE
 40
2456756.308385
  9
$TDINDWG
 40
0.0000000116
  9
$TDUSRTIMER
 40
0.0000000116
  9
$USRTIMER
 70
     1
  9
$ANGBASE
 50
0.0
  9
$ANGDIR
 70
     0
  9
$PDMODE
 70
    65
  9
$PDSIZE
 40
0.0
  9
$PLINEWID
 40
0.0
  9
$SPLFRAME
 70
     0
  9
$SPLINETYPE
 70
     6
  9
$SPLINESEGS
 70
     8
  9
$HANDSEED
  5
A5
  9
$SURFTAB1
 70
     6
  9
$SURFTAB2
 70
     6
  9
$SURFTYPE
 70
     6
  9
$SURFU
 70
     6
  9
$SURFV
 70
     6
  9
$UCSBASE
  2

  9
$UCSNAME
  2

  9
$UCSORG
 10
0.0
 20
0.0
 30
0.0
  9
$UCSXDIR
 10
1.0
 20
0.0
 30
0.0
  9
$UCSYDIR
 10
0.0
 20
1.0
 30
0.0
  9
$UCSORTHOREF
  2

  9
$UCSORTHOVIEW
 70
     0
  9
$UCSORGTOP
 10
0.0
 20
0.0
 30
0.0
  9
$UCSORGBOTTOM
 10
0.0
 20
0.0
 30
0.0
  9
$UCSORGLEFT
 10
0.0
 20
0.0
 30
0.0
  9
$UCSORGRIGHT
 10
0.0
 20
0.0
 30
0.0
  9
$UCSORGFRONT
 10
0.0
 20
0.0
 30
0.0
  9
$UCSORGBACK
 10
0.0
 20
0.0
 30
0.0
  9
$PUCSBASE
  2

  9
$PUCSNAME
  2

  9
$PUCSORG
 10
0.0
 20
0.0
 30
0.0
  9
$PUCSXDIR
 10
1.0
 20
0.0
 30
0.0
  9
$PUCSYDIR
 10
0.0
 20
1.0
 30
0.0
  9
$PUCSORTHOREF
  2

  9
$PUCSORTHOVIEW
 70
     0
  9
$PUCSORGTOP
 10
0.0
 20
0.0
 30
0.0
  9
$PUCSORGBOTTOM
 10
0.0
 20
0.0
 30
0.0
  9
$PUCSORGLEFT
 10
0.0
 20
0.0
 30
0.0
  9
$PUCSORGRIGHT
 10
0.0
 20
0.0
 30
0.0
  9
$PUCSORGFRONT
 10
0.0
 20
0.0
 30
0.0
  9
$PUCSORGBACK
 10
0.0
 20
0.0
 30
0.0
  9
$USERI1
 70
     0
  9
$USERI2
 70
     0
  9
$USERI3
 70
     0
  9
$USERI4
 70
     0
  9
$USERI5
 70
     0
  9
$USERR1
 40
0.0
  9
$USERR2
 40
0.0
  9
$USERR3
 40
0.0
  9
$USERR4
 40
0.0
  9
$USERR5
 40
0.0
  9
$WORLDVIEW
 70
     1
  9
$SHADEDGE
 70
     3
  9
$SHADEDIF
 70
    70
  9
$TILEMODE
 70
     1
  9
$MAXACTVP
 70
    64
  9
$PINSBASE
 10
0.0
 20
0.0
 30
0.0
  9
$PLIMCHECK
 70
     0
  9
$PEXTMIN
 10
1.000000000000000E+20
 20
1.000000000000000E+20
 30
1.000000000000000E+20
  9
$PEXTMAX
 10
-1.000000000000000E+20
 20
-1.000000000000000E+20
 30
-1.000000000000000E+20
  9
$PLIMMIN
 10
0.0
 20
0.0
  9
$PLIMMAX
 10
12.0
 20
9.0
  9
$UNITMODE
 70
     0
  9
$VISRETAIN
 70
     1
  9
$PLINEGEN
 70
     0
  9
$PSLTSCALE
 70
     1
  9
$TREEDEPTH
 70
  3020
  9
$CMLSTYLE
  2
Standard
  9
$CMLJUST
 70
     0
  9
$CMLSCALE
 40
1.0
  9
$PROXYGRAPHICS
 70
     1
  9
$MEASUREMENT
 70
     1
  9
$CELWEIGHT
370
    -1
  9
$ENDCAPS
280
     0
  9
$JOINSTYLE
280
     0
  9
$LWDISPLAY
290
     0
  9
$INSUNITS
 70
     6
  9
$HYPERLINKBASE
  1

  9
$STYLESHEET
  1

  9
$XEDIT
290
     1
  9
$CEPSNTYPE
380
     0
  9
$PSTYLEMODE
290
     1
  9
$FINGERPRINTGUID
  2
{B416886D-BB71-440A-8A52-803622268B4B}
  9
$VERSIONGUID
  2
{FAEB1C32-E019-11D5-929B-00C0DF256EC4}
  9
$EXTNAMES
290
     1
  9
$PSVPSCALE
 40
0.0
  9
$OLESTARTUP
290
     0
  9
$SORTENTS
280
   127
  9
$INDEXCTL
280
     0
  9
$HIDETEXT
280
     1
  9
$XCLIPFRAME
290
     0
  9
$HALOGAP
280
     0
  9
$OBSCOLOR
 70
   257
  9
$OBSLTYPE
280
     0
  9
$INTERSECTIONDISPLAY
280
     0
  9
$INTERSECTIONCOLOR
 70
   257
  9
$DIMASSOC
280
     2
  9
$PROJECTNAME
  1

  0
ENDSEC
  0
SECTION
  2
CLASSES
  0
CLASS
  1
ACDBDICTIONARYWDFLT
  2
AcDbDictionaryWithDefault
  3
ObjectDBX Classes
 90
        0
 91
        4
280
     0
281
     0
  0
CLASS
  1
SORTENTSTABLE
  2
AcDbSortentsTable
  3
ObjectDBX Classes
 90
        0
 91
        3
280
     0
281
     0
  0
ENDSEC
  0
SECTION
  2
TABLES
  0
TABLE
  2
VPORT
  5
8
330
0
100
AcDbSymbolTable
 70
     1
  0
VPORT
  5
29
330
8
100
AcDbSymbolTableRecord
100
AcDbViewportTableRecord
  2
*Active
 70
     0
 10
0.0
 20
0.0
 11
1.0
 21
1.0
 12
-7.420833333333314
 22
-1.5825
 13
0.0
 23
0.0
 14
0.5
 24
0.5
 15
0.5
 25
0.5
 16
0.0
 26
0.0
 36
1.0
 17
0.0
 27
0.0
 37
0.0
 40
5.346
 41
0.8484848484848485
 42
50.0
 43
0.0
 44
0.0
 50
0.0
 51
0.0
 71
     0
 72
   100
 73
     1
 74
     3
 75
     0
 76
     0
 77
     0
 78
     0
281
     0
 65
     1
110
0.0
120
0.0
130
0.0
111
1.0
121
0.0
131
0.0
112
0.0
122
1.0
132
0.0
 79
     0
146
0.0
  0
ENDTAB
  0
TABLE
  2
LTYPE
  5
5
330
0
100
AcDbSymbolTable
 70
     2
  0
LTYPE
  5
14
330
5
100
AcDbSymbolTableRecord
100
AcDbLinetypeTableRecord
  2
ByBlock
 70
     0
  3

 72
    65
 73
     0
 40
0.0
  0
LTYPE
  5
15
330
5
100
AcDbSymbolTableRecord
100
AcDbLinetypeTableRecord
  2
ByLayer
 70
     0
  3

 72
    65
 73
     0
 40
0.0
  0
LTYPE
  5
16
330
5
100
AcDbSymbolTableRecord
100
AcDbLinetypeTableRecord
  2
Continuous
 70
     0
  3
Solid line
 72
    65
 73
     0
 40
0.0
  0
LTYPE
  5
2A
330
5
100
AcDbSymbolTableRecord
100
AcDbLinetypeTableRecord
  2
AUSGEZOGEN
 70
     0
  3
durchgezogene Linie
 72
    65
 73
     0
 40
0.0
  0
ENDTAB
  0
TABLE
  2
LAYER
  5
2
330
0
100
AcDbSymbolTable
 70
     2
  0
LAYER
  5
10
330
2
100
AcDbSymbolTableRecord
100
AcDbLayerTableRecord
  2
0
 70
     0
 62
     7
  6
Continuous
370
    -3
390
F
  0
LAYER
  5
2C
330
2
100
AcDbSymbolTableRecord
100
AcDbLayerTableRecord
  2
STANDARD
 70
     0
 62
     7
  6
AUSGEZOGEN
370
    18
390
F
1001
AcAecLayerStandard
1000

1000
STANDARD
  0
ENDTAB
  0
TABLE
  2
STYLE
  5
3
330
0
100
AcDbSymbolTable
 70
     2
  0
STYLE
  5
11
330
3
100
AcDbSymbolTableRecord
100
AcDbTextStyleTableRecord
  2
Standard
 70
     0
 40
0.0
 41
1.0
 50
0.0
 71
     0
 42
0.2
  3
txt
  4

  0
STYLE
  5
2B
330
3
100
AcDbSymbolTableRecord
100
AcDbTextStyleTableRecord
  2
ARIAL
 70
     0
 40
0.0
 41
1.0
 50
0.0
 71
     0
 42
0.0
  3
ARIAL.TTF
  4

1001
ACAD
1000
Arial
1071
       34
  0
ENDTAB
  0
TABLE
  2
VIEW
  5
6
330
0
100
AcDbSymbolTable
 70
     0
  0
ENDTAB
  0
TABLE
  2
UCS
  5
7
330
0
100
AcDbSymbolTable
 70
     0
  0
ENDTAB
  0
TABLE
  2
APPID
  5
9
330
0
100
AcDbSymbolTable
 70
     2
  0
APPID
  5
12
330
9
100
AcDbSymbolTableRecord
100
AcDbRegAppTableRecord
  2
ACAD
 70
     0
  0
APPID
  5
2D
330
9
100
AcDbSymbolTableRecord
100
AcDbRegAppTableRecord
  2
AcAecLayerStandard
 70
     0
  0
ENDTAB
  0
TABLE
  2
DIMSTYLE
  5
A
330
0
100
AcDbSymbolTable
 70
     1
100
AcDbDimStyleTable
  0
DIMSTYLE
105
27
330
A
100
AcDbSymbolTableRecord
100
AcDbDimStyleTableRecord
  2
Standard
 70
     0
340
11
  0
ENDTAB
  0
TABLE
  2
BLOCK_RECORD
  5
1
330
0
100
AcDbSymbolTable
 70
     1
  0
BLOCK_RECORD
  5
1F
102
{ACAD_XDICTIONARY
360
A3
102
}
330
1
100
AcDbSymbolTableRecord
100
AcDbBlockTableRecord
  2
*Model_Space
340
22
  0
BLOCK_RECORD
  5
1B
330
1
100
AcDbSymbolTableRecord
100
AcDbBlockTableRecord
  2
*Paper_Space
340
1E
  0
BLOCK_RECORD
  5
23
330
1
100
AcDbSymbolTableRecord
100
AcDbBlockTableRecord
  2
*Paper_Space0
340
26
  0
ENDTAB
  0
ENDSEC
  0
SECTION
  2
BLOCKS
  0
BLOCK
  5
20
330
1F
100
AcDbEntity
  8
0
100
AcDbBlockBegin
  2
*Model_Space
 70
     0
 71
     0
 10
0.0
 20
0.0
 30
0.0
  3
*Model_Space
  1

  0
ENDBLK
  5
21
330
1F
100
AcDbEntity
  8
0
100
AcDbBlockEnd
  0
BLOCK
  5
1C
330
1B
100
AcDbEntity
 67
     1
  8
0
100
AcDbBlockBegin
  2
*Paper_Space
 70
     0
 71
     0
 10
0.0
 20
0.0
 30
0.0
  3
*Paper_Space
  1

  0
ENDBLK
  5
1D
330
1B
100
AcDbEntity
 67
     1
  8
0
100
AcDbBlockEnd
  0
BLOCK
  5
24
330
23
100
AcDbEntity
  8
0
100
AcDbBlockBegin
  2
*Paper_Space0
 70
     0
 71
     0
 10
0.0
 20
0.0
 30
0.0
  3
*Paper_Space0
  1

  0
ENDBLK
  5
25
330
23
100
AcDbEntity
  8
0
100
AcDbBlockEnd
  0
ENDSEC
  0
SECTION
  2
ENTITIES
  0
LINE
  5
2E
330
1F
100
AcDbEntity
  8
STANDARD
  6
AUSGEZOGEN
 62
    34
370
    70
100
AcDbLine
 10
-8.995833333333314
 20
0.645
 30
0.0
 11
-8.995833333333314
 21
-3.81
 31
0.0
  0
LINE
  5
2F
330
1F
100
AcDbEntity
  8
STANDARD
  6
AUSGEZOGEN
 62
    34
370
    70
100
AcDbLine
 10
-5.845833333333314
 20
0.645
 30
0.0
 11
-8.995833333333314
 21
0.645
 31
0.0
  0
LINE
  5
30
330
1F
100
AcDbEntity
  8
STANDARD
  6
AUSGEZOGEN
 62
    34
370
    70
100
AcDbLine
 10
-5.845833333333314
 20
-3.81
 30
0.0
 11
-5.845833333333314
 21
0.645
 31
0.0
  0
LINE
  5
31
330
1F
100
AcDbEntity
  8
STANDARD
  6
AUSGEZOGEN
 62
    34
370
    70
100
AcDbLine
 10
-8.995833333333314
 20
-3.81
 30
0.0
 11
-5.845833333333314
 21
-3.81
 31
0.0
  0
MTEXT
  5
32
330
1F
100
AcDbEntity
  8
STANDARD
  6
AUSGEZOGEN
 62
     7
370
    18
100
AcDbMText
 10
-8.36246395982735
 20
-2.902495427819671
 30
0.0
 40
0.0525
 41
2.036143755227937
 71
     7
 72
     5
  1
\W1.00;WEITERE\~OBJEKTSPEZIFISCHE\~DETAILS\~AUF\~ANFRAGE\~
  7
ARIAL
 73
     1
 44
1.0
  0
MTEXT
  5
33
330
1F
100
AcDbEntity
  8
STANDARD
  6
AUSGEZOGEN
 62
     7
370
    18
100
AcDbMText
 10
-8.364795591541828
 20
-3.008024079401748
 30
0.0
 40
0.0525
 41
2.059812724825962
 71
     7
 72
     5
  1
\W1.00;FURTHER\~PROJECT-RELATED\~DETAILS\~UPON\~REQUEST\~
  7
ARIAL
 73
     1
 44
1.0
  0
MTEXT
  5
34
330
1F
100
AcDbEntity
  8
STANDARD
  6
AUSGEZOGEN
 62
     7
370
    18
100
AcDbMText
 10
-8.366986111110805
 20
-3.106488755518341
 30
0.0
 40
0.0525
 41
2.106182551226916
 71
     7
 72
     5
  1
\W1.00;D'AUTRES\~DETAILS\~RELATIFS\~AU\~PROJET\~SUR\~DEMANDE\~
  7
ARIAL
 73
     1
 44
1.0
  0
MTEXT
  5
35
330
1F
100
AcDbEntity
  8
STANDARD
  6
AUSGEZOGEN
 62
     7
370
    18
100
AcDbMText
 10
-8.642408752031637
 20
-3.607864852651638
 30
0.0
 40
0.027
 41
2.689381381407752
 71
     7
 72
     5
  1
\W0.85;THESE\~ARE\~NOT\~BINDING\~CONSTRUCTION\~PROPOSALS\~WHICH\~HAVE\~TO\~BE\~VERIFIED\~FOR\~EACH\~INDIVIDUAL\~PROJECT\~AS\~REGARDS\~APPLICABILITY\~AND\~CORRECTNESS.
  7
ARIAL
 73
     1
 44
1.0
  0
MTEXT
  5
36
330
1F
100
AcDbEntity
  8
STANDARD
  6
AUSGEZOGEN
 62
     7
370
    18
100
AcDbMText
 10
-8.642408752031637
 20
-3.553865392651638
 30
0.0
 40
0.027
 41
2.692500557600295
 71
     7
 72
     5
  1
\W0.91;DIES\~SIND\~UNVERBINDLICHE\~KONSTRUKTIONSVORSCHLÄGE,\~DIE\~FÜR\~JEDES\~PROJEKT\~AUF\~ANWENDBARKEIT\~UND\~RICHTIGKEIT\~GEPRÜFT\~WERDEN\~MÜSSEN.
  7
ARIAL
 73
     1
 44
1.0
  0
MTEXT
  5
37
330
1F
100
AcDbEntity
  8
STANDARD
  6
AUSGEZOGEN
 62
     7
370
    18
100
AcDbMText
 10
-8.642408752031635
 20
-3.661864312651638
 30
0.0
 40
0.027
 41
2.687412885294378
 71
     7
 72
     5
  1
\W0.80;IL\~S'\~AGIT\~DE\~PROPOSITIONS\~DE\~CONSTRUCTION\~SANS\~ENGAGEMENT\~DE\~NOTRE\~PART\~QUI\~DOIVENT\~ETRE\~VERIFIEES\~POUR\~CHAQUE\~PROJET\~A\~LEUR\~EXACTITUDE\~ET\~FAISABILITE.
  7
ARIAL
 73
     1
 44
1.0
  0
LINE
  5
38
330
1F
100
AcDbEntity
  8
STANDARD
  6
AUSGEZOGEN
 62
     7
370
    18
100
AcDbLine
 10
-6.291895597484254
 20
-0.3994877358490576
 30
0.0
 11
-6.291895597484254
 21
-2.719487735849057
 31
0.0
  0
LINE
  5
39
330
1F
100
AcDbEntity
  8
STANDARD
  6
AUSGEZOGEN
 62
     7
370
    18
100
AcDbLine
 10
-6.231895597484254
 20
-0.4594877358490576
 30
0.0
 11
-8.551895597484254
 21
-0.4594877358490576
 31
0.0
  0
LINE
  5
3A
330
1F
100
AcDbEntity
  8
STANDARD
  6
AUSGEZOGEN
 62
     7
370
    18
100
AcDbLine
 10
-8.551895597484254
 20
-2.659487735849057
 30
0.0
 11
-6.231895597484254
 21
-2.659487735849057
 31
0.0
  0
LINE
  5
3B
330
1F
100
AcDbEntity
  8
STANDARD
  6
AUSGEZOGEN
 62
     7
370
    18
100
AcDbLine
 10
-8.491895597484254
 20
-2.719487735849057
 30
0.0
 11
-8.491895597484254
 21
-0.3994877358490576
 31
0.0
  0
LINE
  5
3C
330
1F
100
AcDbEntity
  8
STANDARD
  6
AUSGEZOGEN
 62
     7
370
    18
100
AcDbLine
 10
-6.469895597484252
 20
-2.163487735849059
 30
0.0
 11
-6.469895597484252
 21
-2.65948773584906
 31
0.0
  0
LINE
  5
3D
330
1F
100
AcDbEntity
  8
STANDARD
  6
AUSGEZOGEN
 62
     7
370
    18
100
AcDbLine
 10
-6.477895597484252
 20
-2.163487735849059
 30
0.0
 11
-6.477895597484252
 21
-2.65948773584906
 31
0.0
  0
LINE
  5
3E
330
1F
100
AcDbEntity
  8
STANDARD
  6
AUSGEZOGEN
 62
     7
370
    18
100
AcDbLine
 10
-6.469895597484252
 20
-1.56348773584906
 30
0.0
 11
-6.469895597484252
 21
-2.155487735849059
 31
0.0
  0
LINE
  5
3F
330
1F
100
AcDbEntity
  8
STANDARD
  6
AUSGEZOGEN
 62
     7
370
    18
100
AcDbLine
 10
-6.477895597484252
 20
-1.56348773584906
 30
0.0
 11
-6.477895597484252
 21
-2.155487735849059
 31
0.0
  0
LINE
  5
40
330
1F
100
AcDbEntity
  8
STANDARD
  6
AUSGEZOGEN
 62
     7
370
    18
100
AcDbLine
 10
-6.469895597484252
 20
-0.4594877358490603
 30
0.0
 11
-6.469895597484252
 21
-0.9554877358490603
 31
0.0
  0
LINE
  5
41
330
1F
100
AcDbEntity
  8
STANDARD
  6
AUSGEZOGEN
 62
     7
370
    18
100
AcDbLine
 10
-6.469895597484252
 20
-0.9634877358490603
 30
0.0
 11
-6.469895597484252
 21
-1.55548773584906
 31
0.0
  0
LINE
  5
42
330
1F
100
AcDbEntity
  8
STANDARD
  6
AUSGEZOGEN
 62
     7
370
    18
100
AcDbLine
 10
-6.477895597484252
 20
-0.4594877358490603
 30
0.0
 11
-6.477895597484252
 21
-0.9554877358490603
 31
0.0
  0
LINE
  5
43
330
1F
100
AcDbEntity
  8
STANDARD
  6
AUSGEZOGEN
 62
     7
370
    18
100
AcDbLine
 10
-6.477895597484252
 20
-0.9634877358490603
 30
0.0
 11
-6.477895597484252
 21
-1.55548773584906
 31
0.0
  0
LINE
  5
44
330
1F
100
AcDbEntity
  8
STANDARD
  6
AUSGEZOGEN
 62
     7
370
    18
100
AcDbLine
 10
-6.769895597484256
 20
-2.163487735849056
 30
0.0
 11
-6.769895597484256
 21
-2.659487735849055
 31
0.0
  0
LINE
  5
45
330
1F
100
AcDbEntity
  8
STANDARD
  6
AUSGEZOGEN
 62
     7
370
    18
100
AcDbLine
 10
-6.777895597484256
 20
-2.163487735849056
 30
0.0
 11
-6.777895597484256
 21
-2.659487735849055
 31
0.0
  0
LINE
  5
46
330
1F
100
AcDbEntity
  8
STANDARD
  6
AUSGEZOGEN
 62
     7
370
    18
100
AcDbLine
 10
-6.769895597484256
 20
-1.563487735849056
 30
0.0
 11
-6.769895597484256
 21
-2.155487735849056
 31
0.0
  0
LINE
  5
47
330
1F
100
AcDbEntity
  8
STANDARD
  6
AUSGEZOGEN
 62
     7
370
    18
100
AcDbLine
 10
-6.777895597484256
 20
-1.563487735849056
 30
0.0
 11
-6.777895597484256
 21
-2.155487735849056
 31
0.0
  0
LINE
  5
48
330
1F
100
AcDbEntity
  8
STANDARD
  6
AUSGEZOGEN
 62
     7
370
    18
100
AcDbLine
 10
-6.769895597484256
 20
-0.4594877358490558
 30
0.0
 11
-6.769895597484256
 21
-0.9554877358490558
 31
0.0
  0
LINE
  5
49
330
1F
100
AcDbEntity
  8
STANDARD
  6
AUSGEZOGEN
 62
     7
370
    18
100
AcDbLine
 10
-6.769895597484256
 20
-0.9634877358490558
 30
0.0
 11
-6.769895597484256
 21
-1.555487735849056
 31
0.0
  0
LINE
  5
4A
330
1F
100
AcDbEntity
  8
STANDARD
  6
AUSGEZOGEN
 62
     7
370
    18
100
AcDbLine
 10
-6.777895597484256
 20
-0.4594877358490558
 30
0.0
 11
-6.777895597484256
 21
-0.9554877358490558
 31
0.0
  0
LINE
  5
4B
330
1F
100
AcDbEntity
  8
STANDARD
  6
AUSGEZOGEN
 62
     7
370
    18
100
AcDbLine
 10
-6.777895597484256
 20
-0.9634877358490558
 30
0.0
 11
-6.777895597484256
 21
-1.555487735849056
 31
0.0
  0
HATCH
  5
4C
330
1F
100
AcDbEntity
  8
STANDARD
  6
AUSGEZOGEN
 62
     9
420
 13092807
370
    18
100
AcDbHatch
 10
0.0
 20
0.0
 30
0.0
210
0.0
220
0.0
230
1.0
  2
SOLID
 70
     1
 71
     0
 91
        1
 92
        3
 72
     0
 73
     1
 93
        4
 10
-6.477895597484251
 20
-2.163487735849059
 10
-6.769895597484254
 20
-2.163487735849054
 10
-6.769895597484254
 20
-2.659487735849055
 10
-6.477895597484251
 20
-2.659487735849059
 97
        0
 75
     0
 76
     1
 98
        0
  0
HATCH
  5
4D
330
1F
100
AcDbEntity
  8
STANDARD
  6
AUSGEZOGEN
 62
     9
420
 13092807
370
    18
100
AcDbHatch
 10
0.0
 20
0.0
 30
0.0
210
0.0
220
0.0
230
1.0
  2
SOLID
 70
     1
 71
     0
 91
        1
 92
        3
 72
     0
 73
     1
 93
        4
 10
-6.477895597484252
 20
-1.56348773584906
 10
-6.769895597484254
 20
-1.563487735849056
 10
-6.769895597484255
 20
-2.155487735849055
 10
-6.477895597484251
 20
-2.155487735849059
 97
        0
 75
     0
 76
     1
 98
        0
  0
HATCH
  5
4E
330
1F
100
AcDbEntity
  8
STANDARD
  6
AUSGEZOGEN
 62
     9
420
 13092807
370
    18
100
AcDbHatch
 10
0.0
 20
0.0
 30
0.0
210
0.0
220
0.0
230
1.0
  2
SOLID
 70
     1
 71
     0
 91
        1
 92
        3
 72
     0
 73
     1
 93
        4
 10
-6.477895597484252
 20
-0.9634877358490603
 10
-6.769895597484254
 20
-0.963487735849054
 10
-6.769895597484253
 20
-1.555487735849055
 10
-6.477895597484251
 20
-1.55548773584906
 97
        0
 75
     0
 76
     1
 98
        0
  0
HATCH
  5
4F
330
1F
100
AcDbEntity
  8
STANDARD
  6
AUSGEZOGEN
 62
     9
420
 13092807
370
    18
100
AcDbHatch
 10
0.0
 20
0.0
 30
0.0
210
0.0
220
0.0
230
1.0
  2
SOLID
 70
     1
 71
     0
 91
        1
 92
        3
 72
     0
 73
     1
 93
        4
 10
-6.477895597484252
 20
-0.4594877358490594
 10
-6.769895597484254
 20
-0.4594877358490539
 10
-6.769895597484254
 20
-0.955487735849054
 10
-6.477895597484251
 20
-0.9554877358490594
 97
        0
 75
     0
 76
     1
 98
        0
  0
LINE
  5
50
330
1F
100
AcDbEntity
  8
STANDARD
  6
AUSGEZOGEN
 62
     7
370
    18
100
AcDbLine
 10
-7.069895597484256
 20
-2.163487735849056
 30
0.0
 11
-7.069895597484256
 21
-2.659487735849055
 31
0.0
  0
LINE
  5
51
330
1F
100
AcDbEntity
  8
STANDARD
  6
AUSGEZOGEN
 62
     7
370
    18
100
AcDbLine
 10
-7.077895597484256
 20
-2.163487735849056
 30
0.0
 11
-7.077895597484256
 21
-2.659487735849055
 31
0.0
  0
LINE
  5
52
330
1F
100
AcDbEntity
  8
STANDARD
  6
AUSGEZOGEN
 62
     7
370
    18
100
AcDbLine
 10
-7.069895597484256
 20
-1.563487735849056
 30
0.0
 11
-7.069895597484256
 21
-2.155487735849056
 31
0.0
  0
LINE
  5
53
330
1F
100
AcDbEntity
  8
STANDARD
  6
AUSGEZOGEN
 62
     7
370
    18
100
AcDbLine
 10
-7.077895597484256
 20
-1.563487735849056
 30
0.0
 11
-7.077895597484256
 21
-2.155487735849056
 31
0.0
  0
LINE
  5
54
330
1F
100
AcDbEntity
  8
STANDARD
  6
AUSGEZOGEN
 62
     7
370
    18
100
AcDbLine
 10
-7.069895597484256
 20
-0.4594877358490558
 30
0.0
 11
-7.069895597484256
 21
-0.9554877358490558
 31
0.0
  0
LINE
  5
55
330
1F
100
AcDbEntity
  8
STANDARD
  6
AUSGEZOGEN
 62
     7
370
    18
100
AcDbLine
 10
-7.069895597484256
 20
-0.9634877358490558
 30
0.0
 11
-7.069895597484256
 21
-1.555487735849056
 31
0.0
  0
LINE
  5
56
330
1F
100
AcDbEntity
  8
STANDARD
  6
AUSGEZOGEN
 62
     7
370
    18
100
AcDbLine
 10
-7.077895597484256
 20
-0.4594877358490558
 30
0.0
 11
-7.077895597484256
 21
-0.9554877358490558
 31
0.0
  0
LINE
  5
57
330
1F
100
AcDbEntity
  8
STANDARD
  6
AUSGEZOGEN
 62
     7
370
    18
100
AcDbLine
 10
-7.077895597484256
 20
-0.9634877358490558
 30
0.0
 11
-7.077895597484256
 21
-1.555487735849056
 31
0.0
  0
HATCH
  5
58
330
1F
100
AcDbEntity
  8
STANDARD
  6
AUSGEZOGEN
 62
     9
420
 13092807
370
    18
100
AcDbHatch
 10
0.0
 20
0.0
 30
0.0
210
0.0
220
0.0
230
1.0
  2
SOLID
 70
     1
 71
     0
 91
        1
 92
        3
 72
     0
 73
     1
 93
        4
 10
-7.069895597484255
 20
-0.4594877358490548
 10
-7.069895597484255
 20
-0.9554877358490549
 10
-6.777895597484254
 20
-0.955487735849054
 10
-6.777895597484254
 20
-0.4594877358490539
 97
        0
 75
     0
 76
     1
 98
        0
  0
HATCH
  5
59
330
1F
100
AcDbEntity
  8
STANDARD
  6
AUSGEZOGEN
 62
     9
420
 13092807
370
    18
100
AcDbHatch
 10
0.0
 20
0.0
 30
0.0
210
0.0
220
0.0
230
1.0
  2
SOLID
 70
     1
 71
     0
 91
        1
 92
        3
 72
     0
 73
     1
 93
        4
 10
-7.069895597484255
 20
-0.9634877358490549
 10
-7.069895597484255
 20
-1.555487735849055
 10
-6.777895597484254
 20
-1.555487735849056
 10
-6.777895597484255
 20
-0.9634877358490549
 97
        0
 75
     0
 76
     1
 98
        0
  0
HATCH
  5
5A
330
1F
100
AcDbEntity
  8
STANDARD
  6
AUSGEZOGEN
 62
     9
420
 13092807
370
    18
100
AcDbHatch
 10
0.0
 20
0.0
 30
0.0
210
0.0
220
0.0
230
1.0
  2
SOLID
 70
     1
 71
     0
 91
        1
 92
        3
 72
     0
 73
     1
 93
        4
 10
-6.777895597484253
 20
-1.563487735849055
 10
-7.069895597484255
 20
-1.563487735849055
 10
-7.069895597484254
 20
-2.155487735849054
 10
-6.777895597484254
 20
-2.155487735849054
 97
        0
 75
     0
 76
     1
 98
        0
  0
HATCH
  5
5B
330
1F
100
AcDbEntity
  8
STANDARD
  6
AUSGEZOGEN
 62
     9
420
 13092807
370
    18
100
AcDbHatch
 10
0.0
 20
0.0
 30
0.0
210
0.0
220
0.0
230
1.0
  2
SOLID
 70
     1
 71
     0
 91
        1
 92
        3
 72
     0
 73
     1
 93
        4
 10
-6.777895597484255
 20
-2.163487735849055
 10
-7.069895597484255
 20
-2.163487735849055
 10
-7.069895597484255
 20
-2.659487735849055
 10
-6.777895597484254
 20
-2.659487735849055
 97
        0
 75
     0
 76
     1
 98
        0
  0
LINE
  5
5C
330
1F
100
AcDbEntity
  8
STANDARD
  6
AUSGEZOGEN
 62
     7
370
    18
100
AcDbLine
 10
-7.369895597484255
 20
-2.163487735849056
 30
0.0
 11
-7.369895597484255
 21
-2.659487735849055
 31
0.0
  0
LINE
  5
5D
330
1F
100
AcDbEntity
  8
STANDARD
  6
AUSGEZOGEN
 62
     7
370
    18
100
AcDbLine
 10
-7.369895597484255
 20
-1.563487735849056
 30
0.0
 11
-7.369895597484255
 21
-2.155487735849056
 31
0.0
  0
LINE
  5
5E
330
1F
100
AcDbEntity
  8
STANDARD
  6
AUSGEZOGEN
 62
     7
370
    18
100
AcDbLine
 10
-7.369895597484255
 20
-0.4594877358490558
 30
0.0
 11
-7.369895597484255
 21
-0.9554877358490558
 31
0.0
  0
LINE
  5
5F
330
1F
100
AcDbEntity
  8
STANDARD
  6
AUSGEZOGEN
 62
     7
370
    18
100
AcDbLine
 10
-7.369895597484255
 20
-0.9634877358490558
 30
0.0
 11
-7.369895597484255
 21
-1.555487735849056
 31
0.0
  0
HATCH
  5
60
330
1F
100
AcDbEntity
  8
STANDARD
  6
AUSGEZOGEN
 62
     9
420
 13092807
370
    18
100
AcDbHatch
 10
0.0
 20
0.0
 30
0.0
210
0.0
220
0.0
230
1.0
  2
SOLID
 70
     1
 71
     0
 91
        1
 92
        3
 72
     0
 73
     1
 93
        4
 10
-7.369895597484255
 20
-2.163487735849055
 10
-7.369895597484255
 20
-2.659487735849055
 10
-7.077895597484255
 20
-2.659487735849055
 10
-7.077895597484255
 20
-2.163487735849055
 97
        0
 75
     0
 76
     1
 98
        0
  0
HATCH
  5
61
330
1F
100
AcDbEntity
  8
STANDARD
  6
AUSGEZOGEN
 62
     9
420
 13092807
370
    18
100
AcDbHatch
 10
0.0
 20
0.0
 30
0.0
210
0.0
220
0.0
230
1.0
  2
SOLID
 70
     1
 71
     0
 91
        1
 92
        3
 72
     0
 73
     1
 93
        4
 10
-7.077895597484255
 20
-1.563487735849055
 10
-7.369895597484255
 20
-1.563487735849055
 10
-7.369895597484255
 20
-2.155487735849055
 10
-7.077895597484255
 20
-2.155487735849055
 97
        0
 75
     0
 76
     1
 98
        0
  0
HATCH
  5
62
330
1F
100
AcDbEntity
  8
STANDARD
  6
AUSGEZOGEN
 62
     9
420
 13092807
370
    18
100
AcDbHatch
 10
0.0
 20
0.0
 30
0.0
210
0.0
220
0.0
230
1.0
  2
SOLID
 70
     1
 71
     0
 91
        1
 92
        3
 72
     0
 73
     1
 93
        4
 10
-7.077895597484255
 20
-0.9634877358490549
 10
-7.369895597484255
 20
-0.9634877358490549
 10
-7.369895597484255
 20
-1.555487735849055
 10
-7.077895597484255
 20
-1.555487735849055
 97
        0
 75
     0
 76
     1
 98
        0
  0
HATCH
  5
63
330
1F
100
AcDbEntity
  8
STANDARD
  6
AUSGEZOGEN
 62
     9
420
 13092807
370
    18
100
AcDbHatch
 10
0.0
 20
0.0
 30
0.0
210
0.0
220
0.0
230
1.0
  2
SOLID
 70
     1
 71
     0
 91
        1
 92
        3
 72
     0
 73
     1
 93
        4
 10
-7.369895597484255
 20
-0.4594877358490548
 10
-7.369895597484254
 20
-0.955487735849054
 10
-7.077895597484255
 20
-0.9554877358490549
 10
-7.077895597484255
 20
-0.4594877358490548
 97
        0
 75
     0
 76
     1
 98
        0
  0
LINE
  5
64
330
1F
100
AcDbEntity
  8
STANDARD
  6
AUSGEZOGEN
 62
     7
370
    18
100
AcDbLine
 10
-7.377895597484255
 20
-2.163487735849056
 30
0.0
 11
-7.377895597484255
 21
-2.659487735849055
 31
0.0
  0
LINE
  5
65
330
1F
100
AcDbEntity
  8
STANDARD
  6
AUSGEZOGEN
 62
     7
370
    18
100
AcDbLine
 10
-7.377895597484255
 20
-1.563487735849056
 30
0.0
 11
-7.377895597484255
 21
-2.155487735849056
 31
0.0
  0
LINE
  5
66
330
1F
100
AcDbEntity
  8
STANDARD
  6
AUSGEZOGEN
 62
     7
370
    18
100
AcDbLine
 10
-7.377895597484255
 20
-0.4594877358490558
 30
0.0
 11
-7.377895597484255
 21
-0.9554877358490558
 31
0.0
  0
LINE
  5
67
330
1F
100
AcDbEntity
  8
STANDARD
  6
AUSGEZOGEN
 62
     7
370
    18
100
AcDbLine
 10
-7.377895597484255
 20
-0.9634877358490558
 30
0.0
 11
-7.377895597484255
 21
-1.555487735849056
 31
0.0
  0
LINE
  5
68
330
1F
100
AcDbEntity
  8
STANDARD
  6
AUSGEZOGEN
 62
     7
370
    18
100
AcDbLine
 10
-7.669895597484256
 20
-2.163487735849056
 30
0.0
 11
-7.669895597484256
 21
-2.659487735849055
 31
0.0
  0
LINE
  5
69
330
1F
100
AcDbEntity
  8
STANDARD
  6
AUSGEZOGEN
 62
     7
370
    18
100
AcDbLine
 10
-7.669895597484256
 20
-1.563487735849056
 30
0.0
 11
-7.669895597484256
 21
-2.155487735849056
 31
0.0
  0
LINE
  5
6A
330
1F
100
AcDbEntity
  8
STANDARD
  6
AUSGEZOGEN
 62
     7
370
    18
100
AcDbLine
 10
-7.669895597484256
 20
-0.4594877358490558
 30
0.0
 11
-7.669895597484256
 21
-0.9554877358490558
 31
0.0
  0
LINE
  5
6B
330
1F
100
AcDbEntity
  8
STANDARD
  6
AUSGEZOGEN
 62
     7
370
    18
100
AcDbLine
 10
-7.669895597484256
 20
-0.9634877358490558
 30
0.0
 11
-7.669895597484256
 21
-1.555487735849056
 31
0.0
  0
HATCH
  5
6C
330
1F
100
AcDbEntity
  8
STANDARD
  6
AUSGEZOGEN
 62
     9
420
 13092807
370
    18
100
AcDbHatch
 10
0.0
 20
0.0
 30
0.0
210
0.0
220
0.0
230
1.0
  2
SOLID
 70
     1
 71
     0
 91
        1
 92
        3
 72
     0
 73
     1
 93
        4
 10
-7.669895597484254
 20
-2.163487735849054
 10
-7.669895597484254
 20
-2.659487735849055
 10
-7.377895597484255
 20
-2.659487735849055
 10
-7.377895597484255
 20
-2.163487735849055
 97
        0
 75
     0
 76
     1
 98
        0
  0
HATCH
  5
6D
330
1F
100
AcDbEntity
  8
STANDARD
  6
AUSGEZOGEN
 62
     9
420
 13092807
370
    18
100
AcDbHatch
 10
0.0
 20
0.0
 30
0.0
210
0.0
220
0.0
230
1.0
  2
SOLID
 70
     1
 71
     0
 91
        1
 92
        3
 72
     0
 73
     1
 93
        4
 10
-7.377895597484255
 20
-1.563487735849055
 10
-7.669895597484254
 20
-1.563487735849056
 10
-7.669895597484254
 20
-2.155487735849055
 10
-7.377895597484255
 20
-2.155487735849055
 97
        0
 75
     0
 76
     1
 98
        0
  0
HATCH
  5
6E
330
1F
100
AcDbEntity
  8
STANDARD
  6
AUSGEZOGEN
 62
     9
420
 13092807
370
    18
100
AcDbHatch
 10
0.0
 20
0.0
 30
0.0
210
0.0
220
0.0
230
1.0
  2
SOLID
 70
     1
 71
     0
 91
        1
 92
        3
 72
     0
 73
     1
 93
        4
 10
-7.377895597484254
 20
-0.963487735849054
 10
-7.669895597484255
 20
-0.9634877358490549
 10
-7.669895597484254
 20
-1.555487735849054
 10
-7.377895597484255
 20
-1.555487735849055
 97
        0
 75
     0
 76
     1
 98
        0
  0
HATCH
  5
6F
330
1F
100
AcDbEntity
  8
STANDARD
  6
AUSGEZOGEN
 62
     9
420
 13092807
370
    18
100
AcDbHatch
 10
0.0
 20
0.0
 30
0.0
210
0.0
220
0.0
230
1.0
  2
SOLID
 70
     1
 71
     0
 91
        1
 92
        3
 72
     0
 73
     1
 93
        4
 10
-7.669895597484255
 20
-0.4594877358490548
 10
-7.669895597484255
 20
-0.9554877358490549
 10
-7.377895597484255
 20
-0.9554877358490549
 10
-7.377895597484254
 20
-0.4594877358490539
 97
        0
 75
     0
 76
     1
 98
        0
  0
LINE
  5
70
330
1F
100
AcDbEntity
  8
STANDARD
  6
AUSGEZOGEN
 62
     7
370
    18
100
AcDbLine
 10
-7.677895597484256
 20
-2.163487735849056
 30
0.0
 11
-7.677895597484256
 21
-2.659487735849055
 31
0.0
  0
LINE
  5
71
330
1F
100
AcDbEntity
  8
STANDARD
  6
AUSGEZOGEN
 62
     7
370
    18
100
AcDbLine
 10
-7.677895597484256
 20
-1.563487735849056
 30
0.0
 11
-7.677895597484256
 21
-2.155487735849056
 31
0.0
  0
LINE
  5
72
330
1F
100
AcDbEntity
  8
STANDARD
  6
AUSGEZOGEN
 62
     7
370
    18
100
AcDbLine
 10
-7.677895597484256
 20
-0.4594877358490558
 30
0.0
 11
-7.677895597484256
 21
-0.9554877358490558
 31
0.0
  0
LINE
  5
73
330
1F
100
AcDbEntity
  8
STANDARD
  6
AUSGEZOGEN
 62
     7
370
    18
100
AcDbLine
 10
-7.677895597484256
 20
-0.9634877358490558
 30
0.0
 11
-7.677895597484256
 21
-1.555487735849056
 31
0.0
  0
LINE
  5
74
330
1F
100
AcDbEntity
  8
STANDARD
  6
AUSGEZOGEN
 62
     7
370
    18
100
AcDbLine
 10
-7.969895597484256
 20
-2.163487735849056
 30
0.0
 11
-7.969895597484256
 21
-2.659487735849055
 31
0.0
  0
LINE
  5
75
330
1F
100
AcDbEntity
  8
STANDARD
  6
AUSGEZOGEN
 62
     7
370
    18
100
AcDbLine
 10
-7.969895597484256
 20
-1.563487735849056
 30
0.0
 11
-7.969895597484256
 21
-2.155487735849056
 31
0.0
  0
LINE
  5
76
330
1F
100
AcDbEntity
  8
STANDARD
  6
AUSGEZOGEN
 62
     7
370
    18
100
AcDbLine
 10
-7.969895597484256
 20
-0.4594877358490558
 30
0.0
 11
-7.969895597484256
 21
-0.9554877358490558
 31
0.0
  0
LINE
  5
77
330
1F
100
AcDbEntity
  8
STANDARD
  6
AUSGEZOGEN
 62
     7
370
    18
100
AcDbLine
 10
-7.969895597484256
 20
-0.9634877358490558
 30
0.0
 11
-7.969895597484256
 21
-1.555487735849056
 31
0.0
  0
HATCH
  5
78
330
1F
100
AcDbEntity
  8
STANDARD
  6
AUSGEZOGEN
 62
     9
420
 13092807
370
    18
100
AcDbHatch
 10
0.0
 20
0.0
 30
0.0
210
0.0
220
0.0
230
1.0
  2
SOLID
 70
     1
 71
     0
 91
        1
 92
        3
 72
     0
 73
     1
 93
        4
 10
-7.969895597484256
 20
-2.163487735849056
 10
-7.969895597484254
 20
-2.659487735849055
 10
-7.677895597484254
 20
-2.659487735849055
 10
-7.677895597484254
 20
-2.163487735849055
 97
        0
 75
     0
 76
     1
 98
        0
  0
HATCH
  5
79
330
1F
100
AcDbEntity
  8
STANDARD
  6
AUSGEZOGEN
 62
     9
420
 13092807
370
    18
100
AcDbHatch
 10
0.0
 20
0.0
 30
0.0
210
0.0
220
0.0
230
1.0
  2
SOLID
 70
     1
 71
     0
 91
        1
 92
        3
 72
     0
 73
     1
 93
        4
 10
-7.677895597484254
 20
-1.563487735849055
 10
-7.969895597484255
 20
-1.563487735849055
 10
-7.969895597484254
 20
-2.155487735849054
 10
-7.677895597484254
 20
-2.155487735849054
 97
        0
 75
     0
 76
     1
 98
        0
  0
HATCH
  5
7A
330
1F
100
AcDbEntity
  8
STANDARD
  6
AUSGEZOGEN
 62
     9
420
 13092807
370
    18
100
AcDbHatch
 10
0.0
 20
0.0
 30
0.0
210
0.0
220
0.0
230
1.0
  2
SOLID
 70
     1
 71
     0
 91
        1
 92
        3
 72
     0
 73
     1
 93
        4
 10
-7.677895597484255
 20
-0.9634877358490549
 10
-7.969895597484255
 20
-0.9634877358490549
 10
-7.969895597484255
 20
-1.555487735849055
 10
-7.677895597484254
 20
-1.555487735849055
 97
        0
 75
     0
 76
     1
 98
        0
  0
HATCH
  5
7B
330
1F
100
AcDbEntity
  8
STANDARD
  6
AUSGEZOGEN
 62
     9
420
 13092807
370
    18
100
AcDbHatch
 10
0.0
 20
0.0
 30
0.0
210
0.0
220
0.0
230
1.0
  2
SOLID
 70
     1
 71
     0
 91
        1
 92
        3
 72
     0
 73
     1
 93
        4
 10
-7.969895597484255
 20
-0.4594877358490548
 10
-7.969895597484255
 20
-0.9554877358490549
 10
-7.677895597484255
 20
-0.9554877358490549
 10
-7.677895597484255
 20
-0.4594877358490548
 97
        0
 75
     0
 76
     1
 98
        0
  0
LINE
  5
7C
330
1F
100
AcDbEntity
  8
STANDARD
  6
AUSGEZOGEN
 62
     7
370
    18
100
AcDbLine
 10
-7.977895597484256
 20
-2.163487735849056
 30
0.0
 11
-7.977895597484256
 21
-2.659487735849055
 31
0.0
  0
LINE
  5
7D
330
1F
100
AcDbEntity
  8
STANDARD
  6
AUSGEZOGEN
 62
     7
370
    18
100
AcDbLine
 10
-7.977895597484256
 20
-1.563487735849056
 30
0.0
 11
-7.977895597484256
 21
-2.155487735849056
 31
0.0
  0
LINE
  5
7E
330
1F
100
AcDbEntity
  8
STANDARD
  6
AUSGEZOGEN
 62
     7
370
    18
100
AcDbLine
 10
-7.977895597484256
 20
-0.4594877358490558
 30
0.0
 11
-7.977895597484256
 21
-0.9554877358490558
 31
0.0
  0
LINE
  5
7F
330
1F
100
AcDbEntity
  8
STANDARD
  6
AUSGEZOGEN
 62
     7
370
    18
100
AcDbLine
 10
-7.977895597484256
 20
-0.9634877358490558
 30
0.0
 11
-7.977895597484256
 21
-1.555487735849056
 31
0.0
  0
LINE
  5
80
330
1F
100
AcDbEntity
  8
STANDARD
  6
AUSGEZOGEN
 62
     7
370
    18
100
AcDbLine
 10
-8.269895597484256
 20
-2.163487735849056
 30
0.0
 11
-8.269895597484256
 21
-2.659487735849055
 31
0.0
  0
LINE
  5
81
330
1F
100
AcDbEntity
  8
STANDARD
  6
AUSGEZOGEN
 62
     7
370
    18
100
AcDbLine
 10
-8.269895597484256
 20
-1.563487735849056
 30
0.0
 11
-8.269895597484256
 21
-2.155487735849056
 31
0.0
  0
LINE
  5
82
330
1F
100
AcDbEntity
  8
STANDARD
  6
AUSGEZOGEN
 62
     7
370
    18
100
AcDbLine
 10
-8.269895597484256
 20
-0.4594877358490558
 30
0.0
 11
-8.269895597484256
 21
-0.9554877358490558
 31
0.0
  0
LINE
  5
83
330
1F
100
AcDbEntity
  8
STANDARD
  6
AUSGEZOGEN
 62
     7
370
    18
100
AcDbLine
 10
-8.269895597484256
 20
-0.9634877358490558
 30
0.0
 11
-8.269895597484256
 21
-1.555487735849056
 31
0.0
  0
HATCH
  5
84
330
1F
100
AcDbEntity
  8
STANDARD
  6
AUSGEZOGEN
 62
     9
420
 13092807
370
    18
100
AcDbHatch
 10
0.0
 20
0.0
 30
0.0
210
0.0
220
0.0
230
1.0
  2
SOLID
 70
     1
 71
     0
 91
        1
 92
        3
 72
     0
 73
     1
 93
        4
 10
-8.269895597484254
 20
-2.163487735849055
 10
-8.269895597484254
 20
-2.659487735849055
 10
-7.977895597484254
 20
-2.659487735849055
 10
-7.977895597484254
 20
-2.163487735849055
 97
        0
 75
     0
 76
     1
 98
        0
  0
HATCH
  5
85
330
1F
100
AcDbEntity
  8
STANDARD
  6
AUSGEZOGEN
 62
     9
420
 13092807
370
    18
100
AcDbHatch
 10
0.0
 20
0.0
 30
0.0
210
0.0
220
0.0
230
1.0
  2
SOLID
 70
     1
 71
     0
 91
        1
 92
        3
 72
     0
 73
     1
 93
        4
 10
-7.977895597484254
 20
-1.563487735849056
 10
-8.269895597484254
 20
-1.563487735849055
 10
-8.269895597484254
 20
-2.155487735849055
 10
-7.977895597484254
 20
-2.155487735849055
 97
        0
 75
     0
 76
     1
 98
        0
  0
HATCH
  5
86
330
1F
100
AcDbEntity
  8
STANDARD
  6
AUSGEZOGEN
 62
     9
420
 13092807
370
    18
100
AcDbHatch
 10
0.0
 20
0.0
 30
0.0
210
0.0
220
0.0
230
1.0
  2
SOLID
 70
     1
 71
     0
 91
        1
 92
        3
 72
     0
 73
     1
 93
        4
 10
-7.977895597484255
 20
-0.9634877358490549
 10
-8.269895597484254
 20
-0.9634877358490549
 10
-8.269895597484254
 20
-1.555487735849055
 10
-7.977895597484254
 20
-1.555487735849056
 97
        0
 75
     0
 76
     1
 98
        0
  0
HATCH
  5
87
330
1F
100
AcDbEntity
  8
STANDARD
  6
AUSGEZOGEN
 62
     9
420
 13092807
370
    18
100
AcDbHatch
 10
0.0
 20
0.0
 30
0.0
210
0.0
220
0.0
230
1.0
  2
SOLID
 70
     1
 71
     0
 91
        1
 92
        3
 72
     0
 73
     1
 93
        4
 10
-8.269895597484254
 20
-0.4594877358490548
 10
-8.269895597484254
 20
-0.955487735849054
 10
-7.977895597484254
 20
-0.955487735849054
 10
-7.977895597484255
 20
-0.4594877358490548
 97
        0
 75
     0
 76
     1
 98
        0
  0
LINE
  5
88
330
1F
100
AcDbEntity
  8
STANDARD
  6
AUSGEZOGEN
 62
     7
370
    18
100
AcDbLine
 10
-8.277895597484255
 20
-2.163487735849056
 30
0.0
 11
-8.277895597484255
 21
-2.659487735849055
 31
0.0
  0
LINE
  5
89
330
1F
100
AcDbEntity
  8
STANDARD
  6
AUSGEZOGEN
 62
     7
370
    18
100
AcDbLine
 10
-8.277895597484255
 20
-1.563487735849056
 30
0.0
 11
-8.277895597484255
 21
-2.155487735849056
 31
0.0
  0
LINE
  5
8A
330
1F
100
AcDbEntity
  8
STANDARD
  6
AUSGEZOGEN
 62
     7
370
    18
100
AcDbLine
 10
-8.277895597484255
 20
-0.4594877358490558
 30
0.0
 11
-8.277895597484255
 21
-0.9554877358490558
 31
0.0
  0
LINE
  5
8B
330
1F
100
AcDbEntity
  8
STANDARD
  6
AUSGEZOGEN
 62
     7
370
    18
100
AcDbLine
 10
-8.277895597484255
 20
-0.9634877358490558
 30
0.0
 11
-8.277895597484255
 21
-1.555487735849056
 31
0.0
  0
HATCH
  5
8C
330
1F
100
AcDbEntity
  8
STANDARD
  6
AUSGEZOGEN
 62
     9
420
 13092807
370
    18
100
AcDbHatch
 10
0.0
 20
0.0
 30
0.0
210
0.0
220
0.0
230
1.0
  2
SOLID
 70
     1
 71
     0
 91
        1
 92
        3
 72
     0
 73
     1
 93
        4
 10
-6.469895597484251
 20
-2.163487735849059
 10
-6.469895597484251
 20
-2.659487735849059
 10
-6.291895597484253
 20
-2.659487735849057
 10
-6.291895597484253
 20
-2.163487735849057
 97
        0
 75
     0
 76
     1
 98
        0
  0
HATCH
  5
8D
330
1F
100
AcDbEntity
  8
STANDARD
  6
AUSGEZOGEN
 62
     9
420
 13092807
370
    18
100
AcDbHatch
 10
0.0
 20
0.0
 30
0.0
210
0.0
220
0.0
230
1.0
  2
SOLID
 70
     1
 71
     0
 91
        1
 92
        3
 72
     0
 73
     1
 93
        4
 10
-6.291895597484253
 20
-1.563487735849057
 10
-6.469895597484251
 20
-1.563487735849059
 10
-6.469895597484251
 20
-2.155487735849059
 10
-6.291895597484253
 20
-2.155487735849057
 97
        0
 75
     0
 76
     1
 98
        0
  0
HATCH
  5
8E
330
1F
100
AcDbEntity
  8
STANDARD
  6
AUSGEZOGEN
 62
     9
420
 13092807
370
    18
100
AcDbHatch
 10
0.0
 20
0.0
 30
0.0
210
0.0
220
0.0
230
1.0
  2
SOLID
 70
     1
 71
     0
 91
        1
 92
        3
 72
     0
 73
     1
 93
        4
 10
-6.291895597484253
 20
-0.9634877358490567
 10
-6.469895597484251
 20
-0.9634877358490594
 10
-6.469895597484251
 20
-1.55548773584906
 10
-6.291895597484253
 20
-1.555487735849057
 97
        0
 75
     0
 76
     1
 98
        0
  0
HATCH
  5
8F
330
1F
100
AcDbEntity
  8
STANDARD
  6
AUSGEZOGEN
 62
     9
420
 13092807
370
    18
100
AcDbHatch
 10
0.0
 20
0.0
 30
0.0
210
0.0
220
0.0
230
1.0
  2
SOLID
 70
     1
 71
     0
 91
        1
 92
        3
 72
     0
 73
     1
 93
        4
 10
-6.291895597484253
 20
-0.4594877358490567
 10
-6.469895597484252
 20
-0.4594877358490585
 10
-6.469895597484252
 20
-0.9554877358490603
 10
-6.291895597484253
 20
-0.9554877358490567
 97
        0
 75
     0
 76
     1
 98
        0
  0
HATCH
  5
90
330
1F
100
AcDbEntity
  8
STANDARD
  6
AUSGEZOGEN
 62
     9
420
 13092807
370
    18
100
AcDbHatch
 10
0.0
 20
0.0
 30
0.0
210
0.0
220
0.0
230
1.0
  2
SOLID
 70
     1
 71
     0
 91
        1
 92
        3
 72
     0
 73
     1
 93
        4
 10
-8.491895597484254
 20
-2.163487735849057
 10
-8.491895597484254
 20
-2.659487735849057
 10
-8.277895597484253
 20
-2.659487735849055
 10
-8.277895597484253
 20
-2.163487735849055
 97
        0
 75
     0
 76
     1
 98
        0
  0
HATCH
  5
91
330
1F
100
AcDbEntity
  8
STANDARD
  6
AUSGEZOGEN
 62
     9
420
 13092807
370
    18
100
AcDbHatch
 10
0.0
 20
0.0
 30
0.0
210
0.0
220
0.0
230
1.0
  2
SOLID
 70
     1
 71
     0
 91
        1
 92
        3
 72
     0
 73
     1
 93
        4
 10
-8.277895597484253
 20
-1.563487735849055
 10
-8.491895597484254
 20
-1.563487735849057
 10
-8.491895597484254
 20
-2.155487735849057
 10
-8.277895597484253
 20
-2.155487735849055
 97
        0
 75
     0
 76
     1
 98
        0
  0
HATCH
  5
92
330
1F
100
AcDbEntity
  8
STANDARD
  6
AUSGEZOGEN
 62
     9
420
 13092807
370
    18
100
AcDbHatch
 10
0.0
 20
0.0
 30
0.0
210
0.0
220
0.0
230
1.0
  2
SOLID
 70
     1
 71
     0
 91
        1
 92
        3
 72
     0
 73
     1
 93
        4
 10
-8.277895597484253
 20
-0.9634877358490549
 10
-8.491895597484254
 20
-0.9634877358490567
 10
-8.491895597484254
 20
-1.555487735849057
 10
-8.277895597484253
 20
-1.555487735849055
 97
        0
 75
     0
 76
     1
 98
        0
  0
HATCH
  5
93
330
1F
100
AcDbEntity
  8
STANDARD
  6
AUSGEZOGEN
 62
     9
420
 13092807
370
    18
100
AcDbHatch
 10
0.0
 20
0.0
 30
0.0
210
0.0
220
0.0
230
1.0
  2
SOLID
 70
     1
 71
     0
 91
        1
 92
        3
 72
     0
 73
     1
 93
        4
 10
-8.491895597484252
 20
-0.4594877358490558
 10
-8.491895597484254
 20
-0.9554877358490567
 10
-8.277895597484253
 20
-0.9554877358490549
 10
-8.277895597484253
 20
-0.4594877358490539
 97
        0
 75
     0
 76
     1
 98
        0
  0
LINE
  5
94
330
1F
100
AcDbEntity
  8
STANDARD
  6
AUSGEZOGEN
 62
     7
370
    18
100
AcDbLine
 10
-8.491895597484254
 20
-2.155487735849058
 30
0.0
 11
-6.291895597484254
 21
-2.155487735849058
 31
0.0
  0
LINE
  5
95
330
1F
100
AcDbEntity
  8
STANDARD
  6
AUSGEZOGEN
 62
     7
370
    18
100
AcDbLine
 10
-8.491895597484254
 20
-2.163487735849058
 30
0.0
 11
-6.291895597484254
 21
-2.163487735849058
 31
0.0
  0
LINE
  5
96
330
1F
100
AcDbEntity
  8
STANDARD
  6
AUSGEZOGEN
 62
     7
370
    18
100
AcDbLine
 10
-8.491895597484254
 20
-1.555487735849058
 30
0.0
 11
-6.291895597484254
 21
-1.555487735849058
 31
0.0
  0
LINE
  5
97
330
1F
100
AcDbEntity
  8
STANDARD
  6
AUSGEZOGEN
 62
     7
370
    18
100
AcDbLine
 10
-8.491895597484254
 20
-1.563487735849058
 30
0.0
 11
-6.291895597484254
 21
-1.563487735849058
 31
0.0
  0
LINE
  5
98
330
1F
100
AcDbEntity
  8
STANDARD
  6
AUSGEZOGEN
 62
     7
370
    18
100
AcDbLine
 10
-8.491895597484254
 20
-0.9554877358490576
 30
0.0
 11
-6.291895597484254
 21
-0.9554877358490576
 31
0.0
  0
LINE
  5
99
330
1F
100
AcDbEntity
  8
STANDARD
  6
AUSGEZOGEN
 62
     7
370
    18
100
AcDbLine
 10
-8.491895597484254
 20
-0.9634877358490576
 30
0.0
 11
-6.291895597484254
 21
-0.9634877358490576
 31
0.0
  0
MTEXT
  5
9A
330
1F
100
AcDbEntity
  8
STANDARD
  6
AUSGEZOGEN
 62
     7
370
    18
100
AcDbMText
 10
-8.641335220125764
 20
-0.0292128513017706
 30
0.0
 40
0.0525
 41
1.973174881122847
 71
     7
 72
     5
  1
\W1.00;NICHT\~SICHTBARE\~BEFESTIGUNG\~MIT\~KLAMMERN\~K20
  7
ARIAL
 73
     1
 44
1.0
  0
MTEXT
  5
9B
330
1F
100
AcDbEntity
  8
STANDARD
  6
AUSGEZOGEN
 62
     7
370
    18
100
AcDbMText
 10
-8.641335220125764
 20
-0.1079628513017706
 30
0.0
 40
0.0525
 41
1.449903749953851
 71
     7
 72
     5
  1
\W1.00;INVISIBLE\~FASTENING\~WITH\~CLAMP\~K20
  7
ARIAL
 73
     1
 44
1.0
  0
MTEXT
  5
9C
330
1F
100
AcDbEntity
  8
STANDARD
  6
AUSGEZOGEN
 62
     7
370
    18
100
AcDbMText
 10
-8.641335220125766
 20
-0.1867128513017706
 30
0.0
 40
0.0525
 41
1.587095144235415
 71
     7
 72
     5
  1
\W0.96;FIXATION\~NON\~APPARANTE\~PAR\~AGRAFE\~K20
  7
ARIAL
 73
     1
 44
1.0
  0
MTEXT
  5
9D
330
1F
100
AcDbEntity
  8
STANDARD
  6
AUSGEZOGEN
 62
     7
370
    18
100
AcDbMText
 10
-8.185105478120148
 20
0.4484273549353966
 30
0.0
 40
0.03
 41
0.0727632183908052
 71
     7
 72
     5
  1
{\fArial|i0|b0;\H0.052500;\W0.911111;\C7;®}\P
  7
ARIAL
 73
     1
 44
1.0
  0
MTEXT
  5
9E
330
1F
100
AcDbEntity
  8
STANDARD
  6
AUSGEZOGEN
 62
     7
370
    18
100
AcDbMText
 10
-8.641335220125764
 20
0.4093663172606584
 30
0.0
 40
0.075
 41
0.7850816993464043
 71
     7
 72
     5
  1
\W1.00;KeraTwin\~\~\~K20\~
  7
ARIAL
 73
     1
 44
1.0
  0
MTEXT
  5
9F
330
1F
100
AcDbEntity
  8
STANDARD
  6
AUSGEZOGEN
 62
     7
370
    18
100
AcDbMText
 10
-6.29212492082843
 20
-3.499747994109757
 30
0.0
 40
0.027
 41
0.3320566303847924
 71
     7
 72
     5
  1
\W0.91;STAND:\~MÄRZ\~2013
  7
ARIAL
 73
     1
 44
1.0
  0
MTEXT
  5
A0
330
1F
100
AcDbEntity
  8
STANDARD
  6
AUSGEZOGEN
 62
     7
370
    18
100
AcDbMText
 10
-8.641335220125766
 20
0.3038663172606584
 30
0.0
 40
0.06
 41
1.654065165876778
 71
     7
 72
     5
  1
\W1.00;VERTIKALVERLEGUNG\~AUF\~HUTPROFIL
  7
ARIAL
 73
     1
 44
1.0
  0
MTEXT
  5
A1
330
1F
100
AcDbEntity
  8
STANDARD
  6
AUSGEZOGEN
 62
   220
370
    18
100
AcDbMText
 10
-8.640780576870808
 20
0.3752922194185148
 30
0.0
 40
0.06
 41
1.442019559486351
 71
     1
 72
     5
  1
}\P{\fArial|i0|b0;\H0.060000;\W1.000000;\C220;VERTICAL FIXING ON HATPROFILE}\P
  7
ARIAL
 73
     1
 44
1.204819277108434
  0
MTEXT
  5
A2
330
1F
100
AcDbEntity
  8
STANDARD
  6
AUSGEZOGEN
 62
   220
370
    18
100
AcDbMText
 10
-8.640780576870808
 20
0.0869488587587921
 30
0.0
 40
0.06
 41
2.059053026039045
 71
     7
 72
     5
  1
\W1.00;FIXATION\~VERTICALE\~SUR\~PROFILE\~DE\~CHAPEAU
  7
ARIAL
 73
     1
 44
1.0
  0
ENDSEC
  0
SECTION
  2
OBJECTS
  0
DICTIONARY
  5
C
330
0
100
AcDbDictionary
281
     1
  3
ACAD_GROUP
350
D
  3
ACAD_LAYOUT
350
1A
  3
ACAD_MLINESTYLE
350
17
  3
ACAD_PLOTSETTINGS
350
19
  3
ACAD_PLOTSTYLENAME
350
E
  0
DICTIONARY
  5
A3
330
1F
100
AcDbDictionary
280
     1
281
     1
  3
ACAD_SORTENTS
360
A4
  0
DICTIONARY
  5
D
102
{ACAD_REACTORS
330
C
102
}
330
C
100
AcDbDictionary
281
     1
  0
DICTIONARY
  5
1A
102
{ACAD_REACTORS
330
C
102
}
330
C
100
AcDbDictionary
281
     1
  3
Layout1
350
1E
  3
Layout2
350
26
  3
Model
350
22
  0
DICTIONARY
  5
17
102
{ACAD_REACTORS
330
C
102
}
330
C
100
AcDbDictionary
281
     1
  3
Standard
350
18
  0
DICTIONARY
  5
19
102
{ACAD_REACTORS
330
C
102
}
330
C
100
AcDbDictionary
281
     1
  0
ACDBDICTIONARYWDFLT
  5
E
102
{ACAD_REACTORS
330
C
102
}
330
C
100
AcDbDictionary
281
     1
  3
Normal
350
F
100
AcDbDictionaryWithDefault
340
F
  0
SORTENTSTABLE
  5
A4
102
{ACAD_REACTORS
330
A3
102
}
330
A3
100
AcDbSortentsTable
330
1F
331
2E
  5
4E
331
2F
  5
4F
331
30
  5
50
331
31
  5
51
331
32
  5
52
331
33
  5
53
331
34
  5
54
331
35
  5
55
331
36
  5
56
331
37
  5
57
331
38
  5
58
331
39
  5
59
331
3A
  5
5A
331
3B
  5
5B
331
3C
  5
5C
331
3D
  5
5D
331
3E
  5
5E
331
3F
  5
5F
331
40
  5
60
331
41
  5
61
331
42
  5
62
331
43
  5
63
331
44
  5
64
331
45
  5
65
331
46
  5
66
331
47
  5
67
331
48
  5
68
331
49
  5
69
331
4A
  5
6A
331
4B
  5
6B
331
4C
  5
2E
331
4D
  5
2F
331
4E
  5
30
331
4F
  5
31
331
50
  5
6C
331
51
  5
6D
331
52
  5
6E
331
53
  5
6F
331
54
  5
70
331
55
  5
71
331
56
  5
72
331
57
  5
73
331
58
  5
32
331
59
  5
33
331
5A
  5
34
331
5B
  5
35
331
5C
  5
74
331
5D
  5
75
331
5E
  5
76
331
5F
  5
77
331
60
  5
36
331
61
  5
37
331
62
  5
38
331
63
  5
39
331
64
  5
78
331
65
  5
79
331
66
  5
7A
331
67
  5
7B
331
68
  5
7C
331
69
  5
7D
331
6A
  5
7E
331
6B
  5
7F
331
6C
  5
3A
331
6D
  5
3B
331
6E
  5
3C
331
6F
  5
3D
331
70
  5
80
331
71
  5
81
331
72
  5
82
331
73
  5
83
331
74
  5
84
331
75
  5
85
331
76
  5
86
331
77
  5
87
331
78
  5
3E
331
79
  5
3F
331
7A
  5
40
331
7B
  5
41
331
7C
  5
88
331
7D
  5
89
331
7E
  5
8A
331
7F
  5
8B
331
80
  5
8C
331
81
  5
8D
331
82
  5
8E
331
83
  5
8F
331
84
  5
42
331
85
  5
43
331
86
  5
44
331
87
  5
45
331
88
  5
90
331
89
  5
91
331
8A
  5
92
331
8B
  5
93
331
8C
  5
46
331
8D
  5
47
331
8E
  5
48
331
8F
  5
49
331
90
  5
4A
331
91
  5
4B
331
92
  5
4C
331
93
  5
4D
  0
LAYOUT
  5
1E
102
{ACAD_REACTORS
330
1A
102
}
330
1A
100
AcDbPlotSettings
  1

  2
none_device
  4

  6

 40
7.5
 41
7.5
 42
7.5
 43
7.5
 44
4455.015
 45
3150.015
 46
-8995.825833333314
 47
-3809.9925
 48
0.0
 49
0.0
140
0.0
141
0.0
142
1.0
143
1.0
 70
   688
 72
     1
 73
     0
 74
     5
  7

 75
    16
 76
     0
 77
     2
 78
   300
147
1000.0
148
0.0
149
0.0
100
AcDbLayout
  1
Layout1
 70
     1
 71
     1
 10
0.0
 20
0.0
 11
12.0
 21
9.0
 12
0.0
 22
0.0
 32
0.0
 14
1.000000000000000E+20
 24
1.000000000000000E+20
 34
1.000000000000000E+20
 15
-1.000000000000000E+20
 25
-1.000000000000000E+20
 35
-1.000000000000000E+20
146
0.0
 13
0.0
 23
0.0
 33
0.0
 16
1.0
 26
0.0
 36
0.0
 17
0.0
 27
1.0
 37
0.0
 76
     0
330
1B
  0
LAYOUT
  5
26
102
{ACAD_REACTORS
330
1A
102
}
330
1A
100
AcDbPlotSettings
  1

  2

  4

  6

 40
0.0
 41
0.0
 42
0.0
 43
0.0
 44
0.0
 45
0.0
 46
0.0
 47
0.0
 48
0.0
 49
0.0
140
0.0
141
0.0
142
1.0
143
1.0
 70
   688
 72
     0
 73
     0
 74
     5
  7

 75
    16
 76
     0
 77
     2
 78
   300
147
1.0
148
0.0
149
0.0
100
AcDbLayout
  1
Layout2
 70
     1
 71
     2
 10
0.0
 20
0.0
 11
0.0
 21
0.0
 12
0.0
 22
0.0
 32
0.0
 14
0.0
 24
0.0
 34
0.0
 15
0.0
 25
0.0
 35
0.0
146
0.0
 13
0.0
 23
0.0
 33
0.0
 16
1.0
 26
0.0
 36
0.0
 17
0.0
 27
1.0
 37
0.0
 76
     0
330
23
  0
LAYOUT
  5
22
102
{ACAD_REACTORS
330
1A
102
}
330
1A
100
AcDbPlotSettings
  1

  2

  4

  6

 40
0.0
 41
0.0
 42
0.0
 43
0.0
 44
0.0
 45
0.0
 46
0.0
 47
0.0
 48
0.0
 49
0.0
140
0.0
141
0.0
142
1.0
143
1.0
 70
  1712
 72
     0
 73
     0
 74
     0
  7

 75
     0
 76
     0
 77
     2
 78
   300
147
1.0
148
0.0
149
0.0
100
AcDbLayout
  1
Model
 70
     1
 71
     0
 10
-8.995833333333314
 20
-3.81
 11
-5.845833333333314
 21
0.645
 12
0.0
 22
0.0
 32
0.0
 14
-8.995833333333314
 24
-3.81
 34
-8.995833333333314
 15
-5.845833333333314
 25
0.645
 35
-5.845833333333314
146
0.0
 13
0.0
 23
0.0
 33
0.0
 16
1.0
 26
0.0
 36
0.0
 17
0.0
 27
1.0
 37
0.0
 76
     0
330
1F
  0
MLINESTYLE
  5
18
102
{ACAD_REACTORS
330
17
102
}
330
17
100
AcDbMlineStyle
  2
Standard
 70
     0
  3

 62
   256
 51
90.0
 52
90.0
 71
     2
 49
0.5
 62
   256
  6
BYLAYER
 49
-0.5
 62
   256
  6
BYLAYER
  0
ACDBPLACEHOLDER
  5
F
102
{ACAD_REACTORS
330
E
102
}
330
E
  0
ENDSEC
  0
EOF
